ISO-10303-21;
HEADER;
/* Generated by software containing ST-Developer
 * from STEP Tools, Inc. (www.steptools.com) 
 */
/* OPTION: using custom schema-name function */

FILE_DESCRIPTION(
/* description */ (''),
/* implementation_level */ '2;1');

FILE_NAME(
/* name */ '1737456376700.stp',
/* time_stamp */ '2025-01-21T10:46:26+00:00',
/* author */ (''),
/* organization */ ('SMS'),
/* preprocessor_version */ 'ST-DEVELOPER v16.7',
/* originating_system */ 'SIEMENS PLM Software NX 12.0',
/* authorisation */ '');

FILE_SCHEMA (('AUTOMOTIVE_DESIGN { 1 0 10303 214 3 1 1 1 }'));
ENDSEC;

DATA;
#10=CONSTRUCTIVE_GEOMETRY_REPRESENTATION_RELATIONSHIP(
'supplemental geometry','',#26,#11);
#11=CONSTRUCTIVE_GEOMETRY_REPRESENTATION('supplemental geometry',(#314,
#315,#316),#486);
#12=GEOMETRICALLY_BOUNDED_WIREFRAME_SHAPE_REPRESENTATION(
'435.B-1300-A1-XF    H10F-None',(#27),#486);
#13=SHAPE_REPRESENTATION_RELATIONSHIP('None',
'relationship between 435.B-1300-A1-XF    H10F-None and 435.B-1300-A1-
XF    H10F-None',#26,#15);
#14=SHAPE_REPRESENTATION_RELATIONSHIP('None',
'relationship between 435.B-1300-A1-XF    H10F-None and 435.B-1300-A1-
XF    H10F-None',#26,#12);
#15=ADVANCED_BREP_SHAPE_REPRESENTATION('435.B-1300-A1-XF    H10F-None',
(#38,#39),#486);
#16=SHAPE_DEFINITION_REPRESENTATION(#17,#26);
#17=PRODUCT_DEFINITION_SHAPE('','',#18);
#18=PRODUCT_DEFINITION(' ','',#20,#19);
#19=PRODUCT_DEFINITION_CONTEXT('part definition',#25,'design');
#20=PRODUCT_DEFINITION_FORMATION_WITH_SPECIFIED_SOURCE(' ',' ',#22,
 .NOT_KNOWN.);
#21=PRODUCT_RELATED_PRODUCT_CATEGORY('part','',(#22));
#22=PRODUCT('435.B-1300-A1-XF    H10F','435.B-1300-A1-XF    H10F',' ',(#23));
#23=PRODUCT_CONTEXT(' ',#25,'mechanical');
#24=APPLICATION_PROTOCOL_DEFINITION('international standard',
'automotive_design',2010,#25);
#25=APPLICATION_CONTEXT(
'core data for automotive mechanical design processes');
#26=SHAPE_REPRESENTATION('435.B-1300-A1-XF    H10F-None',(#313),#486);
#27=GEOMETRIC_CURVE_SET('None',(#417,#418,#419,#420,#213,#214,#215,#216,
#217,#218,#219,#220,#221,#222,#223,#224,#225,#178));
#28=SURFACE_STYLE_USAGE(.BOTH.,#30);
#29=SURFACE_STYLE_USAGE(.BOTH.,#31);
#30=SURFACE_SIDE_STYLE('',(#32));
#31=SURFACE_SIDE_STYLE('',(#33));
#32=SURFACE_STYLE_FILL_AREA(#34);
#33=SURFACE_STYLE_FILL_AREA(#35);
#34=FILL_AREA_STYLE('',(#36));
#35=FILL_AREA_STYLE('',(#37));
#36=FILL_AREA_STYLE_COLOUR('',#253);
#37=FILL_AREA_STYLE_COLOUR('',#254);
#38=MANIFOLD_SOLID_BREP('NOCUT',#40);
#39=MANIFOLD_SOLID_BREP('CUT',#41);
#40=CLOSED_SHELL('',(#72,#73,#74,#75,#76,#77,#78,#79,#80));
#41=CLOSED_SHELL('',(#81,#82,#83,#84,#85));
#42=CYLINDRICAL_SURFACE('',#324,6.35);
#43=CYLINDRICAL_SURFACE('',#328,5.00000000000001);
#44=CYLINDRICAL_SURFACE('',#332,7.);
#45=CYLINDRICAL_SURFACE('',#341,6.50000000000001);
#46=CONICAL_SURFACE('',#322,6.35,60.0000000000008);
#47=CONICAL_SURFACE('',#326,5.00000000000001,29.99860799587);
#48=CONICAL_SURFACE('',#330,7.00000000000001,30.);
#49=CONICAL_SURFACE('',#333,6.,45.);
#50=CONICAL_SURFACE('',#339,6.50000000000001,59.9999999999983);
#51=CONICAL_SURFACE('',#342,6.35,29.9986079958728);
#52=FACE_BOUND('',#96,.T.);
#53=FACE_BOUND('',#97,.T.);
#54=FACE_BOUND('',#98,.T.);
#55=FACE_BOUND('',#99,.T.);
#56=FACE_BOUND('',#100,.T.);
#57=FACE_BOUND('',#101,.T.);
#58=FACE_BOUND('',#102,.T.);
#59=FACE_BOUND('',#103,.T.);
#60=FACE_BOUND('',#104,.T.);
#61=FACE_BOUND('',#105,.T.);
#62=FACE_BOUND('',#106,.T.);
#63=FACE_BOUND('',#107,.T.);
#64=FACE_BOUND('',#108,.T.);
#65=FACE_BOUND('',#109,.T.);
#66=FACE_BOUND('',#112,.T.);
#67=FACE_BOUND('',#113,.T.);
#68=FACE_BOUND('',#114,.T.);
#69=FACE_BOUND('',#115,.T.);
#70=FACE_BOUND('',#116,.T.);
#71=FACE_BOUND('',#117,.T.);
#72=ADVANCED_FACE('',(#90),#86,.F.);
#73=ADVANCED_FACE('',(#91),#87,.T.);
#74=ADVANCED_FACE('',(#52,#53),#46,.T.);
#75=ADVANCED_FACE('',(#54,#55),#42,.T.);
#76=ADVANCED_FACE('',(#56,#57),#47,.T.);
#77=ADVANCED_FACE('',(#58,#59),#43,.T.);
#78=ADVANCED_FACE('',(#60,#61),#48,.T.);
#79=ADVANCED_FACE('',(#62,#63),#44,.T.);
#80=ADVANCED_FACE('',(#64,#65),#49,.T.);
#81=ADVANCED_FACE('',(#92),#88,.F.);
#82=ADVANCED_FACE('',(#93),#89,.T.);
#83=ADVANCED_FACE('',(#66,#67),#50,.T.);
#84=ADVANCED_FACE('',(#68,#69),#45,.T.);
#85=ADVANCED_FACE('',(#70,#71),#51,.T.);
#86=PLANE('',#318);
#87=PLANE('',#320);
#88=PLANE('',#335);
#89=PLANE('',#337);
#90=FACE_OUTER_BOUND('',#94,.T.);
#91=FACE_OUTER_BOUND('',#95,.T.);
#92=FACE_OUTER_BOUND('',#110,.T.);
#93=FACE_OUTER_BOUND('',#111,.T.);
#94=EDGE_LOOP('',(#118));
#95=EDGE_LOOP('',(#119));
#96=EDGE_LOOP('',(#120));
#97=EDGE_LOOP('',(#121));
#98=EDGE_LOOP('',(#122));
#99=EDGE_LOOP('',(#123));
#100=EDGE_LOOP('',(#124));
#101=EDGE_LOOP('',(#125));
#102=EDGE_LOOP('',(#126));
#103=EDGE_LOOP('',(#127));
#104=EDGE_LOOP('',(#128));
#105=EDGE_LOOP('',(#129));
#106=EDGE_LOOP('',(#130));
#107=EDGE_LOOP('',(#131));
#108=EDGE_LOOP('',(#132));
#109=EDGE_LOOP('',(#133));
#110=EDGE_LOOP('',(#134));
#111=EDGE_LOOP('',(#135));
#112=EDGE_LOOP('',(#136));
#113=EDGE_LOOP('',(#137));
#114=EDGE_LOOP('',(#138));
#115=EDGE_LOOP('',(#139));
#116=EDGE_LOOP('',(#140));
#117=EDGE_LOOP('',(#141));
#118=ORIENTED_EDGE('',*,*,#154,.F.);
#119=ORIENTED_EDGE('',*,*,#155,.T.);
#120=ORIENTED_EDGE('',*,*,#155,.F.);
#121=ORIENTED_EDGE('',*,*,#156,.T.);
#122=ORIENTED_EDGE('',*,*,#156,.F.);
#123=ORIENTED_EDGE('',*,*,#157,.T.);
#124=ORIENTED_EDGE('',*,*,#157,.F.);
#125=ORIENTED_EDGE('',*,*,#158,.T.);
#126=ORIENTED_EDGE('',*,*,#158,.F.);
#127=ORIENTED_EDGE('',*,*,#159,.T.);
#128=ORIENTED_EDGE('',*,*,#159,.F.);
#129=ORIENTED_EDGE('',*,*,#160,.T.);
#130=ORIENTED_EDGE('',*,*,#160,.F.);
#131=ORIENTED_EDGE('',*,*,#161,.T.);
#132=ORIENTED_EDGE('',*,*,#161,.F.);
#133=ORIENTED_EDGE('',*,*,#154,.T.);
#134=ORIENTED_EDGE('',*,*,#162,.F.);
#135=ORIENTED_EDGE('',*,*,#163,.T.);
#136=ORIENTED_EDGE('',*,*,#163,.F.);
#137=ORIENTED_EDGE('',*,*,#164,.T.);
#138=ORIENTED_EDGE('',*,*,#164,.F.);
#139=ORIENTED_EDGE('',*,*,#165,.T.);
#140=ORIENTED_EDGE('',*,*,#165,.F.);
#141=ORIENTED_EDGE('',*,*,#162,.T.);
#142=VERTEX_POINT('',#448);
#143=VERTEX_POINT('',#451);
#144=VERTEX_POINT('',#454);
#145=VERTEX_POINT('',#457);
#146=VERTEX_POINT('',#460);
#147=VERTEX_POINT('',#463);
#148=VERTEX_POINT('',#466);
#149=VERTEX_POINT('',#469);
#150=VERTEX_POINT('',#473);
#151=VERTEX_POINT('',#476);
#152=VERTEX_POINT('',#479);
#153=VERTEX_POINT('',#482);
#154=EDGE_CURVE('',#142,#142,#166,.T.);
#155=EDGE_CURVE('',#143,#143,#167,.T.);
#156=EDGE_CURVE('',#144,#144,#168,.T.);
#157=EDGE_CURVE('',#145,#145,#169,.T.);
#158=EDGE_CURVE('',#146,#146,#170,.T.);
#159=EDGE_CURVE('',#147,#147,#171,.T.);
#160=EDGE_CURVE('',#148,#148,#172,.T.);
#161=EDGE_CURVE('',#149,#149,#173,.T.);
#162=EDGE_CURVE('',#150,#150,#174,.T.);
#163=EDGE_CURVE('',#151,#151,#175,.T.);
#164=EDGE_CURVE('',#152,#152,#176,.T.);
#165=EDGE_CURVE('',#153,#153,#177,.T.);
#166=CIRCLE('',#317,6.);
#167=CIRCLE('',#319,5.63397459621556);
#168=CIRCLE('',#321,6.35);
#169=CIRCLE('',#323,6.35);
#170=CIRCLE('',#325,5.00000000000001);
#171=CIRCLE('',#327,5.);
#172=CIRCLE('',#329,7.00000000000001);
#173=CIRCLE('',#331,7.);
#174=CIRCLE('',#334,6.35);
#175=CIRCLE('',#336,6.35);
#176=CIRCLE('',#338,6.50000000000001);
#177=CIRCLE('',#340,6.50000000000001);
#178=B_SPLINE_CURVE_WITH_KNOTS('CUTTING PART LINE',3,(#434,#435,#436,#437,
#438,#439,#440,#441,#442,#443),.UNSPECIFIED.,.F.,.F.,(4,3,3,4),(0.,0.00788255425410154,
0.98634644098455,1.),.UNSPECIFIED.);
#179=CURVE_STYLE('',#196,POSITIVE_LENGTH_MEASURE(0.18),#311);
#180=CURVE_STYLE('',#197,POSITIVE_LENGTH_MEASURE(0.18),#311);
#181=CURVE_STYLE('',#198,POSITIVE_LENGTH_MEASURE(0.18),#311);
#182=CURVE_STYLE('',#199,POSITIVE_LENGTH_MEASURE(0.18),#311);
#183=CURVE_STYLE('',#200,POSITIVE_LENGTH_MEASURE(0.18),#311);
#184=CURVE_STYLE('',#201,POSITIVE_LENGTH_MEASURE(0.18),#311);
#185=CURVE_STYLE('',#202,POSITIVE_LENGTH_MEASURE(0.18),#311);
#186=CURVE_STYLE('',#203,POSITIVE_LENGTH_MEASURE(0.18),#311);
#187=CURVE_STYLE('',#204,POSITIVE_LENGTH_MEASURE(0.18),#311);
#188=CURVE_STYLE('',#205,POSITIVE_LENGTH_MEASURE(0.18),#311);
#189=CURVE_STYLE('',#206,POSITIVE_LENGTH_MEASURE(0.18),#311);
#190=CURVE_STYLE('',#207,POSITIVE_LENGTH_MEASURE(0.18),#311);
#191=CURVE_STYLE('',#208,POSITIVE_LENGTH_MEASURE(0.18),#311);
#192=CURVE_STYLE('',#209,POSITIVE_LENGTH_MEASURE(0.18),#312);
#193=CURVE_STYLE('',#210,POSITIVE_LENGTH_MEASURE(0.18),#252);
#194=CURVE_STYLE('',#211,POSITIVE_LENGTH_MEASURE(0.18),#252);
#195=CURVE_STYLE('',#212,POSITIVE_LENGTH_MEASURE(0.18),#252);
#196=DRAUGHTING_PRE_DEFINED_CURVE_FONT('continuous');
#197=DRAUGHTING_PRE_DEFINED_CURVE_FONT('continuous');
#198=DRAUGHTING_PRE_DEFINED_CURVE_FONT('continuous');
#199=DRAUGHTING_PRE_DEFINED_CURVE_FONT('continuous');
#200=DRAUGHTING_PRE_DEFINED_CURVE_FONT('continuous');
#201=DRAUGHTING_PRE_DEFINED_CURVE_FONT('continuous');
#202=DRAUGHTING_PRE_DEFINED_CURVE_FONT('continuous');
#203=DRAUGHTING_PRE_DEFINED_CURVE_FONT('continuous');
#204=DRAUGHTING_PRE_DEFINED_CURVE_FONT('chain double dash');
#205=DRAUGHTING_PRE_DEFINED_CURVE_FONT('continuous');
#206=DRAUGHTING_PRE_DEFINED_CURVE_FONT('continuous');
#207=DRAUGHTING_PRE_DEFINED_CURVE_FONT('chain double dash');
#208=DRAUGHTING_PRE_DEFINED_CURVE_FONT('chain double dash');
#209=DRAUGHTING_PRE_DEFINED_CURVE_FONT('continuous');
#210=DRAUGHTING_PRE_DEFINED_CURVE_FONT('continuous');
#211=DRAUGHTING_PRE_DEFINED_CURVE_FONT('continuous');
#212=DRAUGHTING_PRE_DEFINED_CURVE_FONT('continuous');
#213=TRIMMED_CURVE('Line1',#226,(PARAMETER_VALUE(0.)),(
PARAMETER_VALUE(1.)),.T.,.PARAMETER.);
#214=TRIMMED_CURVE('Line3',#227,(PARAMETER_VALUE(0.)),(
PARAMETER_VALUE(1.)),.T.,.PARAMETER.);
#215=TRIMMED_CURVE('Line6',#228,(PARAMETER_VALUE(0.)),(
PARAMETER_VALUE(1.)),.T.,.PARAMETER.);
#216=TRIMMED_CURVE('Line11',#229,(PARAMETER_VALUE(0.)),(
PARAMETER_VALUE(1.)),.T.,.PARAMETER.);
#217=TRIMMED_CURVE('Line17',#230,(PARAMETER_VALUE(0.)),(
PARAMETER_VALUE(1.)),.T.,.PARAMETER.);
#218=TRIMMED_CURVE('Line35',#231,(PARAMETER_VALUE(0.)),(
PARAMETER_VALUE(1.)),.T.,.PARAMETER.);
#219=TRIMMED_CURVE('Line36',#232,(PARAMETER_VALUE(0.)),(
PARAMETER_VALUE(1.)),.T.,.PARAMETER.);
#220=TRIMMED_CURVE('Line38',#233,(PARAMETER_VALUE(0.)),(
PARAMETER_VALUE(1.)),.T.,.PARAMETER.);
#221=TRIMMED_CURVE('Line39',#234,(PARAMETER_VALUE(0.)),(
PARAMETER_VALUE(1.)),.T.,.PARAMETER.);
#222=TRIMMED_CURVE('Line41',#235,(PARAMETER_VALUE(0.)),(
PARAMETER_VALUE(1.)),.T.,.PARAMETER.);
#223=TRIMMED_CURVE('Line42',#236,(PARAMETER_VALUE(0.)),(
PARAMETER_VALUE(1.)),.T.,.PARAMETER.);
#224=TRIMMED_CURVE('Line43',#237,(PARAMETER_VALUE(0.)),(
PARAMETER_VALUE(1.)),.T.,.PARAMETER.);
#225=TRIMMED_CURVE('Line44',#238,(PARAMETER_VALUE(0.)),(
PARAMETER_VALUE(1.)),.T.,.PARAMETER.);
#226=LINE('Line1',#421,#239);
#227=LINE('Line3',#422,#240);
#228=LINE('Line6',#423,#241);
#229=LINE('Line11',#424,#242);
#230=LINE('Line17',#425,#243);
#231=LINE('Line35',#426,#244);
#232=LINE('Line36',#427,#245);
#233=LINE('Line38',#428,#246);
#234=LINE('Line39',#429,#247);
#235=LINE('Line41',#430,#248);
#236=LINE('Line42',#431,#249);
#237=LINE('Line43',#432,#250);
#238=LINE('Line44',#433,#251);
#239=VECTOR('',#345,44.);
#240=VECTOR('',#346,56.937676397043);
#241=VECTOR('',#347,21.5);
#242=VECTOR('',#348,1.41421356237309);
#243=VECTOR('',#349,4.);
#244=VECTOR('',#350,21.8464247391604);
#245=VECTOR('',#351,2.70011362230736);
#246=VECTOR('',#352,0.826794919243105);
#247=VECTOR('',#353,0.173205080756898);
#248=VECTOR('',#354,0.173205080756906);
#249=VECTOR('',#355,0.300012624700818);
#250=VECTOR('',#356,0.300012624700813);
#251=VECTOR('',#357,21.5);
#252=COLOUR_RGB('Medium Maroon',0.6,0.4,0.4);
#253=COLOUR_RGB('Medium Gray',0.501960784313725,0.501960784313725,0.501960784313725);
#254=COLOUR_RGB('Light Gray',0.8,0.8,0.8);
#255=PRESENTATION_LAYER_ASSIGNMENT('1','Layer 1',(#417,#418,#419,#420,#178,
#314,#315,#316,#38,#39));
#256=PRESENTATION_LAYER_ASSIGNMENT('40','Layer 40',(#213,#214,#215,#216,
#217,#218,#219,#220,#221,#222,#223,#224,#225));
#257=STYLED_ITEM('',(#280),#417);
#258=STYLED_ITEM('',(#281),#418);
#259=STYLED_ITEM('',(#282),#419);
#260=STYLED_ITEM('',(#283),#420);
#261=STYLED_ITEM('',(#284),#213);
#262=STYLED_ITEM('',(#285),#214);
#263=STYLED_ITEM('',(#286),#215);
#264=STYLED_ITEM('',(#287),#216);
#265=STYLED_ITEM('',(#288),#217);
#266=STYLED_ITEM('',(#289),#218);
#267=STYLED_ITEM('',(#290),#219);
#268=STYLED_ITEM('',(#291),#220);
#269=STYLED_ITEM('',(#292),#221);
#270=STYLED_ITEM('',(#293),#222);
#271=STYLED_ITEM('',(#294),#223);
#272=STYLED_ITEM('',(#295),#224);
#273=STYLED_ITEM('',(#296),#225);
#274=STYLED_ITEM('',(#297),#178);
#275=STYLED_ITEM('',(#298),#314);
#276=STYLED_ITEM('',(#299),#315);
#277=STYLED_ITEM('',(#300),#316);
#278=STYLED_ITEM('',(#301),#38);
#279=STYLED_ITEM('',(#302),#39);
#280=PRESENTATION_STYLE_ASSIGNMENT((#303));
#281=PRESENTATION_STYLE_ASSIGNMENT((#304));
#282=PRESENTATION_STYLE_ASSIGNMENT((#305));
#283=PRESENTATION_STYLE_ASSIGNMENT((#306));
#284=PRESENTATION_STYLE_ASSIGNMENT((#179));
#285=PRESENTATION_STYLE_ASSIGNMENT((#180));
#286=PRESENTATION_STYLE_ASSIGNMENT((#181));
#287=PRESENTATION_STYLE_ASSIGNMENT((#182));
#288=PRESENTATION_STYLE_ASSIGNMENT((#183));
#289=PRESENTATION_STYLE_ASSIGNMENT((#184));
#290=PRESENTATION_STYLE_ASSIGNMENT((#185));
#291=PRESENTATION_STYLE_ASSIGNMENT((#186));
#292=PRESENTATION_STYLE_ASSIGNMENT((#187));
#293=PRESENTATION_STYLE_ASSIGNMENT((#188));
#294=PRESENTATION_STYLE_ASSIGNMENT((#189));
#295=PRESENTATION_STYLE_ASSIGNMENT((#190));
#296=PRESENTATION_STYLE_ASSIGNMENT((#191));
#297=PRESENTATION_STYLE_ASSIGNMENT((#192));
#298=PRESENTATION_STYLE_ASSIGNMENT((#193));
#299=PRESENTATION_STYLE_ASSIGNMENT((#194));
#300=PRESENTATION_STYLE_ASSIGNMENT((#195));
#301=PRESENTATION_STYLE_ASSIGNMENT((#28));
#302=PRESENTATION_STYLE_ASSIGNMENT((#29));
#303=POINT_STYLE('',#307,POSITIVE_LENGTH_MEASURE(3.),#311);
#304=POINT_STYLE('',#308,POSITIVE_LENGTH_MEASURE(3.),#252);
#305=POINT_STYLE('',#309,POSITIVE_LENGTH_MEASURE(3.),#252);
#306=POINT_STYLE('',#310,POSITIVE_LENGTH_MEASURE(3.),#252);
#307=PRE_DEFINED_POINT_MARKER_SYMBOL('plus');
#308=PRE_DEFINED_POINT_MARKER_SYMBOL('plus');
#309=PRE_DEFINED_POINT_MARKER_SYMBOL('plus');
#310=PRE_DEFINED_POINT_MARKER_SYMBOL('plus');
#311=DRAUGHTING_PRE_DEFINED_COLOUR('white');
#312=DRAUGHTING_PRE_DEFINED_COLOUR('blue');
#313=AXIS2_PLACEMENT_3D('',#416,#343,#344);
#314=AXIS2_PLACEMENT_3D('PCS',#444,#358,#359);
#315=AXIS2_PLACEMENT_3D('MCS',#445,#360,#361);
#316=AXIS2_PLACEMENT_3D('CIP',#446,#362,#363);
#317=AXIS2_PLACEMENT_3D('',#447,#364,#365);
#318=AXIS2_PLACEMENT_3D('',#449,#366,#367);
#319=AXIS2_PLACEMENT_3D('',#450,#368,#369);
#320=AXIS2_PLACEMENT_3D('',#452,#370,#371);
#321=AXIS2_PLACEMENT_3D('',#453,#372,#373);
#322=AXIS2_PLACEMENT_3D('',#455,#374,#375);
#323=AXIS2_PLACEMENT_3D('',#456,#376,#377);
#324=AXIS2_PLACEMENT_3D('',#458,#378,#379);
#325=AXIS2_PLACEMENT_3D('',#459,#380,#381);
#326=AXIS2_PLACEMENT_3D('',#461,#382,#383);
#327=AXIS2_PLACEMENT_3D('',#462,#384,#385);
#328=AXIS2_PLACEMENT_3D('',#464,#386,#387);
#329=AXIS2_PLACEMENT_3D('',#465,#388,#389);
#330=AXIS2_PLACEMENT_3D('',#467,#390,#391);
#331=AXIS2_PLACEMENT_3D('',#468,#392,#393);
#332=AXIS2_PLACEMENT_3D('',#470,#394,#395);
#333=AXIS2_PLACEMENT_3D('',#471,#396,#397);
#334=AXIS2_PLACEMENT_3D('',#472,#398,#399);
#335=AXIS2_PLACEMENT_3D('',#474,#400,#401);
#336=AXIS2_PLACEMENT_3D('',#475,#402,#403);
#337=AXIS2_PLACEMENT_3D('',#477,#404,#405);
#338=AXIS2_PLACEMENT_3D('',#478,#406,#407);
#339=AXIS2_PLACEMENT_3D('',#480,#408,#409);
#340=AXIS2_PLACEMENT_3D('',#481,#410,#411);
#341=AXIS2_PLACEMENT_3D('',#483,#412,#413);
#342=AXIS2_PLACEMENT_3D('',#484,#414,#415);
#343=DIRECTION('',(0.,0.,1.));
#344=DIRECTION('',(1.,0.,0.));
#345=DIRECTION('',(0.,1.21115239050017E-16,-1.));
#346=DIRECTION('',(0.,1.24793068618621E-16,-1.));
#347=DIRECTION('',(0.,1.23931872516297E-16,-1.));
#348=DIRECTION('',(0.,-0.707106781186548,0.707106781186547));
#349=DIRECTION('',(0.,-0.5,-0.866025403784439));
#350=DIRECTION('',(0.,1.21966650878307E-16,-1.));
#351=DIRECTION('',(0.,-0.49997895971739,0.866037551056486));
#352=DIRECTION('',(0.,0.866025403784451,0.499999999999979));
#353=DIRECTION('',(0.,0.866025403784386,0.500000000000092));
#354=DIRECTION('',(0.,0.8660254037844,0.500000000000067));
#355=DIRECTION('',(0.,0.499978959717426,-0.866037551056466));
#356=DIRECTION('',(0.,0.499978959717403,-0.866037551056479));
#357=DIRECTION('',(0.,8.26212483441977E-17,-1.));
#358=DIRECTION('',(0.,0.,1.));
#359=DIRECTION('',(1.,0.,0.));
#360=DIRECTION('',(0.,0.,1.));
#361=DIRECTION('',(1.,0.,0.));
#362=DIRECTION('',(0.,0.,1.));
#363=DIRECTION('',(1.,0.,0.));
#364=DIRECTION('',(0.,0.,-1.));
#365=DIRECTION('',(-1.,0.,0.));
#366=DIRECTION('',(0.,0.,-1.));
#367=DIRECTION('',(-1.,0.,0.));
#368=DIRECTION('',(0.,0.,-1.));
#369=DIRECTION('',(-1.,0.,0.));
#370=DIRECTION('',(0.,0.,-1.));
#371=DIRECTION('',(-1.,0.,0.));
#372=DIRECTION('',(0.,0.,-1.));
#373=DIRECTION('',(-1.,0.,0.));
#374=DIRECTION('',(0.,0.,1.));
#375=DIRECTION('',(1.,0.,0.));
#376=DIRECTION('',(0.,0.,-1.));
#377=DIRECTION('',(-1.,0.,0.));
#378=DIRECTION('',(0.,0.,-1.));
#379=DIRECTION('',(-1.,0.,0.));
#380=DIRECTION('',(0.,0.,-1.));
#381=DIRECTION('',(-1.,0.,0.));
#382=DIRECTION('',(0.,0.,-1.));
#383=DIRECTION('',(-1.,0.,0.));
#384=DIRECTION('',(0.,0.,-1.));
#385=DIRECTION('',(-1.,0.,0.));
#386=DIRECTION('',(0.,0.,-1.));
#387=DIRECTION('',(-1.,0.,0.));
#388=DIRECTION('',(0.,0.,-1.));
#389=DIRECTION('',(-1.,0.,0.));
#390=DIRECTION('',(0.,0.,1.));
#391=DIRECTION('',(1.,0.,-7.12472734566895E-17));
#392=DIRECTION('',(0.,0.,-1.));
#393=DIRECTION('',(-1.,0.,0.));
#394=DIRECTION('',(0.,0.,-1.));
#395=DIRECTION('',(-1.,0.,0.));
#396=DIRECTION('',(0.,0.,-1.));
#397=DIRECTION('',(-1.,0.,0.));
#398=DIRECTION('',(0.,0.,-1.));
#399=DIRECTION('',(-1.,0.,0.));
#400=DIRECTION('',(0.,0.,-1.));
#401=DIRECTION('',(-1.,0.,0.));
#402=DIRECTION('',(0.,0.,-1.));
#403=DIRECTION('',(-1.,0.,0.));
#404=DIRECTION('',(0.,0.,-1.));
#405=DIRECTION('',(-1.,0.,0.));
#406=DIRECTION('',(0.,0.,-1.));
#407=DIRECTION('',(-1.,0.,0.));
#408=DIRECTION('',(0.,0.,1.));
#409=DIRECTION('',(1.,0.,3.19295536199407E-17));
#410=DIRECTION('',(0.,0.,-1.));
#411=DIRECTION('',(-1.,0.,0.));
#412=DIRECTION('',(0.,0.,-1.));
#413=DIRECTION('',(-1.,0.,0.));
#414=DIRECTION('',(0.,0.,-1.));
#415=DIRECTION('',(-1.,0.,-9.5107429226951E-17));
#416=CARTESIAN_POINT('',(0.,0.,0.));
#417=CARTESIAN_POINT('CRP',(0.,6.50000000000001,-129.5));
#418=CARTESIAN_POINT('',(0.,0.,0.));
#419=CARTESIAN_POINT('',(0.,0.,-45.));
#420=CARTESIAN_POINT('',(0.,0.,-130.));
#421=CARTESIAN_POINT('',(0.,7.,-1.));
#422=CARTESIAN_POINT('',(0.,5.,-48.4641016151378));
#423=CARTESIAN_POINT('',(0.,6.50000000000001,-108.));
#424=CARTESIAN_POINT('',(0.,7.,-1.));
#425=CARTESIAN_POINT('',(0.,7.00000000000001,-45.));
#426=CARTESIAN_POINT('',(0.,6.35,-107.740177801218));
#427=CARTESIAN_POINT('',(0.,6.35,-107.740177801218));
#428=CARTESIAN_POINT('',(0.,5.63397459621556,-130.));
#429=CARTESIAN_POINT('',(0.,6.35,-129.586602540378));
#430=CARTESIAN_POINT('',(0.,6.35,-129.586602540378));
#431=CARTESIAN_POINT('',(0.,6.35,-107.740177801218));
#432=CARTESIAN_POINT('',(0.,6.35,-107.740177801218));
#433=CARTESIAN_POINT('',(0.,6.5,-108.));
#434=CARTESIAN_POINT('',(0.,6.35,-129.586602540378));
#435=CARTESIAN_POINT('',(0.,6.40000000000001,-129.557735026919));
#436=CARTESIAN_POINT('',(0.,6.45000000000001,-129.528867513459));
#437=CARTESIAN_POINT('',(0.,6.50000000000001,-129.5));
#438=CARTESIAN_POINT('',(0.,6.50000000000001,-122.333333333333));
#439=CARTESIAN_POINT('',(0.,6.50000000000001,-115.166666666667));
#440=CARTESIAN_POINT('',(0.,6.50000000000001,-108.));
#441=CARTESIAN_POINT('',(0.,6.45000000000001,-107.913392600406));
#442=CARTESIAN_POINT('',(0.,6.4,-107.826785200812));
#443=CARTESIAN_POINT('',(0.,6.35,-107.740177801218));
#444=CARTESIAN_POINT('',(0.,0.,0.));
#445=CARTESIAN_POINT('',(0.,0.,-45.));
#446=CARTESIAN_POINT('',(0.,0.,-130.));
#447=CARTESIAN_POINT('',(0.,0.,0.));
#448=CARTESIAN_POINT('',(-6.,0.,0.));
#449=CARTESIAN_POINT('',(0.,0.,0.));
#450=CARTESIAN_POINT('',(0.,0.,-130.));
#451=CARTESIAN_POINT('',(-5.63397459621556,0.,-130.));
#452=CARTESIAN_POINT('',(0.,0.,-130.));
#453=CARTESIAN_POINT('',(0.,0.,-129.586602540378));
#454=CARTESIAN_POINT('',(-6.35,0.,-129.586602540378));
#455=CARTESIAN_POINT('',(0.,0.,-129.586602540378));
#456=CARTESIAN_POINT('',(0.,0.,-107.740177801218));
#457=CARTESIAN_POINT('',(-6.35,0.,-107.740177801218));
#458=CARTESIAN_POINT('',(0.,0.,0.));
#459=CARTESIAN_POINT('',(0.,0.,-105.401778012181));
#460=CARTESIAN_POINT('',(-5.00000000000001,0.,-105.401778012181));
#461=CARTESIAN_POINT('',(0.,0.,-105.401778012181));
#462=CARTESIAN_POINT('',(0.,0.,-48.4641016151378));
#463=CARTESIAN_POINT('',(-5.,0.,-48.4641016151378));
#464=CARTESIAN_POINT('',(0.,0.,0.));
#465=CARTESIAN_POINT('',(0.,0.,-45.));
#466=CARTESIAN_POINT('',(-7.00000000000001,0.,-45.));
#467=CARTESIAN_POINT('',(0.,0.,-45.));
#468=CARTESIAN_POINT('',(0.,0.,-1.));
#469=CARTESIAN_POINT('',(-7.,0.,-1.));
#470=CARTESIAN_POINT('',(0.,0.,0.));
#471=CARTESIAN_POINT('',(0.,0.,0.));
#472=CARTESIAN_POINT('',(0.,0.,-107.740177801218));
#473=CARTESIAN_POINT('',(-6.35,0.,-107.740177801218));
#474=CARTESIAN_POINT('',(0.,0.,-107.740177801218));
#475=CARTESIAN_POINT('',(0.,0.,-129.586602540378));
#476=CARTESIAN_POINT('',(-6.35,0.,-129.586602540378));
#477=CARTESIAN_POINT('',(0.,0.,-129.586602540378));
#478=CARTESIAN_POINT('',(0.,0.,-129.5));
#479=CARTESIAN_POINT('',(-6.50000000000001,0.,-129.5));
#480=CARTESIAN_POINT('',(0.,0.,-129.5));
#481=CARTESIAN_POINT('',(0.,0.,-108.));
#482=CARTESIAN_POINT('',(-6.50000000000001,0.,-108.));
#483=CARTESIAN_POINT('',(0.,0.,0.));
#484=CARTESIAN_POINT('',(0.,0.,-107.740177801218));
#485=MECHANICAL_DESIGN_GEOMETRIC_PRESENTATION_REPRESENTATION('',(#257,#258,
#259,#260,#261,#262,#263,#264,#265,#266,#267,#268,#269,#270,#271,#272,#273,
#274,#275,#276,#277,#278,#279),#486);
#486=(
GEOMETRIC_REPRESENTATION_CONTEXT(3)
GLOBAL_UNCERTAINTY_ASSIGNED_CONTEXT((#487))
GLOBAL_UNIT_ASSIGNED_CONTEXT((#493,#489,#488))
REPRESENTATION_CONTEXT('1737456376700','TOP_LEVEL_ASSEMBLY_PART')
);
#487=UNCERTAINTY_MEASURE_WITH_UNIT(LENGTH_MEASURE(2.E-5),#493,
'DISTANCE_ACCURACY_VALUE','Maximum Tolerance applied to model');
#488=(
NAMED_UNIT(*)
SI_UNIT($,.STERADIAN.)
SOLID_ANGLE_UNIT()
);
#489=(
CONVERSION_BASED_UNIT('DEGREE',#491)
NAMED_UNIT(#490)
PLANE_ANGLE_UNIT()
);
#490=DIMENSIONAL_EXPONENTS(0.,0.,0.,0.,0.,0.,0.);
#491=PLANE_ANGLE_MEASURE_WITH_UNIT(PLANE_ANGLE_MEASURE(0.0174532925),#492);
#492=(
NAMED_UNIT(*)
PLANE_ANGLE_UNIT()
SI_UNIT($,.RADIAN.)
);
#493=(
LENGTH_UNIT()
NAMED_UNIT(*)
SI_UNIT(.MILLI.,.METRE.)
);
ENDSEC;
END-ISO-10303-21;
