ISO-10303-21;
HEADER;
/* Generated by software containing ST-Developer
 * from STEP Tools, Inc. (www.steptools.com) 
 */
/* OPTION: using custom schema-name function */

FILE_DESCRIPTION(
/* description */ (''),
/* implementation_level */ '2;1');

FILE_NAME(
/* name */ 'TOOLCOMP_1.STP',
/* time_stamp */ '2023-09-05T10:52:46+02:00',
/* author */ (''),
/* organization */ ('SMS'),
/* preprocessor_version */ 'ST-DEVELOPER v16.7',
/* originating_system */ 'SIEMENS PLM Software NX 12.0',
/* authorisation */ '');

FILE_SCHEMA (('AUTOMOTIVE_DESIGN { 1 0 10303 214 3 1 1 1 }'));
ENDSEC;

DATA;
#10=CONTEXT_DEPENDENT_SHAPE_REPRESENTATION(#12,#30);
#11=NEXT_ASSEMBLY_USAGE_OCCURRENCE('1001',' ',
'NOCUT_COMP20230905105020',#32,#31,$);
#12=(
REPRESENTATION_RELATIONSHIP(' ',' ',#45,#46)
REPRESENTATION_RELATIONSHIP_WITH_TRANSFORMATION(#13)
SHAPE_REPRESENTATION_RELATIONSHIP()
);
#13=ITEM_DEFINED_TRANSFORMATION(' ',' ',#373,#429);
#14=CONSTRUCTIVE_GEOMETRY_REPRESENTATION_RELATIONSHIP(
'supplemental geometry','',#45,#16);
#15=CONSTRUCTIVE_GEOMETRY_REPRESENTATION_RELATIONSHIP(
'supplemental geometry','',#46,#17);
#16=CONSTRUCTIVE_GEOMETRY_REPRESENTATION('supplemental geometry',(#402,
#403),#631);
#17=CONSTRUCTIVE_GEOMETRY_REPRESENTATION('supplemental geometry',(#374,
#375,#376),#630);
#18=GEOMETRICALLY_BOUNDED_WIREFRAME_SHAPE_REPRESENTATION(
'NOCUT_COMP20230905105020-None',(#47),#631);
#19=GEOMETRICALLY_BOUNDED_WIREFRAME_SHAPE_REPRESENTATION(
'TOOLCOMP_1-None',(#48),#630);
#20=SHAPE_REPRESENTATION_RELATIONSHIP('None',
'relationship between NOCUT_COMP20230905105020-None and NOCUT_COMP2023
0905105020-None',#45,#24);
#21=SHAPE_REPRESENTATION_RELATIONSHIP('None',
'relationship between NOCUT_COMP20230905105020-None and NOCUT_COMP2023
0905105020-None',#45,#18);
#22=SHAPE_REPRESENTATION_RELATIONSHIP('None',
'relationship between TOOLCOMP_1-None and TOOLCOMP_1-None',#46,#25);
#23=SHAPE_REPRESENTATION_RELATIONSHIP('None',
'relationship between TOOLCOMP_1-None and TOOLCOMP_1-None',#46,#19);
#24=ADVANCED_BREP_SHAPE_REPRESENTATION('NOCUT_COMP20230905105020-None',
(#60),#631);
#25=ADVANCED_BREP_SHAPE_REPRESENTATION('TOOLCOMP_1-None',(#59),#630);
#26=SHAPE_DEFINITION_REPRESENTATION(#28,#45);
#27=SHAPE_DEFINITION_REPRESENTATION(#29,#46);
#28=PRODUCT_DEFINITION_SHAPE('','',#31);
#29=PRODUCT_DEFINITION_SHAPE('','',#32);
#30=PRODUCT_DEFINITION_SHAPE(' ','NAUO PRDDFN',#11);
#31=PRODUCT_DEFINITION(' ','',#35,#33);
#32=PRODUCT_DEFINITION(' ','',#36,#34);
#33=PRODUCT_DEFINITION_CONTEXT('part definition',#44,'design');
#34=PRODUCT_DEFINITION_CONTEXT('part definition',#44,'design');
#35=PRODUCT_DEFINITION_FORMATION_WITH_SPECIFIED_SOURCE(' ',' ',#39,
 .NOT_KNOWN.);
#36=PRODUCT_DEFINITION_FORMATION_WITH_SPECIFIED_SOURCE(' ',' ',#40,
 .NOT_KNOWN.);
#37=PRODUCT_RELATED_PRODUCT_CATEGORY('part','',(#39));
#38=PRODUCT_RELATED_PRODUCT_CATEGORY('part','',(#40));
#39=PRODUCT('NOCUT_COMP20230905105020','NOCUT_COMP20230905105020',' ',(#41));
#40=PRODUCT('TOOLCOMP_1','TOOLCOMP_1',' ',(#42));
#41=PRODUCT_CONTEXT(' ',#44,'mechanical');
#42=PRODUCT_CONTEXT(' ',#44,'mechanical');
#43=APPLICATION_PROTOCOL_DEFINITION('international standard',
'automotive_design',2010,#44);
#44=APPLICATION_CONTEXT(
'core data for automotive mechanical design processes');
#45=SHAPE_REPRESENTATION('NOCUT_COMP20230905105020-None',(#373),#631);
#46=SHAPE_REPRESENTATION('TOOLCOMP_1-None',(#373,#429),#630);
#47=GEOMETRIC_CURVE_SET('None',(#587));
#48=GEOMETRIC_CURVE_SET('None',(#545,#546));
#49=SURFACE_STYLE_USAGE(.BOTH.,#51);
#50=SURFACE_STYLE_USAGE(.BOTH.,#52);
#51=SURFACE_SIDE_STYLE('',(#53));
#52=SURFACE_SIDE_STYLE('',(#54));
#53=SURFACE_STYLE_FILL_AREA(#55);
#54=SURFACE_STYLE_FILL_AREA(#56);
#55=FILL_AREA_STYLE('',(#57));
#56=FILL_AREA_STYLE('',(#58));
#57=FILL_AREA_STYLE_COLOUR('',#372);
#58=FILL_AREA_STYLE_COLOUR('',#372);
#59=MANIFOLD_SOLID_BREP('NOCUT',#61);
#60=MANIFOLD_SOLID_BREP('NOCUT',#62);
#61=CLOSED_SHELL('',(#85,#86,#87,#88,#89,#90,#91,#92,#93,#94,#95,#96,#97));
#62=CLOSED_SHELL('',(#98,#99,#100,#101,#102,#103,#104,#105,#106,#107,#108,
#109,#110));
#63=TOROIDAL_SURFACE('',#391,44.75,1.);
#64=TOROIDAL_SURFACE('',#395,44.,1.);
#65=TOROIDAL_SURFACE('',#401,44.75,1.);
#66=TOROIDAL_SURFACE('',#418,44.75,1.);
#67=TOROIDAL_SURFACE('',#422,44.,1.);
#68=TOROIDAL_SURFACE('',#428,44.75,1.);
#69=CONICAL_SURFACE('',#386,37.5,2.86813194068667);
#70=CONICAL_SURFACE('',#393,44.3536153561305,69.2913933993186);
#71=CONICAL_SURFACE('',#399,37.0000000000001,44.9999999999998);
#72=CONICAL_SURFACE('',#413,37.5,2.86813194068667);
#73=CONICAL_SURFACE('',#420,44.3536153561305,69.2913933993186);
#74=CONICAL_SURFACE('',#426,37.0000000000001,44.9999999999998);
#75=FACE_OUTER_BOUND('',#169,.T.);
#76=FACE_OUTER_BOUND('',#184,.T.);
#77=FACE_OUTER_BOUND('',#193,.T.);
#78=FACE_OUTER_BOUND('',#208,.T.);
#79=CYLINDRICAL_SURFACE('',#383,50.);
#80=CYLINDRICAL_SURFACE('',#389,43.75);
#81=CYLINDRICAL_SURFACE('',#397,45.);
#82=CYLINDRICAL_SURFACE('',#410,50.);
#83=CYLINDRICAL_SURFACE('',#416,43.75);
#84=CYLINDRICAL_SURFACE('',#424,45.);
#85=ADVANCED_FACE('CU_FL_N2_SU_5',(#119,#120),#111,.T.);
#86=ADVANCED_FACE('CU_FL_N2_SU_1',(#121,#122),#112,.T.);
#87=ADVANCED_FACE('CU_FL_N2_SU_3',(#123,#124),#79,.T.);
#88=ADVANCED_FACE('CU_CO_N1_SU_3',(#75),#113,.F.);
#89=ADVANCED_FACE('CU_CO_N1_SU_1',(#125,#126),#69,.T.);
#90=ADVANCED_FACE('CN_EXP_SU_2',(#127,#128),#80,.T.);
#91=ADVANCED_FACE('CN_EXP_SU_3',(#129,#130),#63,.F.);
#92=ADVANCED_FACE('CN_EXP_SU_4',(#131,#132),#70,.F.);
#93=ADVANCED_FACE('CN_EXP_SU_5',(#133,#134),#64,.T.);
#94=ADVANCED_FACE('CN_EXP_SU_6',(#135,#136),#81,.T.);
#95=ADVANCED_FACE('CHF_CYL_N2_SU_1',(#137,#138),#71,.T.);
#96=ADVANCED_FACE('CN_EXP_SU_7',(#76),#114,.T.);
#97=ADVANCED_FACE('',(#139,#140),#65,.F.);
#98=ADVANCED_FACE('CU_FL_N2_SU_5',(#141,#142),#115,.T.);
#99=ADVANCED_FACE('CU_FL_N2_SU_1',(#143,#144),#116,.T.);
#100=ADVANCED_FACE('CU_FL_N2_SU_3',(#145,#146),#82,.T.);
#101=ADVANCED_FACE('CU_CO_N1_SU_3',(#77),#117,.F.);
#102=ADVANCED_FACE('CU_CO_N1_SU_1',(#147,#148),#72,.T.);
#103=ADVANCED_FACE('CN_EXP_SU_2',(#149,#150),#83,.T.);
#104=ADVANCED_FACE('CN_EXP_SU_3',(#151,#152),#66,.F.);
#105=ADVANCED_FACE('CN_EXP_SU_4',(#153,#154),#73,.F.);
#106=ADVANCED_FACE('CN_EXP_SU_5',(#155,#156),#67,.T.);
#107=ADVANCED_FACE('CN_EXP_SU_6',(#157,#158),#84,.T.);
#108=ADVANCED_FACE('CHF_CYL_N2_SU_1',(#159,#160),#74,.T.);
#109=ADVANCED_FACE('CN_EXP_SU_7',(#78),#118,.T.);
#110=ADVANCED_FACE('',(#161,#162),#68,.F.);
#111=PLANE('',#379);
#112=PLANE('',#382);
#113=PLANE('',#385);
#114=PLANE('',#400);
#115=PLANE('',#406);
#116=PLANE('',#409);
#117=PLANE('',#412);
#118=PLANE('',#427);
#119=FACE_BOUND('',#163,.T.);
#120=FACE_BOUND('',#164,.T.);
#121=FACE_BOUND('',#165,.T.);
#122=FACE_BOUND('',#166,.T.);
#123=FACE_BOUND('',#167,.T.);
#124=FACE_BOUND('',#168,.T.);
#125=FACE_BOUND('',#170,.T.);
#126=FACE_BOUND('',#171,.T.);
#127=FACE_BOUND('',#172,.T.);
#128=FACE_BOUND('',#173,.T.);
#129=FACE_BOUND('',#174,.T.);
#130=FACE_BOUND('',#175,.T.);
#131=FACE_BOUND('',#176,.T.);
#132=FACE_BOUND('',#177,.T.);
#133=FACE_BOUND('',#178,.T.);
#134=FACE_BOUND('',#179,.T.);
#135=FACE_BOUND('',#180,.T.);
#136=FACE_BOUND('',#181,.T.);
#137=FACE_BOUND('',#182,.T.);
#138=FACE_BOUND('',#183,.T.);
#139=FACE_BOUND('',#185,.T.);
#140=FACE_BOUND('',#186,.T.);
#141=FACE_BOUND('',#187,.T.);
#142=FACE_BOUND('',#188,.T.);
#143=FACE_BOUND('',#189,.T.);
#144=FACE_BOUND('',#190,.T.);
#145=FACE_BOUND('',#191,.T.);
#146=FACE_BOUND('',#192,.T.);
#147=FACE_BOUND('',#194,.T.);
#148=FACE_BOUND('',#195,.T.);
#149=FACE_BOUND('',#196,.T.);
#150=FACE_BOUND('',#197,.T.);
#151=FACE_BOUND('',#198,.T.);
#152=FACE_BOUND('',#199,.T.);
#153=FACE_BOUND('',#200,.T.);
#154=FACE_BOUND('',#201,.T.);
#155=FACE_BOUND('',#202,.T.);
#156=FACE_BOUND('',#203,.T.);
#157=FACE_BOUND('',#204,.T.);
#158=FACE_BOUND('',#205,.T.);
#159=FACE_BOUND('',#206,.T.);
#160=FACE_BOUND('',#207,.T.);
#161=FACE_BOUND('',#209,.T.);
#162=FACE_BOUND('',#210,.T.);
#163=EDGE_LOOP('',(#211));
#164=EDGE_LOOP('',(#212));
#165=EDGE_LOOP('',(#213));
#166=EDGE_LOOP('',(#214));
#167=EDGE_LOOP('',(#215));
#168=EDGE_LOOP('',(#216));
#169=EDGE_LOOP('',(#217));
#170=EDGE_LOOP('',(#218));
#171=EDGE_LOOP('',(#219));
#172=EDGE_LOOP('',(#220));
#173=EDGE_LOOP('',(#221));
#174=EDGE_LOOP('',(#222));
#175=EDGE_LOOP('',(#223));
#176=EDGE_LOOP('',(#224));
#177=EDGE_LOOP('',(#225));
#178=EDGE_LOOP('',(#226));
#179=EDGE_LOOP('',(#227));
#180=EDGE_LOOP('',(#228));
#181=EDGE_LOOP('',(#229));
#182=EDGE_LOOP('',(#230));
#183=EDGE_LOOP('',(#231));
#184=EDGE_LOOP('',(#232));
#185=EDGE_LOOP('',(#233));
#186=EDGE_LOOP('',(#234));
#187=EDGE_LOOP('',(#235));
#188=EDGE_LOOP('',(#236));
#189=EDGE_LOOP('',(#237));
#190=EDGE_LOOP('',(#238));
#191=EDGE_LOOP('',(#239));
#192=EDGE_LOOP('',(#240));
#193=EDGE_LOOP('',(#241));
#194=EDGE_LOOP('',(#242));
#195=EDGE_LOOP('',(#243));
#196=EDGE_LOOP('',(#244));
#197=EDGE_LOOP('',(#245));
#198=EDGE_LOOP('',(#246));
#199=EDGE_LOOP('',(#247));
#200=EDGE_LOOP('',(#248));
#201=EDGE_LOOP('',(#249));
#202=EDGE_LOOP('',(#250));
#203=EDGE_LOOP('',(#251));
#204=EDGE_LOOP('',(#252));
#205=EDGE_LOOP('',(#253));
#206=EDGE_LOOP('',(#254));
#207=EDGE_LOOP('',(#255));
#208=EDGE_LOOP('',(#256));
#209=EDGE_LOOP('',(#257));
#210=EDGE_LOOP('',(#258));
#211=ORIENTED_EDGE('',*,*,#283,.T.);
#212=ORIENTED_EDGE('',*,*,#284,.F.);
#213=ORIENTED_EDGE('',*,*,#285,.F.);
#214=ORIENTED_EDGE('',*,*,#286,.T.);
#215=ORIENTED_EDGE('',*,*,#284,.T.);
#216=ORIENTED_EDGE('',*,*,#286,.F.);
#217=ORIENTED_EDGE('',*,*,#287,.F.);
#218=ORIENTED_EDGE('',*,*,#285,.T.);
#219=ORIENTED_EDGE('',*,*,#287,.T.);
#220=ORIENTED_EDGE('',*,*,#288,.T.);
#221=ORIENTED_EDGE('',*,*,#289,.F.);
#222=ORIENTED_EDGE('',*,*,#289,.T.);
#223=ORIENTED_EDGE('',*,*,#290,.F.);
#224=ORIENTED_EDGE('',*,*,#290,.T.);
#225=ORIENTED_EDGE('',*,*,#291,.F.);
#226=ORIENTED_EDGE('',*,*,#291,.T.);
#227=ORIENTED_EDGE('',*,*,#292,.F.);
#228=ORIENTED_EDGE('',*,*,#293,.F.);
#229=ORIENTED_EDGE('',*,*,#292,.T.);
#230=ORIENTED_EDGE('',*,*,#294,.T.);
#231=ORIENTED_EDGE('',*,*,#293,.T.);
#232=ORIENTED_EDGE('',*,*,#294,.F.);
#233=ORIENTED_EDGE('',*,*,#283,.F.);
#234=ORIENTED_EDGE('',*,*,#288,.F.);
#235=ORIENTED_EDGE('',*,*,#295,.T.);
#236=ORIENTED_EDGE('',*,*,#296,.F.);
#237=ORIENTED_EDGE('',*,*,#297,.F.);
#238=ORIENTED_EDGE('',*,*,#298,.T.);
#239=ORIENTED_EDGE('',*,*,#296,.T.);
#240=ORIENTED_EDGE('',*,*,#298,.F.);
#241=ORIENTED_EDGE('',*,*,#299,.F.);
#242=ORIENTED_EDGE('',*,*,#297,.T.);
#243=ORIENTED_EDGE('',*,*,#299,.T.);
#244=ORIENTED_EDGE('',*,*,#300,.T.);
#245=ORIENTED_EDGE('',*,*,#301,.F.);
#246=ORIENTED_EDGE('',*,*,#301,.T.);
#247=ORIENTED_EDGE('',*,*,#302,.F.);
#248=ORIENTED_EDGE('',*,*,#302,.T.);
#249=ORIENTED_EDGE('',*,*,#303,.F.);
#250=ORIENTED_EDGE('',*,*,#303,.T.);
#251=ORIENTED_EDGE('',*,*,#304,.F.);
#252=ORIENTED_EDGE('',*,*,#305,.F.);
#253=ORIENTED_EDGE('',*,*,#304,.T.);
#254=ORIENTED_EDGE('',*,*,#306,.T.);
#255=ORIENTED_EDGE('',*,*,#305,.T.);
#256=ORIENTED_EDGE('',*,*,#306,.F.);
#257=ORIENTED_EDGE('',*,*,#295,.F.);
#258=ORIENTED_EDGE('',*,*,#300,.F.);
#259=VERTEX_POINT('',#551);
#260=VERTEX_POINT('',#553);
#261=VERTEX_POINT('',#556);
#262=VERTEX_POINT('',#558);
#263=VERTEX_POINT('',#562);
#264=VERTEX_POINT('',#566);
#265=VERTEX_POINT('',#568);
#266=VERTEX_POINT('',#571);
#267=VERTEX_POINT('',#574);
#268=VERTEX_POINT('',#577);
#269=VERTEX_POINT('',#580);
#270=VERTEX_POINT('',#583);
#271=VERTEX_POINT('',#591);
#272=VERTEX_POINT('',#593);
#273=VERTEX_POINT('',#596);
#274=VERTEX_POINT('',#598);
#275=VERTEX_POINT('',#602);
#276=VERTEX_POINT('',#606);
#277=VERTEX_POINT('',#608);
#278=VERTEX_POINT('',#611);
#279=VERTEX_POINT('',#614);
#280=VERTEX_POINT('',#617);
#281=VERTEX_POINT('',#620);
#282=VERTEX_POINT('',#623);
#283=EDGE_CURVE('',#259,#259,#307,.T.);
#284=EDGE_CURVE('',#260,#260,#308,.T.);
#285=EDGE_CURVE('',#261,#261,#309,.T.);
#286=EDGE_CURVE('',#262,#262,#310,.T.);
#287=EDGE_CURVE('',#263,#263,#311,.T.);
#288=EDGE_CURVE('',#264,#264,#312,.T.);
#289=EDGE_CURVE('',#265,#265,#313,.T.);
#290=EDGE_CURVE('',#266,#266,#314,.T.);
#291=EDGE_CURVE('',#267,#267,#315,.T.);
#292=EDGE_CURVE('',#268,#268,#316,.T.);
#293=EDGE_CURVE('',#269,#269,#317,.T.);
#294=EDGE_CURVE('',#270,#270,#318,.T.);
#295=EDGE_CURVE('',#271,#271,#319,.T.);
#296=EDGE_CURVE('',#272,#272,#320,.T.);
#297=EDGE_CURVE('',#273,#273,#321,.T.);
#298=EDGE_CURVE('',#274,#274,#322,.T.);
#299=EDGE_CURVE('',#275,#275,#323,.T.);
#300=EDGE_CURVE('',#276,#276,#324,.T.);
#301=EDGE_CURVE('',#277,#277,#325,.T.);
#302=EDGE_CURVE('',#278,#278,#326,.T.);
#303=EDGE_CURVE('',#279,#279,#327,.T.);
#304=EDGE_CURVE('',#280,#280,#328,.T.);
#305=EDGE_CURVE('',#281,#281,#329,.T.);
#306=EDGE_CURVE('',#282,#282,#330,.T.);
#307=CIRCLE('',#377,44.75);
#308=CIRCLE('',#378,50.);
#309=CIRCLE('',#380,38.001002004008);
#310=CIRCLE('',#381,50.);
#311=CIRCLE('',#384,35.4959919839679);
#312=CIRCLE('',#387,43.75);
#313=CIRCLE('',#388,43.75);
#314=CIRCLE('',#390,44.3963846438695);
#315=CIRCLE('',#392,44.3536153561305);
#316=CIRCLE('',#394,45.);
#317=CIRCLE('',#396,45.);
#318=CIRCLE('',#398,37.0000000000001);
#319=CIRCLE('',#404,44.75);
#320=CIRCLE('',#405,50.);
#321=CIRCLE('',#407,38.001002004008);
#322=CIRCLE('',#408,50.);
#323=CIRCLE('',#411,35.4959919839679);
#324=CIRCLE('',#414,43.75);
#325=CIRCLE('',#415,43.75);
#326=CIRCLE('',#417,44.3963846438695);
#327=CIRCLE('',#419,44.3536153561305);
#328=CIRCLE('',#421,45.);
#329=CIRCLE('',#423,45.);
#330=CIRCLE('',#425,37.0000000000001);
#331=CURVE_STYLE('',#336,POSITIVE_LENGTH_MEASURE(0.13),#370);
#332=CURVE_STYLE('',#337,POSITIVE_LENGTH_MEASURE(0.18),#371);
#333=CURVE_STYLE('',#338,POSITIVE_LENGTH_MEASURE(0.18),#370);
#334=CURVE_STYLE('',#339,POSITIVE_LENGTH_MEASURE(0.13),#368);
#335=CURVE_STYLE('',#340,POSITIVE_LENGTH_MEASURE(0.18),#369);
#336=DRAUGHTING_PRE_DEFINED_CURVE_FONT('continuous');
#337=DRAUGHTING_PRE_DEFINED_CURVE_FONT('continuous');
#338=DRAUGHTING_PRE_DEFINED_CURVE_FONT('continuous');
#339=DRAUGHTING_PRE_DEFINED_CURVE_FONT('continuous');
#340=DRAUGHTING_PRE_DEFINED_CURVE_FONT('continuous');
#341=PRESENTATION_LAYER_ASSIGNMENT('1','Layer 1',(#545,#546,#374,#375,#376,
#59,#587,#402,#403,#60));
#342=STYLED_ITEM('',(#352),#545);
#343=STYLED_ITEM('',(#353),#546);
#344=STYLED_ITEM('',(#354),#374);
#345=STYLED_ITEM('',(#355),#375);
#346=STYLED_ITEM('',(#356),#376);
#347=STYLED_ITEM('',(#357),#59);
#348=STYLED_ITEM('',(#358),#587);
#349=STYLED_ITEM('',(#359),#402);
#350=STYLED_ITEM('',(#360),#403);
#351=STYLED_ITEM('',(#361),#60);
#352=PRESENTATION_STYLE_ASSIGNMENT((#362));
#353=PRESENTATION_STYLE_ASSIGNMENT((#363));
#354=PRESENTATION_STYLE_ASSIGNMENT((#331));
#355=PRESENTATION_STYLE_ASSIGNMENT((#332));
#356=PRESENTATION_STYLE_ASSIGNMENT((#333));
#357=PRESENTATION_STYLE_ASSIGNMENT((#49));
#358=PRESENTATION_STYLE_ASSIGNMENT((#364));
#359=PRESENTATION_STYLE_ASSIGNMENT((#334));
#360=PRESENTATION_STYLE_ASSIGNMENT((#335));
#361=PRESENTATION_STYLE_ASSIGNMENT((#50));
#362=POINT_STYLE('',#365,POSITIVE_LENGTH_MEASURE(3.),#368);
#363=POINT_STYLE('',#366,POSITIVE_LENGTH_MEASURE(3.),#369);
#364=POINT_STYLE('',#367,POSITIVE_LENGTH_MEASURE(3.),#369);
#365=PRE_DEFINED_POINT_MARKER_SYMBOL('plus');
#366=PRE_DEFINED_POINT_MARKER_SYMBOL('plus');
#367=PRE_DEFINED_POINT_MARKER_SYMBOL('plus');
#368=COLOUR_RGB('Silver Gray',0.6,0.6,0.6);
#369=COLOUR_RGB('Medium Maroon',0.6,0.4,0.4);
#370=COLOUR_RGB('Pale Sky',0.882337682154574,0.960769054703594,1.);
#371=COLOUR_RGB('Strong Emerald',0.,0.803921568627451,0.525490196078431);
#372=COLOUR_RGB('TLS_NOCUT',0.498023956664378,0.498023956664378,0.498023956664378);
#373=AXIS2_PLACEMENT_3D('',#544,#430,#431);
#374=AXIS2_PLACEMENT_3D('PCS',#547,#432,#433);
#375=AXIS2_PLACEMENT_3D('CSW',#548,#434,#435);
#376=AXIS2_PLACEMENT_3D('MCS',#549,#436,#437);
#377=AXIS2_PLACEMENT_3D('',#550,#438,#439);
#378=AXIS2_PLACEMENT_3D('',#552,#440,#441);
#379=AXIS2_PLACEMENT_3D('',#554,#442,#443);
#380=AXIS2_PLACEMENT_3D('',#555,#444,#445);
#381=AXIS2_PLACEMENT_3D('',#557,#446,#447);
#382=AXIS2_PLACEMENT_3D('',#559,#448,#449);
#383=AXIS2_PLACEMENT_3D('',#560,#450,#451);
#384=AXIS2_PLACEMENT_3D('',#561,#452,#453);
#385=AXIS2_PLACEMENT_3D('',#563,#454,#455);
#386=AXIS2_PLACEMENT_3D('',#564,#456,#457);
#387=AXIS2_PLACEMENT_3D('',#565,#458,#459);
#388=AXIS2_PLACEMENT_3D('',#567,#460,#461);
#389=AXIS2_PLACEMENT_3D('',#569,#462,#463);
#390=AXIS2_PLACEMENT_3D('',#570,#464,#465);
#391=AXIS2_PLACEMENT_3D('',#572,#466,#467);
#392=AXIS2_PLACEMENT_3D('',#573,#468,#469);
#393=AXIS2_PLACEMENT_3D('',#575,#470,#471);
#394=AXIS2_PLACEMENT_3D('',#576,#472,#473);
#395=AXIS2_PLACEMENT_3D('',#578,#474,#475);
#396=AXIS2_PLACEMENT_3D('',#579,#476,#477);
#397=AXIS2_PLACEMENT_3D('',#581,#478,#479);
#398=AXIS2_PLACEMENT_3D('',#582,#480,#481);
#399=AXIS2_PLACEMENT_3D('',#584,#482,#483);
#400=AXIS2_PLACEMENT_3D('',#585,#484,#485);
#401=AXIS2_PLACEMENT_3D('',#586,#486,#487);
#402=AXIS2_PLACEMENT_3D('PCS',#588,#488,#489);
#403=AXIS2_PLACEMENT_3D('MCS',#589,#490,#491);
#404=AXIS2_PLACEMENT_3D('',#590,#492,#493);
#405=AXIS2_PLACEMENT_3D('',#592,#494,#495);
#406=AXIS2_PLACEMENT_3D('',#594,#496,#497);
#407=AXIS2_PLACEMENT_3D('',#595,#498,#499);
#408=AXIS2_PLACEMENT_3D('',#597,#500,#501);
#409=AXIS2_PLACEMENT_3D('',#599,#502,#503);
#410=AXIS2_PLACEMENT_3D('',#600,#504,#505);
#411=AXIS2_PLACEMENT_3D('',#601,#506,#507);
#412=AXIS2_PLACEMENT_3D('',#603,#508,#509);
#413=AXIS2_PLACEMENT_3D('',#604,#510,#511);
#414=AXIS2_PLACEMENT_3D('',#605,#512,#513);
#415=AXIS2_PLACEMENT_3D('',#607,#514,#515);
#416=AXIS2_PLACEMENT_3D('',#609,#516,#517);
#417=AXIS2_PLACEMENT_3D('',#610,#518,#519);
#418=AXIS2_PLACEMENT_3D('',#612,#520,#521);
#419=AXIS2_PLACEMENT_3D('',#613,#522,#523);
#420=AXIS2_PLACEMENT_3D('',#615,#524,#525);
#421=AXIS2_PLACEMENT_3D('',#616,#526,#527);
#422=AXIS2_PLACEMENT_3D('',#618,#528,#529);
#423=AXIS2_PLACEMENT_3D('',#619,#530,#531);
#424=AXIS2_PLACEMENT_3D('',#621,#532,#533);
#425=AXIS2_PLACEMENT_3D('',#622,#534,#535);
#426=AXIS2_PLACEMENT_3D('',#624,#536,#537);
#427=AXIS2_PLACEMENT_3D('',#625,#538,#539);
#428=AXIS2_PLACEMENT_3D('',#626,#540,#541);
#429=AXIS2_PLACEMENT_3D('',#627,#542,#543);
#430=DIRECTION('',(0.,0.,1.));
#431=DIRECTION('',(1.,0.,0.));
#432=DIRECTION('',(0.,0.,1.));
#433=DIRECTION('',(1.,0.,0.));
#434=DIRECTION('',(0.,0.,1.));
#435=DIRECTION('',(1.,0.,0.));
#436=DIRECTION('',(0.,0.,1.));
#437=DIRECTION('',(1.,0.,0.));
#438=DIRECTION('',(0.,0.,1.));
#439=DIRECTION('',(-1.,0.,0.));
#440=DIRECTION('',(0.,0.,1.));
#441=DIRECTION('',(1.,0.,0.));
#442=DIRECTION('',(0.,0.,-1.));
#443=DIRECTION('',(-1.,0.,0.));
#444=DIRECTION('',(0.,0.,1.));
#445=DIRECTION('',(1.,0.,0.));
#446=DIRECTION('',(0.,0.,1.));
#447=DIRECTION('',(1.,0.,0.));
#448=DIRECTION('',(0.,0.,1.));
#449=DIRECTION('',(1.,0.,0.));
#450=DIRECTION('',(0.,0.,1.));
#451=DIRECTION('',(1.,0.,0.));
#452=DIRECTION('',(0.,0.,-1.));
#453=DIRECTION('',(-1.,0.,0.));
#454=DIRECTION('',(0.,0.,-1.));
#455=DIRECTION('',(-1.,0.,0.));
#456=DIRECTION('',(0.,0.,-1.));
#457=DIRECTION('',(-1.,0.,4.7526561849124E-16));
#458=DIRECTION('',(0.,0.,-1.));
#459=DIRECTION('',(-1.,0.,0.));
#460=DIRECTION('',(0.,0.,-1.));
#461=DIRECTION('',(-1.,0.,0.));
#462=DIRECTION('',(0.,0.,-1.));
#463=DIRECTION('',(-1.,0.,0.));
#464=DIRECTION('',(0.,0.,-1.));
#465=DIRECTION('',(-1.,0.,0.));
#466=DIRECTION('',(0.,0.,-1.));
#467=DIRECTION('',(-1.,0.,0.));
#468=DIRECTION('',(0.,0.,-1.));
#469=DIRECTION('',(-1.,0.,0.));
#470=DIRECTION('',(0.,0.,-1.));
#471=DIRECTION('',(-1.,0.,2.32192981109737E-17));
#472=DIRECTION('',(0.,0.,-1.));
#473=DIRECTION('',(-1.,0.,0.));
#474=DIRECTION('',(0.,0.,-1.));
#475=DIRECTION('',(-1.,0.,0.));
#476=DIRECTION('',(0.,0.,-1.));
#477=DIRECTION('',(1.,0.,0.));
#478=DIRECTION('',(0.,0.,-1.));
#479=DIRECTION('',(-1.,0.,0.));
#480=DIRECTION('',(0.,0.,1.));
#481=DIRECTION('',(-1.,0.,0.));
#482=DIRECTION('',(0.,0.,1.));
#483=DIRECTION('',(1.,0.,0.));
#484=DIRECTION('',(0.,0.,-1.));
#485=DIRECTION('',(-1.,0.,0.));
#486=DIRECTION('',(0.,0.,-1.));
#487=DIRECTION('',(-1.,0.,0.));
#488=DIRECTION('',(0.,0.,1.));
#489=DIRECTION('',(1.,0.,0.));
#490=DIRECTION('',(0.,0.,1.));
#491=DIRECTION('',(1.,0.,0.));
#492=DIRECTION('',(0.,0.,1.));
#493=DIRECTION('',(-1.,0.,0.));
#494=DIRECTION('',(0.,0.,1.));
#495=DIRECTION('',(1.,0.,0.));
#496=DIRECTION('',(0.,0.,-1.));
#497=DIRECTION('',(-1.,0.,0.));
#498=DIRECTION('',(0.,0.,1.));
#499=DIRECTION('',(1.,0.,0.));
#500=DIRECTION('',(0.,0.,1.));
#501=DIRECTION('',(1.,0.,0.));
#502=DIRECTION('',(0.,0.,1.));
#503=DIRECTION('',(1.,0.,0.));
#504=DIRECTION('',(0.,0.,1.));
#505=DIRECTION('',(1.,0.,0.));
#506=DIRECTION('',(0.,0.,-1.));
#507=DIRECTION('',(-1.,0.,0.));
#508=DIRECTION('',(0.,0.,-1.));
#509=DIRECTION('',(-1.,0.,0.));
#510=DIRECTION('',(0.,0.,-1.));
#511=DIRECTION('',(-1.,0.,4.7526561849124E-16));
#512=DIRECTION('',(0.,0.,-1.));
#513=DIRECTION('',(-1.,0.,0.));
#514=DIRECTION('',(0.,0.,-1.));
#515=DIRECTION('',(-1.,0.,0.));
#516=DIRECTION('',(0.,0.,-1.));
#517=DIRECTION('',(-1.,0.,0.));
#518=DIRECTION('',(0.,0.,-1.));
#519=DIRECTION('',(-1.,0.,0.));
#520=DIRECTION('',(0.,0.,-1.));
#521=DIRECTION('',(-1.,0.,0.));
#522=DIRECTION('',(0.,0.,-1.));
#523=DIRECTION('',(-1.,0.,0.));
#524=DIRECTION('',(0.,0.,-1.));
#525=DIRECTION('',(-1.,0.,2.32192981109737E-17));
#526=DIRECTION('',(0.,0.,-1.));
#527=DIRECTION('',(-1.,0.,0.));
#528=DIRECTION('',(0.,0.,-1.));
#529=DIRECTION('',(-1.,0.,0.));
#530=DIRECTION('',(0.,0.,-1.));
#531=DIRECTION('',(1.,0.,0.));
#532=DIRECTION('',(0.,0.,-1.));
#533=DIRECTION('',(-1.,0.,0.));
#534=DIRECTION('',(0.,0.,1.));
#535=DIRECTION('',(-1.,0.,0.));
#536=DIRECTION('',(0.,0.,1.));
#537=DIRECTION('',(1.,0.,0.));
#538=DIRECTION('',(0.,0.,-1.));
#539=DIRECTION('',(-1.,0.,0.));
#540=DIRECTION('',(0.,0.,-1.));
#541=DIRECTION('',(-1.,0.,0.));
#542=DIRECTION('',(0.,0.,1.));
#543=DIRECTION('',(1.,0.,0.));
#544=CARTESIAN_POINT('',(0.,0.,0.));
#545=CARTESIAN_POINT('',(0.,0.,0.));
#546=CARTESIAN_POINT('',(0.,0.,0.));
#547=CARTESIAN_POINT('',(0.,0.,0.));
#548=CARTESIAN_POINT('',(0.,0.,-125.));
#549=CARTESIAN_POINT('',(0.,0.,0.));
#550=CARTESIAN_POINT('',(0.,0.,-29.));
#551=CARTESIAN_POINT('',(-44.75,0.,-29.));
#552=CARTESIAN_POINT('',(0.,0.,-29.));
#553=CARTESIAN_POINT('',(50.,0.,-29.));
#554=CARTESIAN_POINT('',(-50.,0.,-29.));
#555=CARTESIAN_POINT('',(0.,0.,0.));
#556=CARTESIAN_POINT('',(38.001002004008,0.,0.));
#557=CARTESIAN_POINT('',(0.,0.,0.));
#558=CARTESIAN_POINT('',(50.,0.,0.));
#559=CARTESIAN_POINT('',(0.,0.,0.));
#560=CARTESIAN_POINT('',(0.,0.,20.9080749503476));
#561=CARTESIAN_POINT('',(0.,0.,50.));
#562=CARTESIAN_POINT('',(-35.4959919839679,0.,50.));
#563=CARTESIAN_POINT('',(0.,0.,50.));
#564=CARTESIAN_POINT('',(0.,0.,9.99999999999997));
#565=CARTESIAN_POINT('',(0.,0.,-30.));
#566=CARTESIAN_POINT('',(-43.75,0.,-30.));
#567=CARTESIAN_POINT('',(0.,0.,-45.));
#568=CARTESIAN_POINT('',(-43.75,0.,-45.));
#569=CARTESIAN_POINT('',(0.,0.,20.9080749503476));
#570=CARTESIAN_POINT('',(0.,0.,-45.9353909235762));
#571=CARTESIAN_POINT('',(-44.3963846438695,0.,-45.9353909235762));
#572=CARTESIAN_POINT('',(0.,0.,-45.));
#573=CARTESIAN_POINT('',(0.,0.,-45.9192224142032));
#574=CARTESIAN_POINT('',(-44.3536153561305,0.,-45.9192224142032));
#575=CARTESIAN_POINT('',(0.,0.,-45.9192224142032));
#576=CARTESIAN_POINT('',(0.,0.,-46.8546133377794));
#577=CARTESIAN_POINT('',(-45.,0.,-46.8546133377794));
#578=CARTESIAN_POINT('',(0.,0.,-46.8546133377794));
#579=CARTESIAN_POINT('',(0.,0.,-117.));
#580=CARTESIAN_POINT('',(45.,0.,-117.));
#581=CARTESIAN_POINT('',(0.,0.,20.9080749503476));
#582=CARTESIAN_POINT('',(0.,0.,-125.));
#583=CARTESIAN_POINT('',(-37.0000000000001,0.,-125.));
#584=CARTESIAN_POINT('',(0.,0.,-125.));
#585=CARTESIAN_POINT('',(0.,0.,-125.));
#586=CARTESIAN_POINT('',(0.,0.,-30.));
#587=CARTESIAN_POINT('',(0.,0.,0.));
#588=CARTESIAN_POINT('',(0.,0.,0.));
#589=CARTESIAN_POINT('',(0.,0.,0.));
#590=CARTESIAN_POINT('',(0.,0.,-29.));
#591=CARTESIAN_POINT('',(-44.75,0.,-29.));
#592=CARTESIAN_POINT('',(0.,0.,-29.));
#593=CARTESIAN_POINT('',(50.,0.,-29.));
#594=CARTESIAN_POINT('',(-50.,0.,-29.));
#595=CARTESIAN_POINT('',(0.,0.,0.));
#596=CARTESIAN_POINT('',(38.001002004008,0.,0.));
#597=CARTESIAN_POINT('',(0.,0.,0.));
#598=CARTESIAN_POINT('',(50.,0.,0.));
#599=CARTESIAN_POINT('',(0.,0.,0.));
#600=CARTESIAN_POINT('',(0.,0.,20.9080749503476));
#601=CARTESIAN_POINT('',(0.,0.,50.));
#602=CARTESIAN_POINT('',(-35.4959919839679,0.,50.));
#603=CARTESIAN_POINT('',(0.,0.,50.));
#604=CARTESIAN_POINT('',(0.,0.,9.99999999999997));
#605=CARTESIAN_POINT('',(0.,0.,-30.));
#606=CARTESIAN_POINT('',(-43.75,0.,-30.));
#607=CARTESIAN_POINT('',(0.,0.,-45.));
#608=CARTESIAN_POINT('',(-43.75,0.,-45.));
#609=CARTESIAN_POINT('',(0.,0.,20.9080749503476));
#610=CARTESIAN_POINT('',(0.,0.,-45.9353909235762));
#611=CARTESIAN_POINT('',(-44.3963846438695,0.,-45.9353909235762));
#612=CARTESIAN_POINT('',(0.,0.,-45.));
#613=CARTESIAN_POINT('',(0.,0.,-45.9192224142032));
#614=CARTESIAN_POINT('',(-44.3536153561305,0.,-45.9192224142032));
#615=CARTESIAN_POINT('',(0.,0.,-45.9192224142032));
#616=CARTESIAN_POINT('',(0.,0.,-46.8546133377794));
#617=CARTESIAN_POINT('',(-45.,0.,-46.8546133377794));
#618=CARTESIAN_POINT('',(0.,0.,-46.8546133377794));
#619=CARTESIAN_POINT('',(0.,0.,-117.));
#620=CARTESIAN_POINT('',(45.,0.,-117.));
#621=CARTESIAN_POINT('',(0.,0.,20.9080749503476));
#622=CARTESIAN_POINT('',(0.,0.,-125.));
#623=CARTESIAN_POINT('',(-37.0000000000001,0.,-125.));
#624=CARTESIAN_POINT('',(0.,0.,-125.));
#625=CARTESIAN_POINT('',(0.,0.,-125.));
#626=CARTESIAN_POINT('',(0.,0.,-30.));
#627=CARTESIAN_POINT('',(0.,0.,0.));
#628=MECHANICAL_DESIGN_GEOMETRIC_PRESENTATION_REPRESENTATION('',(#342,#343,
#344,#345,#346,#347),#630);
#629=MECHANICAL_DESIGN_GEOMETRIC_PRESENTATION_REPRESENTATION('',(#348,#349,
#350,#351),#631);
#630=(
GEOMETRIC_REPRESENTATION_CONTEXT(3)
GLOBAL_UNCERTAINTY_ASSIGNED_CONTEXT((#632))
GLOBAL_UNIT_ASSIGNED_CONTEXT((#639,#635,#634))
REPRESENTATION_CONTEXT('TOOLCOMP_1','TOP_LEVEL_ASSEMBLY_PART')
);
#631=(
GEOMETRIC_REPRESENTATION_CONTEXT(3)
GLOBAL_UNCERTAINTY_ASSIGNED_CONTEXT((#633))
GLOBAL_UNIT_ASSIGNED_CONTEXT((#639,#635,#634))
REPRESENTATION_CONTEXT('NOCUT_COMP20230905105020','COMPONENT_PART')
);
#632=UNCERTAINTY_MEASURE_WITH_UNIT(LENGTH_MEASURE(2.E-5),#639,
'DISTANCE_ACCURACY_VALUE','Maximum Tolerance applied to model');
#633=UNCERTAINTY_MEASURE_WITH_UNIT(LENGTH_MEASURE(2.E-5),#639,
'DISTANCE_ACCURACY_VALUE','Maximum Tolerance applied to model');
#634=(
NAMED_UNIT(*)
SI_UNIT($,.STERADIAN.)
SOLID_ANGLE_UNIT()
);
#635=(
CONVERSION_BASED_UNIT('DEGREE',#637)
NAMED_UNIT(#636)
PLANE_ANGLE_UNIT()
);
#636=DIMENSIONAL_EXPONENTS(0.,0.,0.,0.,0.,0.,0.);
#637=PLANE_ANGLE_MEASURE_WITH_UNIT(PLANE_ANGLE_MEASURE(0.0174532925),#638);
#638=(
NAMED_UNIT(*)
PLANE_ANGLE_UNIT()
SI_UNIT($,.RADIAN.)
);
#639=(
LENGTH_UNIT()
NAMED_UNIT(*)
SI_UNIT(.MILLI.,.METRE.)
);
ENDSEC;
END-ISO-10303-21;
