ISO-10303-21;
HEADER;
/* Generated by software containing ST-Developer
 * from STEP Tools, Inc. (www.steptools.com) 
 */
/* OPTION: using custom schema-name function */

FILE_DESCRIPTION(
/* description */ (''),
/* implementation_level */ '2;1');

FILE_NAME(
/* name */ 'TOOL.STP',
/* time_stamp */ '2023-01-23T07:41:15+01:00',
/* author */ (''),
/* organization */ ('SMS'),
/* preprocessor_version */ 'ST-DEVELOPER v16.7',
/* originating_system */ 'SIEMENS PLM Software NX 12.0',
/* authorisation */ '');

FILE_SCHEMA (('AUTOMOTIVE_DESIGN { 1 0 10303 214 3 1 1 1 }'));
ENDSEC;

DATA;
#10=CONSTRUCTIVE_GEOMETRY_REPRESENTATION_RELATIONSHIP(
'supplemental geometry','',#26,#11);
#11=CONSTRUCTIVE_GEOMETRY_REPRESENTATION('supplemental geometry',(#370,
#371,#372),#644);
#12=GEOMETRICALLY_BOUNDED_WIREFRAME_SHAPE_REPRESENTATION('Tool-None',(#27),
#644);
#13=SHAPE_REPRESENTATION_RELATIONSHIP('None',
'relationship between Tool-None and Tool-None',#26,#15);
#14=SHAPE_REPRESENTATION_RELATIONSHIP('None',
'relationship between Tool-None and Tool-None',#26,#12);
#15=ADVANCED_BREP_SHAPE_REPRESENTATION('Tool-None',(#38,#39),#644);
#16=SHAPE_DEFINITION_REPRESENTATION(#17,#26);
#17=PRODUCT_DEFINITION_SHAPE('','',#18);
#18=PRODUCT_DEFINITION(' ','',#20,#19);
#19=PRODUCT_DEFINITION_CONTEXT('part definition',#25,'design');
#20=PRODUCT_DEFINITION_FORMATION_WITH_SPECIFIED_SOURCE(' ',' ',#22,
 .NOT_KNOWN.);
#21=PRODUCT_RELATED_PRODUCT_CATEGORY('part','',(#22));
#22=PRODUCT('Tool','Tool',' ',(#23));
#23=PRODUCT_CONTEXT(' ',#25,'mechanical');
#24=APPLICATION_PROTOCOL_DEFINITION('international standard',
'automotive_design',2010,#25);
#25=APPLICATION_CONTEXT(
'core data for automotive mechanical design processes');
#26=SHAPE_REPRESENTATION('Tool-None',(#369),#644);
#27=GEOMETRIC_CURVE_SET('None',(#517,#518,#519,#333));
#28=SURFACE_STYLE_USAGE(.BOTH.,#30);
#29=SURFACE_STYLE_USAGE(.BOTH.,#31);
#30=SURFACE_SIDE_STYLE('',(#32));
#31=SURFACE_SIDE_STYLE('',(#33));
#32=SURFACE_STYLE_FILL_AREA(#34);
#33=SURFACE_STYLE_FILL_AREA(#35);
#34=FILL_AREA_STYLE('',(#36));
#35=FILL_AREA_STYLE('',(#37));
#36=FILL_AREA_STYLE_COLOUR('',#367);
#37=FILL_AREA_STYLE_COLOUR('',#368);
#38=MANIFOLD_SOLID_BREP('NOCUT',#40);
#39=MANIFOLD_SOLID_BREP('CUT',#41);
#40=CLOSED_SHELL('',(#102,#103,#104,#105,#106,#107,#108,#109,#110,#111,
#112,#113,#114,#115,#116,#117,#118,#119));
#41=CLOSED_SHELL('',(#120,#121,#122,#123));
#42=LINE('',#562,#54);
#43=LINE('',#564,#55);
#44=LINE('',#573,#56);
#45=LINE('',#578,#57);
#46=LINE('',#580,#58);
#47=LINE('',#589,#59);
#48=LINE('',#594,#60);
#49=LINE('',#596,#61);
#50=LINE('',#605,#62);
#51=LINE('',#623,#63);
#52=LINE('',#625,#64);
#53=LINE('',#626,#65);
#54=VECTOR('',#450,1.);
#55=VECTOR('',#453,1.);
#56=VECTOR('',#454,1.);
#57=VECTOR('',#459,1.);
#58=VECTOR('',#462,1.);
#59=VECTOR('',#463,1.);
#60=VECTOR('',#468,1.);
#61=VECTOR('',#471,1.);
#62=VECTOR('',#472,1.);
#63=VECTOR('',#487,1.);
#64=VECTOR('',#490,1.);
#65=VECTOR('',#491,1.);
#66=ELLIPSE('',#386,4.7517575695736,3.36);
#67=ELLIPSE('',#389,4.7517575695736,3.36);
#68=ELLIPSE('',#392,4.7517575695736,3.36);
#69=ELLIPSE('',#400,4.7517575695736,3.36);
#70=PLANE('',#385);
#71=PLANE('',#387);
#72=PLANE('',#388);
#73=PLANE('',#390);
#74=PLANE('',#391);
#75=PLANE('',#393);
#76=PLANE('',#394);
#77=PLANE('',#401);
#78=PLANE('',#402);
#79=PLANE('',#406);
#80=PLANE('',#408);
#81=PLANE('',#413);
#82=FACE_OUTER_BOUND('',#156,.T.);
#83=FACE_OUTER_BOUND('',#157,.T.);
#84=FACE_OUTER_BOUND('',#158,.T.);
#85=FACE_OUTER_BOUND('',#159,.T.);
#86=FACE_OUTER_BOUND('',#160,.T.);
#87=FACE_OUTER_BOUND('',#161,.T.);
#88=FACE_OUTER_BOUND('',#162,.T.);
#89=FACE_OUTER_BOUND('',#165,.T.);
#90=FACE_OUTER_BOUND('',#166,.T.);
#91=FACE_OUTER_BOUND('',#171,.T.);
#92=FACE_OUTER_BOUND('',#172,.T.);
#93=FACE_OUTER_BOUND('',#177,.T.);
#94=CONICAL_SURFACE('',#380,3.34999999999999,60.0000000000001);
#95=CONICAL_SURFACE('',#399,1.96,45.);
#96=CONICAL_SURFACE('',#405,4.8,45.);
#97=CONICAL_SURFACE('',#412,4.53128935680976,6.240800184084);
#98=CYLINDRICAL_SURFACE('',#377,3.35);
#99=CYLINDRICAL_SURFACE('',#383,3.5);
#100=CYLINDRICAL_SURFACE('',#404,3.36);
#101=CYLINDRICAL_SURFACE('',#410,5.07806596478536);
#102=ADVANCED_FACE('',(#126,#127),#124,.F.);
#103=ADVANCED_FACE('',(#128,#129),#98,.T.);
#104=ADVANCED_FACE('',(#130,#131),#94,.T.);
#105=ADVANCED_FACE('',(#132,#133),#125,.F.);
#106=ADVANCED_FACE('',(#134,#135),#99,.T.);
#107=ADVANCED_FACE('',(#82),#70,.F.);
#108=ADVANCED_FACE('',(#83),#71,.T.);
#109=ADVANCED_FACE('',(#84),#72,.T.);
#110=ADVANCED_FACE('',(#85),#73,.T.);
#111=ADVANCED_FACE('',(#86),#74,.T.);
#112=ADVANCED_FACE('',(#87),#75,.T.);
#113=ADVANCED_FACE('',(#88),#76,.T.);
#114=ADVANCED_FACE('',(#136,#137),#95,.T.);
#115=ADVANCED_FACE('',(#89),#77,.T.);
#116=ADVANCED_FACE('',(#90),#78,.T.);
#117=ADVANCED_FACE('',(#138,#139),#100,.T.);
#118=ADVANCED_FACE('',(#140,#141),#96,.T.);
#119=ADVANCED_FACE('',(#91),#79,.T.);
#120=ADVANCED_FACE('',(#92),#80,.T.);
#121=ADVANCED_FACE('',(#142,#143),#101,.T.);
#122=ADVANCED_FACE('',(#144,#145),#97,.T.);
#123=ADVANCED_FACE('',(#93),#81,.F.);
#124=TOROIDAL_SURFACE('',#375,4.45,1.1);
#125=TOROIDAL_SURFACE('',#381,4.44999999999999,1.1);
#126=FACE_BOUND('',#146,.T.);
#127=FACE_BOUND('',#147,.T.);
#128=FACE_BOUND('',#148,.T.);
#129=FACE_BOUND('',#149,.T.);
#130=FACE_BOUND('',#150,.T.);
#131=FACE_BOUND('',#151,.T.);
#132=FACE_BOUND('',#152,.T.);
#133=FACE_BOUND('',#153,.T.);
#134=FACE_BOUND('',#154,.T.);
#135=FACE_BOUND('',#155,.T.);
#136=FACE_BOUND('',#163,.T.);
#137=FACE_BOUND('',#164,.T.);
#138=FACE_BOUND('',#167,.T.);
#139=FACE_BOUND('',#168,.T.);
#140=FACE_BOUND('',#169,.T.);
#141=FACE_BOUND('',#170,.T.);
#142=FACE_BOUND('',#173,.T.);
#143=FACE_BOUND('',#174,.T.);
#144=FACE_BOUND('',#175,.T.);
#145=FACE_BOUND('',#176,.T.);
#146=EDGE_LOOP('',(#178));
#147=EDGE_LOOP('',(#179));
#148=EDGE_LOOP('',(#180));
#149=EDGE_LOOP('',(#181));
#150=EDGE_LOOP('',(#182));
#151=EDGE_LOOP('',(#183));
#152=EDGE_LOOP('',(#184));
#153=EDGE_LOOP('',(#185));
#154=EDGE_LOOP('',(#186));
#155=EDGE_LOOP('',(#187));
#156=EDGE_LOOP('',(#188));
#157=EDGE_LOOP('',(#189,#190));
#158=EDGE_LOOP('',(#191,#192,#193,#194));
#159=EDGE_LOOP('',(#195,#196));
#160=EDGE_LOOP('',(#197,#198,#199,#200));
#161=EDGE_LOOP('',(#201,#202));
#162=EDGE_LOOP('',(#203,#204,#205,#206));
#163=EDGE_LOOP('',(#207));
#164=EDGE_LOOP('',(#208,#209,#210,#211,#212,#213,#214,#215));
#165=EDGE_LOOP('',(#216,#217));
#166=EDGE_LOOP('',(#218,#219,#220,#221));
#167=EDGE_LOOP('',(#222));
#168=EDGE_LOOP('',(#223,#224,#225,#226,#227,#228,#229,#230,#231,#232,#233,
#234,#235,#236,#237,#238));
#169=EDGE_LOOP('',(#239));
#170=EDGE_LOOP('',(#240));
#171=EDGE_LOOP('',(#241));
#172=EDGE_LOOP('',(#242));
#173=EDGE_LOOP('',(#243));
#174=EDGE_LOOP('',(#244));
#175=EDGE_LOOP('',(#245));
#176=EDGE_LOOP('',(#246));
#177=EDGE_LOOP('',(#247));
#178=ORIENTED_EDGE('',*,*,#275,.F.);
#179=ORIENTED_EDGE('',*,*,#276,.F.);
#180=ORIENTED_EDGE('',*,*,#277,.T.);
#181=ORIENTED_EDGE('',*,*,#275,.T.);
#182=ORIENTED_EDGE('',*,*,#278,.T.);
#183=ORIENTED_EDGE('',*,*,#279,.F.);
#184=ORIENTED_EDGE('',*,*,#277,.F.);
#185=ORIENTED_EDGE('',*,*,#278,.F.);
#186=ORIENTED_EDGE('',*,*,#276,.T.);
#187=ORIENTED_EDGE('',*,*,#280,.T.);
#188=ORIENTED_EDGE('',*,*,#281,.T.);
#189=ORIENTED_EDGE('',*,*,#282,.T.);
#190=ORIENTED_EDGE('',*,*,#283,.T.);
#191=ORIENTED_EDGE('',*,*,#284,.T.);
#192=ORIENTED_EDGE('',*,*,#285,.F.);
#193=ORIENTED_EDGE('',*,*,#286,.T.);
#194=ORIENTED_EDGE('',*,*,#283,.F.);
#195=ORIENTED_EDGE('',*,*,#287,.T.);
#196=ORIENTED_EDGE('',*,*,#288,.T.);
#197=ORIENTED_EDGE('',*,*,#289,.T.);
#198=ORIENTED_EDGE('',*,*,#290,.F.);
#199=ORIENTED_EDGE('',*,*,#291,.T.);
#200=ORIENTED_EDGE('',*,*,#288,.F.);
#201=ORIENTED_EDGE('',*,*,#292,.T.);
#202=ORIENTED_EDGE('',*,*,#293,.T.);
#203=ORIENTED_EDGE('',*,*,#294,.T.);
#204=ORIENTED_EDGE('',*,*,#295,.F.);
#205=ORIENTED_EDGE('',*,*,#296,.T.);
#206=ORIENTED_EDGE('',*,*,#293,.F.);
#207=ORIENTED_EDGE('',*,*,#281,.F.);
#208=ORIENTED_EDGE('',*,*,#297,.T.);
#209=ORIENTED_EDGE('',*,*,#298,.T.);
#210=ORIENTED_EDGE('',*,*,#299,.T.);
#211=ORIENTED_EDGE('',*,*,#285,.T.);
#212=ORIENTED_EDGE('',*,*,#300,.T.);
#213=ORIENTED_EDGE('',*,*,#290,.T.);
#214=ORIENTED_EDGE('',*,*,#301,.T.);
#215=ORIENTED_EDGE('',*,*,#295,.T.);
#216=ORIENTED_EDGE('',*,*,#302,.T.);
#217=ORIENTED_EDGE('',*,*,#303,.T.);
#218=ORIENTED_EDGE('',*,*,#304,.T.);
#219=ORIENTED_EDGE('',*,*,#298,.F.);
#220=ORIENTED_EDGE('',*,*,#305,.T.);
#221=ORIENTED_EDGE('',*,*,#303,.F.);
#222=ORIENTED_EDGE('',*,*,#306,.F.);
#223=ORIENTED_EDGE('',*,*,#304,.F.);
#224=ORIENTED_EDGE('',*,*,#302,.F.);
#225=ORIENTED_EDGE('',*,*,#305,.F.);
#226=ORIENTED_EDGE('',*,*,#297,.F.);
#227=ORIENTED_EDGE('',*,*,#294,.F.);
#228=ORIENTED_EDGE('',*,*,#292,.F.);
#229=ORIENTED_EDGE('',*,*,#296,.F.);
#230=ORIENTED_EDGE('',*,*,#301,.F.);
#231=ORIENTED_EDGE('',*,*,#289,.F.);
#232=ORIENTED_EDGE('',*,*,#287,.F.);
#233=ORIENTED_EDGE('',*,*,#291,.F.);
#234=ORIENTED_EDGE('',*,*,#300,.F.);
#235=ORIENTED_EDGE('',*,*,#284,.F.);
#236=ORIENTED_EDGE('',*,*,#282,.F.);
#237=ORIENTED_EDGE('',*,*,#286,.F.);
#238=ORIENTED_EDGE('',*,*,#299,.F.);
#239=ORIENTED_EDGE('',*,*,#306,.T.);
#240=ORIENTED_EDGE('',*,*,#280,.F.);
#241=ORIENTED_EDGE('',*,*,#279,.T.);
#242=ORIENTED_EDGE('',*,*,#307,.F.);
#243=ORIENTED_EDGE('',*,*,#308,.F.);
#244=ORIENTED_EDGE('',*,*,#307,.T.);
#245=ORIENTED_EDGE('',*,*,#308,.T.);
#246=ORIENTED_EDGE('',*,*,#309,.F.);
#247=ORIENTED_EDGE('',*,*,#309,.T.);
#248=VERTEX_POINT('',#540);
#249=VERTEX_POINT('',#542);
#250=VERTEX_POINT('',#545);
#251=VERTEX_POINT('',#548);
#252=VERTEX_POINT('',#550);
#253=VERTEX_POINT('',#554);
#254=VERTEX_POINT('',#557);
#255=VERTEX_POINT('',#560);
#256=VERTEX_POINT('',#561);
#257=VERTEX_POINT('',#565);
#258=VERTEX_POINT('',#572);
#259=VERTEX_POINT('',#576);
#260=VERTEX_POINT('',#577);
#261=VERTEX_POINT('',#581);
#262=VERTEX_POINT('',#588);
#263=VERTEX_POINT('',#592);
#264=VERTEX_POINT('',#593);
#265=VERTEX_POINT('',#597);
#266=VERTEX_POINT('',#604);
#267=VERTEX_POINT('',#608);
#268=VERTEX_POINT('',#615);
#269=VERTEX_POINT('',#621);
#270=VERTEX_POINT('',#622);
#271=VERTEX_POINT('',#629);
#272=VERTEX_POINT('',#634);
#273=VERTEX_POINT('',#637);
#274=VERTEX_POINT('',#640);
#275=EDGE_CURVE('',#248,#248,#310,.T.);
#276=EDGE_CURVE('',#249,#249,#311,.T.);
#277=EDGE_CURVE('',#250,#250,#312,.T.);
#278=EDGE_CURVE('',#251,#251,#313,.T.);
#279=EDGE_CURVE('',#252,#252,#314,.T.);
#280=EDGE_CURVE('',#253,#253,#315,.T.);
#281=EDGE_CURVE('',#254,#254,#316,.T.);
#282=EDGE_CURVE('',#255,#256,#66,.T.);
#283=EDGE_CURVE('',#256,#255,#42,.T.);
#284=EDGE_CURVE('',#256,#257,#43,.T.);
#285=EDGE_CURVE('',#258,#257,#334,.T.);
#286=EDGE_CURVE('',#258,#255,#44,.T.);
#287=EDGE_CURVE('',#259,#260,#67,.T.);
#288=EDGE_CURVE('',#260,#259,#45,.T.);
#289=EDGE_CURVE('',#260,#261,#46,.T.);
#290=EDGE_CURVE('',#262,#261,#335,.T.);
#291=EDGE_CURVE('',#262,#259,#47,.T.);
#292=EDGE_CURVE('',#263,#264,#68,.T.);
#293=EDGE_CURVE('',#264,#263,#48,.T.);
#294=EDGE_CURVE('',#264,#265,#49,.T.);
#295=EDGE_CURVE('',#266,#265,#336,.T.);
#296=EDGE_CURVE('',#266,#263,#50,.T.);
#297=EDGE_CURVE('',#265,#267,#317,.T.);
#298=EDGE_CURVE('',#267,#268,#337,.T.);
#299=EDGE_CURVE('',#268,#258,#318,.T.);
#300=EDGE_CURVE('',#257,#262,#319,.T.);
#301=EDGE_CURVE('',#261,#266,#320,.T.);
#302=EDGE_CURVE('',#269,#270,#69,.T.);
#303=EDGE_CURVE('',#270,#269,#51,.T.);
#304=EDGE_CURVE('',#270,#268,#52,.T.);
#305=EDGE_CURVE('',#267,#269,#53,.T.);
#306=EDGE_CURVE('',#271,#271,#321,.T.);
#307=EDGE_CURVE('',#272,#272,#322,.T.);
#308=EDGE_CURVE('',#273,#273,#323,.T.);
#309=EDGE_CURVE('',#274,#274,#324,.T.);
#310=CIRCLE('',#373,3.35);
#311=CIRCLE('',#374,3.50000000000001);
#312=CIRCLE('',#376,3.35);
#313=CIRCLE('',#378,3.9);
#314=CIRCLE('',#379,5.07806596478536);
#315=CIRCLE('',#382,3.5);
#316=CIRCLE('',#384,1.96);
#317=CIRCLE('',#395,3.36);
#318=CIRCLE('',#396,3.36);
#319=CIRCLE('',#397,3.36);
#320=CIRCLE('',#398,3.36);
#321=CIRCLE('',#403,3.36);
#322=CIRCLE('',#407,5.07806596478536);
#323=CIRCLE('',#409,5.07806596478536);
#324=CIRCLE('',#411,4.73906446784049);
#325=CURVE_STYLE('',#329,POSITIVE_LENGTH_MEASURE(0.18),#339);
#326=CURVE_STYLE('',#330,POSITIVE_LENGTH_MEASURE(0.13),#366);
#327=CURVE_STYLE('',#331,POSITIVE_LENGTH_MEASURE(0.18),#365);
#328=CURVE_STYLE('',#332,POSITIVE_LENGTH_MEASURE(0.18),#365);
#329=DRAUGHTING_PRE_DEFINED_CURVE_FONT('continuous');
#330=DRAUGHTING_PRE_DEFINED_CURVE_FONT('continuous');
#331=DRAUGHTING_PRE_DEFINED_CURVE_FONT('continuous');
#332=DRAUGHTING_PRE_DEFINED_CURVE_FONT('continuous');
#333=B_SPLINE_CURVE_WITH_KNOTS('CUTTING PART LINE',3,(#520,#521,#522,#523,
#524,#525,#526,#527,#528,#529,#530,#531,#532,#533,#534,#535),
 .UNSPECIFIED.,.T.,.F.,(4,3,3,3,3,4),(0.,0.140917992008352,0.50444727818303,
0.635957867734806,0.722496728108814,1.),.UNSPECIFIED.);
#334=B_SPLINE_CURVE_WITH_KNOTS('',3,(#566,#567,#568,#569,#570,#571),
 .UNSPECIFIED.,.F.,.F.,(4,2,4),(0.,0.5,1.),.UNSPECIFIED.);
#335=B_SPLINE_CURVE_WITH_KNOTS('',3,(#582,#583,#584,#585,#586,#587),
 .UNSPECIFIED.,.F.,.F.,(4,2,4),(0.,0.5,1.),.UNSPECIFIED.);
#336=B_SPLINE_CURVE_WITH_KNOTS('',3,(#598,#599,#600,#601,#602,#603),
 .UNSPECIFIED.,.F.,.F.,(4,2,4),(0.,0.5,1.),.UNSPECIFIED.);
#337=B_SPLINE_CURVE_WITH_KNOTS('',3,(#609,#610,#611,#612,#613,#614),
 .UNSPECIFIED.,.F.,.F.,(4,2,4),(0.,0.5,1.),.UNSPECIFIED.);
#338=DRAUGHTING_PRE_DEFINED_COLOUR('white');
#339=DRAUGHTING_PRE_DEFINED_COLOUR('blue');
#340=PRESENTATION_LAYER_ASSIGNMENT('1','Layer 1',(#517,#518,#519,#333,#370,
#371,#372,#38,#39));
#341=STYLED_ITEM('',(#350),#517);
#342=STYLED_ITEM('',(#351),#518);
#343=STYLED_ITEM('',(#352),#519);
#344=STYLED_ITEM('',(#353),#333);
#345=STYLED_ITEM('',(#354),#370);
#346=STYLED_ITEM('',(#355),#371);
#347=STYLED_ITEM('',(#356),#372);
#348=STYLED_ITEM('',(#357),#38);
#349=STYLED_ITEM('',(#358),#39);
#350=PRESENTATION_STYLE_ASSIGNMENT((#359));
#351=PRESENTATION_STYLE_ASSIGNMENT((#360));
#352=PRESENTATION_STYLE_ASSIGNMENT((#361));
#353=PRESENTATION_STYLE_ASSIGNMENT((#325));
#354=PRESENTATION_STYLE_ASSIGNMENT((#326));
#355=PRESENTATION_STYLE_ASSIGNMENT((#327));
#356=PRESENTATION_STYLE_ASSIGNMENT((#328));
#357=PRESENTATION_STYLE_ASSIGNMENT((#28));
#358=PRESENTATION_STYLE_ASSIGNMENT((#29));
#359=POINT_STYLE('',#362,POSITIVE_LENGTH_MEASURE(3.),#365);
#360=POINT_STYLE('',#363,POSITIVE_LENGTH_MEASURE(3.),#338);
#361=POINT_STYLE('',#364,POSITIVE_LENGTH_MEASURE(3.),#365);
#362=PRE_DEFINED_POINT_MARKER_SYMBOL('plus');
#363=PRE_DEFINED_POINT_MARKER_SYMBOL('plus');
#364=PRE_DEFINED_POINT_MARKER_SYMBOL('plus');
#365=COLOUR_RGB('Medium Maroon',0.6,0.4,0.4);
#366=COLOUR_RGB('Silver Gray',0.6,0.6,0.6);
#367=COLOUR_RGB('TLS_NOCUT',0.498023956664378,0.498023956664378,0.498023956664378);
#368=COLOUR_RGB('TLS_CUT',0.8,0.8,0.8);
#369=AXIS2_PLACEMENT_3D('',#516,#414,#415);
#370=AXIS2_PLACEMENT_3D('PCS',#536,#416,#417);
#371=AXIS2_PLACEMENT_3D('MCS',#537,#418,#419);
#372=AXIS2_PLACEMENT_3D('CIP',#538,#420,#421);
#373=AXIS2_PLACEMENT_3D('',#539,#422,#423);
#374=AXIS2_PLACEMENT_3D('',#541,#424,#425);
#375=AXIS2_PLACEMENT_3D('',#543,#426,#427);
#376=AXIS2_PLACEMENT_3D('',#544,#428,#429);
#377=AXIS2_PLACEMENT_3D('',#546,#430,#431);
#378=AXIS2_PLACEMENT_3D('',#547,#432,#433);
#379=AXIS2_PLACEMENT_3D('',#549,#434,#435);
#380=AXIS2_PLACEMENT_3D('',#551,#436,#437);
#381=AXIS2_PLACEMENT_3D('',#552,#438,#439);
#382=AXIS2_PLACEMENT_3D('',#553,#440,#441);
#383=AXIS2_PLACEMENT_3D('',#555,#442,#443);
#384=AXIS2_PLACEMENT_3D('',#556,#444,#445);
#385=AXIS2_PLACEMENT_3D('',#558,#446,#447);
#386=AXIS2_PLACEMENT_3D('',#559,#448,#449);
#387=AXIS2_PLACEMENT_3D('',#563,#451,#452);
#388=AXIS2_PLACEMENT_3D('',#574,#455,#456);
#389=AXIS2_PLACEMENT_3D('',#575,#457,#458);
#390=AXIS2_PLACEMENT_3D('',#579,#460,#461);
#391=AXIS2_PLACEMENT_3D('',#590,#464,#465);
#392=AXIS2_PLACEMENT_3D('',#591,#466,#467);
#393=AXIS2_PLACEMENT_3D('',#595,#469,#470);
#394=AXIS2_PLACEMENT_3D('',#606,#473,#474);
#395=AXIS2_PLACEMENT_3D('',#607,#475,#476);
#396=AXIS2_PLACEMENT_3D('',#616,#477,#478);
#397=AXIS2_PLACEMENT_3D('',#617,#479,#480);
#398=AXIS2_PLACEMENT_3D('',#618,#481,#482);
#399=AXIS2_PLACEMENT_3D('',#619,#483,#484);
#400=AXIS2_PLACEMENT_3D('',#620,#485,#486);
#401=AXIS2_PLACEMENT_3D('',#624,#488,#489);
#402=AXIS2_PLACEMENT_3D('',#627,#492,#493);
#403=AXIS2_PLACEMENT_3D('',#628,#494,#495);
#404=AXIS2_PLACEMENT_3D('',#630,#496,#497);
#405=AXIS2_PLACEMENT_3D('',#631,#498,#499);
#406=AXIS2_PLACEMENT_3D('',#632,#500,#501);
#407=AXIS2_PLACEMENT_3D('',#633,#502,#503);
#408=AXIS2_PLACEMENT_3D('',#635,#504,#505);
#409=AXIS2_PLACEMENT_3D('',#636,#506,#507);
#410=AXIS2_PLACEMENT_3D('',#638,#508,#509);
#411=AXIS2_PLACEMENT_3D('',#639,#510,#511);
#412=AXIS2_PLACEMENT_3D('',#641,#512,#513);
#413=AXIS2_PLACEMENT_3D('',#642,#514,#515);
#414=DIRECTION('',(0.,0.,1.));
#415=DIRECTION('',(1.,0.,0.));
#416=DIRECTION('',(0.,0.,1.));
#417=DIRECTION('',(1.,0.,0.));
#418=DIRECTION('',(0.,0.,1.));
#419=DIRECTION('',(1.,0.,0.));
#420=DIRECTION('',(0.,0.,1.));
#421=DIRECTION('',(1.,0.,0.));
#422=DIRECTION('',(1.15295372232417E-16,0.,-1.));
#423=DIRECTION('',(-1.,0.,0.));
#424=DIRECTION('',(0.,0.,1.));
#425=DIRECTION('',(1.,0.,0.));
#426=DIRECTION('',(1.15295372232417E-16,0.,-1.));
#427=DIRECTION('',(-1.,0.,0.));
#428=DIRECTION('',(-1.15295372232417E-16,0.,1.));
#429=DIRECTION('',(-1.,0.,0.));
#430=DIRECTION('',(1.15295372232417E-16,0.,-1.));
#431=DIRECTION('',(-1.,0.,0.));
#432=DIRECTION('',(1.15295372232417E-16,0.,-1.));
#433=DIRECTION('',(-1.,0.,0.));
#434=DIRECTION('',(0.,0.,-1.));
#435=DIRECTION('',(-1.,0.,0.));
#436=DIRECTION('',(1.15295372232417E-16,0.,-1.));
#437=DIRECTION('',(-1.,0.,-1.83928184306243E-16));
#438=DIRECTION('',(1.15295372232417E-16,0.,-1.));
#439=DIRECTION('',(-1.,0.,0.));
#440=DIRECTION('',(0.,0.,-1.));
#441=DIRECTION('',(-1.,0.,0.));
#442=DIRECTION('',(0.,0.,1.));
#443=DIRECTION('',(1.,0.,0.));
#444=DIRECTION('',(0.,0.,1.));
#445=DIRECTION('',(1.,0.,0.));
#446=DIRECTION('',(2.04858570653361E-16,0.,-1.));
#447=DIRECTION('',(-1.,0.,-2.04858570653361E-16));
#448=DIRECTION('',(8.28344032153662E-16,0.707106781186548,0.707106781186547));
#449=DIRECTION('',(-8.28344032153662E-16,-0.707106781186547,0.707106781186548));
#450=DIRECTION('',(1.,-1.17145536458252E-15,0.));
#451=DIRECTION('',(8.28344032153662E-16,0.707106781186548,0.707106781186547));
#452=DIRECTION('',(8.29197821516914E-16,0.707106781186547,-0.707106781186548));
#453=DIRECTION('',(0.,0.,1.));
#454=DIRECTION('',(0.,0.,-1.));
#455=DIRECTION('',(1.17145536458252E-15,1.,0.));
#456=DIRECTION('',(0.,0.,-1.));
#457=DIRECTION('',(-0.707106781186548,1.65668806430732E-15,0.707106781186547));
#458=DIRECTION('',(0.707106781186547,-1.65668806430732E-15,0.707106781186548));
#459=DIRECTION('',(2.34291072916505E-15,1.,0.));
#460=DIRECTION('',(-0.707106781186548,1.65668806430732E-15,0.707106781186547));
#461=DIRECTION('',(-0.707106781186547,1.65666091955785E-15,-0.707106781186548));
#462=DIRECTION('',(0.,0.,1.));
#463=DIRECTION('',(0.,0.,-1.));
#464=DIRECTION('',(-1.,2.34291072916505E-15,0.));
#465=DIRECTION('',(0.,0.,-1.));
#466=DIRECTION('',(-2.64204134232937E-15,-0.707106781186548,0.707106781186547));
#467=DIRECTION('',(2.64204134232936E-15,0.707106781186547,0.707106781186548));
#468=DIRECTION('',(-1.,3.7364106986726E-15,0.));
#469=DIRECTION('',(-2.64204134232937E-15,-0.707106781186548,0.707106781186547));
#470=DIRECTION('',(-2.64198385391268E-15,-0.707106781186547,-0.707106781186548));
#471=DIRECTION('',(0.,0.,1.));
#472=DIRECTION('',(0.,0.,-1.));
#473=DIRECTION('',(-3.7364106986726E-15,-1.,0.));
#474=DIRECTION('',(0.,0.,-1.));
#475=DIRECTION('',(0.,0.,1.));
#476=DIRECTION('',(-1.,0.,0.));
#477=DIRECTION('',(0.,0.,1.));
#478=DIRECTION('',(-1.,0.,0.));
#479=DIRECTION('',(0.,0.,1.));
#480=DIRECTION('',(-1.,0.,0.));
#481=DIRECTION('',(0.,0.,1.));
#482=DIRECTION('',(-1.,0.,0.));
#483=DIRECTION('',(0.,0.,-1.));
#484=DIRECTION('',(-1.,0.,0.));
#485=DIRECTION('',(0.707106781186548,0.,0.707106781186547));
#486=DIRECTION('',(-0.707106781186547,0.,0.707106781186548));
#487=DIRECTION('',(0.,-1.,0.));
#488=DIRECTION('',(0.707106781186548,0.,0.707106781186547));
#489=DIRECTION('',(0.707106781186547,0.,-0.707106781186548));
#490=DIRECTION('',(0.,0.,1.));
#491=DIRECTION('',(0.,0.,-1.));
#492=DIRECTION('',(1.,0.,0.));
#493=DIRECTION('',(0.,0.,-1.));
#494=DIRECTION('',(0.,0.,-1.));
#495=DIRECTION('',(1.,0.,0.));
#496=DIRECTION('',(0.,0.,1.));
#497=DIRECTION('',(1.,0.,0.));
#498=DIRECTION('',(0.,0.,-1.));
#499=DIRECTION('',(-1.,0.,-2.4170112125473E-17));
#500=DIRECTION('',(0.,0.,-1.));
#501=DIRECTION('',(-1.,0.,0.));
#502=DIRECTION('',(0.,0.,-1.));
#503=DIRECTION('',(1.,0.,0.));
#504=DIRECTION('',(0.,0.,1.));
#505=DIRECTION('',(1.,0.,0.));
#506=DIRECTION('',(0.,0.,-1.));
#507=DIRECTION('',(1.,0.,0.));
#508=DIRECTION('',(0.,0.,1.));
#509=DIRECTION('',(1.,0.,0.));
#510=DIRECTION('',(9.06853497640132E-17,0.,-1.));
#511=DIRECTION('',(1.,0.,0.));
#512=DIRECTION('',(0.,0.,1.));
#513=DIRECTION('',(1.,0.,-4.87424735596784E-16));
#514=DIRECTION('',(-9.06853497640132E-17,0.,1.));
#515=DIRECTION('',(1.,0.,9.71445146547012E-17));
#516=CARTESIAN_POINT('',(0.,0.,0.));
#517=CARTESIAN_POINT('',(0.,0.,-23.));
#518=CARTESIAN_POINT('CRP',(-5.07806596478536,0.,-70.));
#519=CARTESIAN_POINT('CIP_DCSYS',(0.,0.,-70.));
#520=CARTESIAN_POINT('',(-5.07806596478536,0.,-57.));
#521=CARTESIAN_POINT('',(-3.3853773098569,0.,-57.));
#522=CARTESIAN_POINT('',(-1.69268865492845,0.,-57.));
#523=CARTESIAN_POINT('',(0.,0.,-57.));
#524=CARTESIAN_POINT('',(0.,0.,-61.3666666666667));
#525=CARTESIAN_POINT('',(0.,0.,-65.7333333333333));
#526=CARTESIAN_POINT('',(0.,0.,-70.1));
#527=CARTESIAN_POINT('',(-1.57968815594683,0.,-70.1));
#528=CARTESIAN_POINT('',(-3.15937631189366,0.,-70.1));
#529=CARTESIAN_POINT('',(-4.73906446784049,0.,-70.1));
#530=CARTESIAN_POINT('',(-4.85206496682211,0.,-69.0666666666667));
#531=CARTESIAN_POINT('',(-4.96506546580374,0.,-68.0333333333334));
#532=CARTESIAN_POINT('',(-5.07806596478536,0.,-67.));
#533=CARTESIAN_POINT('',(-5.07806596478536,0.,-63.6666666666667));
#534=CARTESIAN_POINT('',(-5.07806596478536,0.,-60.3333333333333));
#535=CARTESIAN_POINT('',(-5.07806596478536,0.,-57.));
#536=CARTESIAN_POINT('',(0.,0.,0.));
#537=CARTESIAN_POINT('',(0.,0.,-23.));
#538=CARTESIAN_POINT('',(0.,0.,-70.));
#539=CARTESIAN_POINT('',(4.32116198668797E-15,0.,-40.5545268253205));
#540=CARTESIAN_POINT('',(-3.34999999999999,0.,-40.5545268253205));
#541=CARTESIAN_POINT('',(0.,0.,-40.));
#542=CARTESIAN_POINT('',(3.50000000000001,0.,-40.));
#543=CARTESIAN_POINT('',(4.33680868994202E-15,0.,-40.5545268253205));
#544=CARTESIAN_POINT('',(6.02899642435861E-15,0.,-55.3672153539452));
#545=CARTESIAN_POINT('',(-3.34999999999999,0.,-55.3672153539452));
#546=CARTESIAN_POINT('',(4.21884749357559E-15,0.,-39.6671148578555));
#547=CARTESIAN_POINT('',(6.13883001777987E-15,0.,-56.319843298108));
#548=CARTESIAN_POINT('',(-3.89999999999999,0.,-56.319843298108));
#549=CARTESIAN_POINT('',(0.,0.,-57.));
#550=CARTESIAN_POINT('',(-5.07806596478536,0.,-57.));
#551=CARTESIAN_POINT('',(6.10221881997278E-15,0.,-56.0023006500538));
#552=CARTESIAN_POINT('',(6.02899642435861E-15,0.,-55.3672153539452));
#553=CARTESIAN_POINT('',(0.,0.,-8.94));
#554=CARTESIAN_POINT('',(-3.5,0.,-8.94));
#555=CARTESIAN_POINT('',(0.,0.,20.9080749503476));
#556=CARTESIAN_POINT('',(0.,0.,0.));
#557=CARTESIAN_POINT('',(1.96,0.,0.));
#558=CARTESIAN_POINT('',(3.8,0.,3.89231284241387E-16));
#559=CARTESIAN_POINT('',(0.,0.,-5.25));
#560=CARTESIAN_POINT('',(1.93056986405569,2.75,-8.));
#561=CARTESIAN_POINT('',(-1.93056986405569,2.75,-8.));
#562=CARTESIAN_POINT('',(8.25,2.74999999999999,-8.));
#563=CARTESIAN_POINT('',(8.25,2.74999999999999,-8.));
#564=CARTESIAN_POINT('',(-1.93056986405569,2.75,20.9080749503476));
#565=CARTESIAN_POINT('',(-1.93056986405569,2.75,-1.4));
#566=CARTESIAN_POINT('',(1.93056986405585,2.75,-1.40000000000008));
#567=CARTESIAN_POINT('',(1.33868652327781,2.75,-1.05991900573141));
#568=CARTESIAN_POINT('',(0.679895816961972,2.75,-0.790039297382016));
#569=CARTESIAN_POINT('',(-0.679577884616607,2.75,-0.789960711807166));
#570=CARTESIAN_POINT('',(-1.33903216041076,2.75,-1.06011759996735));
#571=CARTESIAN_POINT('',(-1.93056986405571,2.75,-1.39999999999998));
#572=CARTESIAN_POINT('',(1.9305698640559,2.75,-1.40000000000001));
#573=CARTESIAN_POINT('',(1.93056986405569,2.75,20.9080749503476));
#574=CARTESIAN_POINT('',(8.25,2.74999999999999,10.));
#575=CARTESIAN_POINT('',(0.,0.,-5.25));
#576=CARTESIAN_POINT('',(-2.75,1.9305698640557,-8.));
#577=CARTESIAN_POINT('',(-2.75,-1.93056986405568,-8.));
#578=CARTESIAN_POINT('',(-2.74999999999998,8.25000000000001,-8.));
#579=CARTESIAN_POINT('',(-2.74999999999998,8.25000000000001,-8.));
#580=CARTESIAN_POINT('',(-2.75,-1.93056986405568,20.9080749503476));
#581=CARTESIAN_POINT('',(-2.75,-1.93056986405568,-1.4));
#582=CARTESIAN_POINT('',(-2.75,1.93056986405593,-1.40000000000011));
#583=CARTESIAN_POINT('',(-2.75,1.33903216041099,-1.06011759996745));
#584=CARTESIAN_POINT('',(-2.75,0.679577884616843,-0.789960711807218));
#585=CARTESIAN_POINT('',(-2.75,-0.679895816961762,-0.790039297381963));
#586=CARTESIAN_POINT('',(-2.75,-1.33868652327763,-1.05991900573133));
#587=CARTESIAN_POINT('',(-2.75,-1.93056986405569,-1.4));
#588=CARTESIAN_POINT('',(-2.75,1.930569864056,-1.40000000000002));
#589=CARTESIAN_POINT('',(-2.75,1.9305698640557,20.9080749503476));
#590=CARTESIAN_POINT('',(-2.74999999999998,8.25000000000001,10.));
#591=CARTESIAN_POINT('',(0.,0.,-5.25));
#592=CARTESIAN_POINT('',(-1.9305698640557,-2.74999999999999,-8.));
#593=CARTESIAN_POINT('',(1.93056986405568,-2.75000000000001,-8.));
#594=CARTESIAN_POINT('',(-8.25000000000001,-2.74999999999997,-8.));
#595=CARTESIAN_POINT('',(-8.25000000000001,-2.74999999999997,-8.));
#596=CARTESIAN_POINT('',(1.93056986405568,-2.75000000000001,20.9080749503476));
#597=CARTESIAN_POINT('',(1.93056986405568,-2.75000000000001,-1.4));
#598=CARTESIAN_POINT('',(-1.93056986405594,-2.74999999999999,-1.4000000000001));
#599=CARTESIAN_POINT('',(-1.339032160411,-2.75,-1.06011759996745));
#600=CARTESIAN_POINT('',(-0.679577884616845,-2.75,-0.789960711807218));
#601=CARTESIAN_POINT('',(0.679895816961758,-2.75,-0.790039297381963));
#602=CARTESIAN_POINT('',(1.33868652327763,-2.75000000000001,-1.05991900573133));
#603=CARTESIAN_POINT('',(1.93056986405568,-2.75000000000001,-1.4));
#604=CARTESIAN_POINT('',(-1.930569864056,-2.74999999999999,-1.40000000000002));
#605=CARTESIAN_POINT('',(-1.9305698640557,-2.74999999999999,20.9080749503476));
#606=CARTESIAN_POINT('',(-8.25000000000001,-2.74999999999997,10.));
#607=CARTESIAN_POINT('',(0.,0.,-1.4));
#608=CARTESIAN_POINT('',(2.75,-1.9305698640559,-1.40000000000001));
#609=CARTESIAN_POINT('',(2.75,-1.93056986405585,-1.40000000000008));
#610=CARTESIAN_POINT('',(2.75,-1.33868652327781,-1.05991900573141));
#611=CARTESIAN_POINT('',(2.75,-0.679895816961969,-0.790039297382016));
#612=CARTESIAN_POINT('',(2.75,0.67957788461661,-0.789960711807166));
#613=CARTESIAN_POINT('',(2.75,1.33903216041076,-1.06011759996735));
#614=CARTESIAN_POINT('',(2.75,1.93056986405571,-1.39999999999998));
#615=CARTESIAN_POINT('',(2.75,1.93056986405569,-1.4));
#616=CARTESIAN_POINT('',(0.,0.,-1.4));
#617=CARTESIAN_POINT('',(0.,0.,-1.4));
#618=CARTESIAN_POINT('',(0.,0.,-1.4));
#619=CARTESIAN_POINT('',(0.,0.,0.));
#620=CARTESIAN_POINT('',(0.,0.,-5.25));
#621=CARTESIAN_POINT('',(2.75,-1.93056986405569,-8.));
#622=CARTESIAN_POINT('',(2.75,1.93056986405569,-8.));
#623=CARTESIAN_POINT('',(2.75,-8.25,-8.));
#624=CARTESIAN_POINT('',(2.75,-8.25,-8.));
#625=CARTESIAN_POINT('',(2.75,1.93056986405569,20.9080749503476));
#626=CARTESIAN_POINT('',(2.75,-1.93056986405569,20.9080749503476));
#627=CARTESIAN_POINT('',(2.75,-8.25,10.));
#628=CARTESIAN_POINT('',(0.,0.,-8.8));
#629=CARTESIAN_POINT('',(3.36,0.,-8.8));
#630=CARTESIAN_POINT('',(0.,0.,20.9080749503476));
#631=CARTESIAN_POINT('',(0.,0.,-10.24));
#632=CARTESIAN_POINT('',(0.,0.,-57.));
#633=CARTESIAN_POINT('',(0.,0.,-57.));
#634=CARTESIAN_POINT('',(5.07806596478536,0.,-57.));
#635=CARTESIAN_POINT('',(0.,0.,-57.));
#636=CARTESIAN_POINT('',(0.,0.,-67.));
#637=CARTESIAN_POINT('',(5.07806596478536,0.,-67.));
#638=CARTESIAN_POINT('',(0.,0.,20.9080749503476));
#639=CARTESIAN_POINT('',(4.69969496815107E-17,0.,-70.1));
#640=CARTESIAN_POINT('',(4.73906446784049,0.,-70.1));
#641=CARTESIAN_POINT('',(0.,0.,-72.));
#642=CARTESIAN_POINT('',(10.5,0.,-70.1));
#643=MECHANICAL_DESIGN_GEOMETRIC_PRESENTATION_REPRESENTATION('',(#341,#342,
#343,#344,#345,#346,#347,#348,#349),#644);
#644=(
GEOMETRIC_REPRESENTATION_CONTEXT(3)
GLOBAL_UNCERTAINTY_ASSIGNED_CONTEXT((#645))
GLOBAL_UNIT_ASSIGNED_CONTEXT((#651,#647,#646))
REPRESENTATION_CONTEXT('TOOL','TOP_LEVEL_ASSEMBLY_PART')
);
#645=UNCERTAINTY_MEASURE_WITH_UNIT(LENGTH_MEASURE(0.0508),#651,
'DISTANCE_ACCURACY_VALUE','Maximum Tolerance applied to model');
#646=(
NAMED_UNIT(*)
SI_UNIT($,.STERADIAN.)
SOLID_ANGLE_UNIT()
);
#647=(
CONVERSION_BASED_UNIT('DEGREE',#649)
NAMED_UNIT(#648)
PLANE_ANGLE_UNIT()
);
#648=DIMENSIONAL_EXPONENTS(0.,0.,0.,0.,0.,0.,0.);
#649=PLANE_ANGLE_MEASURE_WITH_UNIT(PLANE_ANGLE_MEASURE(0.0174532925),#650);
#650=(
NAMED_UNIT(*)
PLANE_ANGLE_UNIT()
SI_UNIT($,.RADIAN.)
);
#651=(
LENGTH_UNIT()
NAMED_UNIT(*)
SI_UNIT(.MILLI.,.METRE.)
);
ENDSEC;
END-ISO-10303-21;
