ISO-10303-21;
HEADER;
/* Generated by software containing ST-Developer
 * from STEP Tools, Inc. (www.steptools.com) 
 */
/* OPTION: using custom schema-name function */

FILE_DESCRIPTION(
/* description */ (''),
/* implementation_level */ '2;1');

FILE_NAME(
/* name */ 'TOOL.STP',
/* time_stamp */ '2023-01-23T07:26:31+01:00',
/* author */ (''),
/* organization */ ('SMS'),
/* preprocessor_version */ 'ST-DEVELOPER v16.7',
/* originating_system */ 'SIEMENS PLM Software NX 12.0',
/* authorisation */ '');

FILE_SCHEMA (('AUTOMOTIVE_DESIGN { 1 0 10303 214 3 1 1 1 }'));
ENDSEC;

DATA;
#10=CONSTRUCTIVE_GEOMETRY_REPRESENTATION_RELATIONSHIP(
'supplemental geometry','',#26,#11);
#11=CONSTRUCTIVE_GEOMETRY_REPRESENTATION('supplemental geometry',(#348,
#349,#350),#604);
#12=GEOMETRICALLY_BOUNDED_WIREFRAME_SHAPE_REPRESENTATION('Tool-None',(#27),
#604);
#13=SHAPE_REPRESENTATION_RELATIONSHIP('None',
'relationship between Tool-None and Tool-None',#26,#15);
#14=SHAPE_REPRESENTATION_RELATIONSHIP('None',
'relationship between Tool-None and Tool-None',#26,#12);
#15=ADVANCED_BREP_SHAPE_REPRESENTATION('Tool-None',(#38,#39),#604);
#16=SHAPE_DEFINITION_REPRESENTATION(#17,#26);
#17=PRODUCT_DEFINITION_SHAPE('','',#18);
#18=PRODUCT_DEFINITION(' ','',#20,#19);
#19=PRODUCT_DEFINITION_CONTEXT('part definition',#25,'design');
#20=PRODUCT_DEFINITION_FORMATION_WITH_SPECIFIED_SOURCE(' ',' ',#22,
 .NOT_KNOWN.);
#21=PRODUCT_RELATED_PRODUCT_CATEGORY('part','',(#22));
#22=PRODUCT('Tool','Tool',' ',(#23));
#23=PRODUCT_CONTEXT(' ',#25,'mechanical');
#24=APPLICATION_PROTOCOL_DEFINITION('international standard',
'automotive_design',2010,#25);
#25=APPLICATION_CONTEXT(
'core data for automotive mechanical design processes');
#26=SHAPE_REPRESENTATION('Tool-None',(#347),#604);
#27=GEOMETRIC_CURVE_SET('None',(#483,#484,#485,#311));
#28=SURFACE_STYLE_USAGE(.BOTH.,#30);
#29=SURFACE_STYLE_USAGE(.BOTH.,#31);
#30=SURFACE_SIDE_STYLE('',(#32));
#31=SURFACE_SIDE_STYLE('',(#33));
#32=SURFACE_STYLE_FILL_AREA(#34);
#33=SURFACE_STYLE_FILL_AREA(#35);
#34=FILL_AREA_STYLE('',(#36));
#35=FILL_AREA_STYLE('',(#37));
#36=FILL_AREA_STYLE_COLOUR('',#345);
#37=FILL_AREA_STYLE_COLOUR('',#346);
#38=MANIFOLD_SOLID_BREP('NOCUT',#40);
#39=MANIFOLD_SOLID_BREP('CUT',#41);
#40=CLOSED_SHELL('',(#99,#100,#101,#102,#103,#104,#105,#106,#107,#108,#109,
#110,#111,#112,#113,#114));
#41=CLOSED_SHELL('',(#115,#116,#117,#118));
#42=LINE('',#522,#54);
#43=LINE('',#524,#55);
#44=LINE('',#533,#56);
#45=LINE('',#538,#57);
#46=LINE('',#540,#58);
#47=LINE('',#549,#59);
#48=LINE('',#554,#60);
#49=LINE('',#556,#61);
#50=LINE('',#565,#62);
#51=LINE('',#583,#63);
#52=LINE('',#585,#64);
#53=LINE('',#586,#65);
#54=VECTOR('',#416,1.);
#55=VECTOR('',#419,1.);
#56=VECTOR('',#420,1.);
#57=VECTOR('',#425,1.);
#58=VECTOR('',#428,1.);
#59=VECTOR('',#429,1.);
#60=VECTOR('',#434,1.);
#61=VECTOR('',#437,1.);
#62=VECTOR('',#438,1.);
#63=VECTOR('',#453,1.);
#64=VECTOR('',#456,1.);
#65=VECTOR('',#457,1.);
#66=ELLIPSE('',#360,4.7517575695736,3.36);
#67=ELLIPSE('',#363,4.7517575695736,3.36);
#68=ELLIPSE('',#366,4.7517575695736,3.36);
#69=ELLIPSE('',#374,4.7517575695736,3.36);
#70=PLANE('',#359);
#71=PLANE('',#361);
#72=PLANE('',#362);
#73=PLANE('',#364);
#74=PLANE('',#365);
#75=PLANE('',#367);
#76=PLANE('',#368);
#77=PLANE('',#375);
#78=PLANE('',#376);
#79=PLANE('',#380);
#80=PLANE('',#382);
#81=PLANE('',#387);
#82=FACE_OUTER_BOUND('',#144,.T.);
#83=FACE_OUTER_BOUND('',#145,.T.);
#84=FACE_OUTER_BOUND('',#146,.T.);
#85=FACE_OUTER_BOUND('',#147,.T.);
#86=FACE_OUTER_BOUND('',#148,.T.);
#87=FACE_OUTER_BOUND('',#149,.T.);
#88=FACE_OUTER_BOUND('',#150,.T.);
#89=FACE_OUTER_BOUND('',#153,.T.);
#90=FACE_OUTER_BOUND('',#154,.T.);
#91=FACE_OUTER_BOUND('',#159,.T.);
#92=FACE_OUTER_BOUND('',#160,.T.);
#93=FACE_OUTER_BOUND('',#165,.T.);
#94=TOROIDAL_SURFACE('',#357,4.6,1.1);
#95=CONICAL_SURFACE('',#356,3.49999999999999,30.);
#96=CONICAL_SURFACE('',#373,1.96,45.);
#97=CONICAL_SURFACE('',#379,4.8,45.);
#98=CONICAL_SURFACE('',#386,4.53128935680976,6.240800184084);
#99=ADVANCED_FACE('',(#122,#123),#119,.T.);
#100=ADVANCED_FACE('',(#124,#125),#95,.T.);
#101=ADVANCED_FACE('',(#126,#127),#94,.F.);
#102=ADVANCED_FACE('',(#82),#70,.F.);
#103=ADVANCED_FACE('',(#83),#71,.T.);
#104=ADVANCED_FACE('',(#84),#72,.T.);
#105=ADVANCED_FACE('',(#85),#73,.T.);
#106=ADVANCED_FACE('',(#86),#74,.T.);
#107=ADVANCED_FACE('',(#87),#75,.T.);
#108=ADVANCED_FACE('',(#88),#76,.T.);
#109=ADVANCED_FACE('',(#128,#129),#96,.T.);
#110=ADVANCED_FACE('',(#89),#77,.T.);
#111=ADVANCED_FACE('',(#90),#78,.T.);
#112=ADVANCED_FACE('',(#130,#131),#120,.T.);
#113=ADVANCED_FACE('',(#132,#133),#97,.T.);
#114=ADVANCED_FACE('',(#91),#79,.T.);
#115=ADVANCED_FACE('',(#92),#80,.T.);
#116=ADVANCED_FACE('',(#134,#135),#121,.T.);
#117=ADVANCED_FACE('',(#136,#137),#98,.T.);
#118=ADVANCED_FACE('',(#93),#81,.F.);
#119=CYLINDRICAL_SURFACE('',#353,3.5);
#120=CYLINDRICAL_SURFACE('',#378,3.36);
#121=CYLINDRICAL_SURFACE('',#384,5.07806596478536);
#122=FACE_BOUND('',#138,.T.);
#123=FACE_BOUND('',#139,.T.);
#124=FACE_BOUND('',#140,.T.);
#125=FACE_BOUND('',#141,.T.);
#126=FACE_BOUND('',#142,.T.);
#127=FACE_BOUND('',#143,.T.);
#128=FACE_BOUND('',#151,.T.);
#129=FACE_BOUND('',#152,.T.);
#130=FACE_BOUND('',#155,.T.);
#131=FACE_BOUND('',#156,.T.);
#132=FACE_BOUND('',#157,.T.);
#133=FACE_BOUND('',#158,.T.);
#134=FACE_BOUND('',#161,.T.);
#135=FACE_BOUND('',#162,.T.);
#136=FACE_BOUND('',#163,.T.);
#137=FACE_BOUND('',#164,.T.);
#138=EDGE_LOOP('',(#166));
#139=EDGE_LOOP('',(#167));
#140=EDGE_LOOP('',(#168));
#141=EDGE_LOOP('',(#169));
#142=EDGE_LOOP('',(#170));
#143=EDGE_LOOP('',(#171));
#144=EDGE_LOOP('',(#172));
#145=EDGE_LOOP('',(#173,#174));
#146=EDGE_LOOP('',(#175,#176,#177,#178));
#147=EDGE_LOOP('',(#179,#180));
#148=EDGE_LOOP('',(#181,#182,#183,#184));
#149=EDGE_LOOP('',(#185,#186));
#150=EDGE_LOOP('',(#187,#188,#189,#190));
#151=EDGE_LOOP('',(#191));
#152=EDGE_LOOP('',(#192,#193,#194,#195,#196,#197,#198,#199));
#153=EDGE_LOOP('',(#200,#201));
#154=EDGE_LOOP('',(#202,#203,#204,#205));
#155=EDGE_LOOP('',(#206));
#156=EDGE_LOOP('',(#207,#208,#209,#210,#211,#212,#213,#214,#215,#216,#217,
#218,#219,#220,#221,#222));
#157=EDGE_LOOP('',(#223));
#158=EDGE_LOOP('',(#224));
#159=EDGE_LOOP('',(#225));
#160=EDGE_LOOP('',(#226));
#161=EDGE_LOOP('',(#227));
#162=EDGE_LOOP('',(#228));
#163=EDGE_LOOP('',(#229));
#164=EDGE_LOOP('',(#230));
#165=EDGE_LOOP('',(#231));
#166=ORIENTED_EDGE('',*,*,#257,.T.);
#167=ORIENTED_EDGE('',*,*,#258,.T.);
#168=ORIENTED_EDGE('',*,*,#259,.T.);
#169=ORIENTED_EDGE('',*,*,#260,.F.);
#170=ORIENTED_EDGE('',*,*,#257,.F.);
#171=ORIENTED_EDGE('',*,*,#259,.F.);
#172=ORIENTED_EDGE('',*,*,#261,.T.);
#173=ORIENTED_EDGE('',*,*,#262,.T.);
#174=ORIENTED_EDGE('',*,*,#263,.T.);
#175=ORIENTED_EDGE('',*,*,#264,.T.);
#176=ORIENTED_EDGE('',*,*,#265,.F.);
#177=ORIENTED_EDGE('',*,*,#266,.T.);
#178=ORIENTED_EDGE('',*,*,#263,.F.);
#179=ORIENTED_EDGE('',*,*,#267,.T.);
#180=ORIENTED_EDGE('',*,*,#268,.T.);
#181=ORIENTED_EDGE('',*,*,#269,.T.);
#182=ORIENTED_EDGE('',*,*,#270,.F.);
#183=ORIENTED_EDGE('',*,*,#271,.T.);
#184=ORIENTED_EDGE('',*,*,#268,.F.);
#185=ORIENTED_EDGE('',*,*,#272,.T.);
#186=ORIENTED_EDGE('',*,*,#273,.T.);
#187=ORIENTED_EDGE('',*,*,#274,.T.);
#188=ORIENTED_EDGE('',*,*,#275,.F.);
#189=ORIENTED_EDGE('',*,*,#276,.T.);
#190=ORIENTED_EDGE('',*,*,#273,.F.);
#191=ORIENTED_EDGE('',*,*,#261,.F.);
#192=ORIENTED_EDGE('',*,*,#277,.T.);
#193=ORIENTED_EDGE('',*,*,#278,.T.);
#194=ORIENTED_EDGE('',*,*,#279,.T.);
#195=ORIENTED_EDGE('',*,*,#265,.T.);
#196=ORIENTED_EDGE('',*,*,#280,.T.);
#197=ORIENTED_EDGE('',*,*,#270,.T.);
#198=ORIENTED_EDGE('',*,*,#281,.T.);
#199=ORIENTED_EDGE('',*,*,#275,.T.);
#200=ORIENTED_EDGE('',*,*,#282,.T.);
#201=ORIENTED_EDGE('',*,*,#283,.T.);
#202=ORIENTED_EDGE('',*,*,#284,.T.);
#203=ORIENTED_EDGE('',*,*,#278,.F.);
#204=ORIENTED_EDGE('',*,*,#285,.T.);
#205=ORIENTED_EDGE('',*,*,#283,.F.);
#206=ORIENTED_EDGE('',*,*,#286,.F.);
#207=ORIENTED_EDGE('',*,*,#284,.F.);
#208=ORIENTED_EDGE('',*,*,#282,.F.);
#209=ORIENTED_EDGE('',*,*,#285,.F.);
#210=ORIENTED_EDGE('',*,*,#277,.F.);
#211=ORIENTED_EDGE('',*,*,#274,.F.);
#212=ORIENTED_EDGE('',*,*,#272,.F.);
#213=ORIENTED_EDGE('',*,*,#276,.F.);
#214=ORIENTED_EDGE('',*,*,#281,.F.);
#215=ORIENTED_EDGE('',*,*,#269,.F.);
#216=ORIENTED_EDGE('',*,*,#267,.F.);
#217=ORIENTED_EDGE('',*,*,#271,.F.);
#218=ORIENTED_EDGE('',*,*,#280,.F.);
#219=ORIENTED_EDGE('',*,*,#264,.F.);
#220=ORIENTED_EDGE('',*,*,#262,.F.);
#221=ORIENTED_EDGE('',*,*,#266,.F.);
#222=ORIENTED_EDGE('',*,*,#279,.F.);
#223=ORIENTED_EDGE('',*,*,#286,.T.);
#224=ORIENTED_EDGE('',*,*,#258,.F.);
#225=ORIENTED_EDGE('',*,*,#260,.T.);
#226=ORIENTED_EDGE('',*,*,#287,.F.);
#227=ORIENTED_EDGE('',*,*,#288,.F.);
#228=ORIENTED_EDGE('',*,*,#287,.T.);
#229=ORIENTED_EDGE('',*,*,#288,.T.);
#230=ORIENTED_EDGE('',*,*,#289,.F.);
#231=ORIENTED_EDGE('',*,*,#289,.T.);
#232=VERTEX_POINT('',#506);
#233=VERTEX_POINT('',#508);
#234=VERTEX_POINT('',#511);
#235=VERTEX_POINT('',#513);
#236=VERTEX_POINT('',#517);
#237=VERTEX_POINT('',#520);
#238=VERTEX_POINT('',#521);
#239=VERTEX_POINT('',#525);
#240=VERTEX_POINT('',#532);
#241=VERTEX_POINT('',#536);
#242=VERTEX_POINT('',#537);
#243=VERTEX_POINT('',#541);
#244=VERTEX_POINT('',#548);
#245=VERTEX_POINT('',#552);
#246=VERTEX_POINT('',#553);
#247=VERTEX_POINT('',#557);
#248=VERTEX_POINT('',#564);
#249=VERTEX_POINT('',#568);
#250=VERTEX_POINT('',#575);
#251=VERTEX_POINT('',#581);
#252=VERTEX_POINT('',#582);
#253=VERTEX_POINT('',#589);
#254=VERTEX_POINT('',#594);
#255=VERTEX_POINT('',#597);
#256=VERTEX_POINT('',#600);
#257=EDGE_CURVE('',#232,#232,#290,.T.);
#258=EDGE_CURVE('',#233,#233,#291,.T.);
#259=EDGE_CURVE('',#234,#234,#292,.T.);
#260=EDGE_CURVE('',#235,#235,#293,.T.);
#261=EDGE_CURVE('',#236,#236,#294,.T.);
#262=EDGE_CURVE('',#237,#238,#66,.T.);
#263=EDGE_CURVE('',#238,#237,#42,.T.);
#264=EDGE_CURVE('',#238,#239,#43,.T.);
#265=EDGE_CURVE('',#240,#239,#312,.T.);
#266=EDGE_CURVE('',#240,#237,#44,.T.);
#267=EDGE_CURVE('',#241,#242,#67,.T.);
#268=EDGE_CURVE('',#242,#241,#45,.T.);
#269=EDGE_CURVE('',#242,#243,#46,.T.);
#270=EDGE_CURVE('',#244,#243,#313,.T.);
#271=EDGE_CURVE('',#244,#241,#47,.T.);
#272=EDGE_CURVE('',#245,#246,#68,.T.);
#273=EDGE_CURVE('',#246,#245,#48,.T.);
#274=EDGE_CURVE('',#246,#247,#49,.T.);
#275=EDGE_CURVE('',#248,#247,#314,.T.);
#276=EDGE_CURVE('',#248,#245,#50,.T.);
#277=EDGE_CURVE('',#247,#249,#295,.T.);
#278=EDGE_CURVE('',#249,#250,#315,.T.);
#279=EDGE_CURVE('',#250,#240,#296,.T.);
#280=EDGE_CURVE('',#239,#244,#297,.T.);
#281=EDGE_CURVE('',#243,#248,#298,.T.);
#282=EDGE_CURVE('',#251,#252,#69,.T.);
#283=EDGE_CURVE('',#252,#251,#51,.T.);
#284=EDGE_CURVE('',#252,#250,#52,.T.);
#285=EDGE_CURVE('',#249,#251,#53,.T.);
#286=EDGE_CURVE('',#253,#253,#299,.T.);
#287=EDGE_CURVE('',#254,#254,#300,.T.);
#288=EDGE_CURVE('',#255,#255,#301,.T.);
#289=EDGE_CURVE('',#256,#256,#302,.T.);
#290=CIRCLE('',#351,3.5);
#291=CIRCLE('',#352,3.5);
#292=CIRCLE('',#354,3.64737205583712);
#293=CIRCLE('',#355,5.07806596478536);
#294=CIRCLE('',#358,1.96);
#295=CIRCLE('',#369,3.36);
#296=CIRCLE('',#370,3.36);
#297=CIRCLE('',#371,3.36);
#298=CIRCLE('',#372,3.36);
#299=CIRCLE('',#377,3.36);
#300=CIRCLE('',#381,5.07806596478536);
#301=CIRCLE('',#383,5.07806596478536);
#302=CIRCLE('',#385,4.73906446784049);
#303=CURVE_STYLE('',#307,POSITIVE_LENGTH_MEASURE(0.18),#317);
#304=CURVE_STYLE('',#308,POSITIVE_LENGTH_MEASURE(0.13),#344);
#305=CURVE_STYLE('',#309,POSITIVE_LENGTH_MEASURE(0.18),#343);
#306=CURVE_STYLE('',#310,POSITIVE_LENGTH_MEASURE(0.18),#343);
#307=DRAUGHTING_PRE_DEFINED_CURVE_FONT('continuous');
#308=DRAUGHTING_PRE_DEFINED_CURVE_FONT('continuous');
#309=DRAUGHTING_PRE_DEFINED_CURVE_FONT('continuous');
#310=DRAUGHTING_PRE_DEFINED_CURVE_FONT('continuous');
#311=B_SPLINE_CURVE_WITH_KNOTS('CUTTING PART LINE',3,(#486,#487,#488,#489,
#490,#491,#492,#493,#494,#495,#496,#497,#498,#499,#500,#501),
 .UNSPECIFIED.,.T.,.F.,(4,3,3,3,3,4),(0.,0.140917992008352,0.50444727818303,
0.635957867734806,0.722496728108814,1.),.UNSPECIFIED.);
#312=B_SPLINE_CURVE_WITH_KNOTS('',3,(#526,#527,#528,#529,#530,#531),
 .UNSPECIFIED.,.F.,.F.,(4,2,4),(0.,0.5,1.),.UNSPECIFIED.);
#313=B_SPLINE_CURVE_WITH_KNOTS('',3,(#542,#543,#544,#545,#546,#547),
 .UNSPECIFIED.,.F.,.F.,(4,2,4),(0.,0.5,1.),.UNSPECIFIED.);
#314=B_SPLINE_CURVE_WITH_KNOTS('',3,(#558,#559,#560,#561,#562,#563),
 .UNSPECIFIED.,.F.,.F.,(4,2,4),(0.,0.5,1.),.UNSPECIFIED.);
#315=B_SPLINE_CURVE_WITH_KNOTS('',3,(#569,#570,#571,#572,#573,#574),
 .UNSPECIFIED.,.F.,.F.,(4,2,4),(0.,0.5,1.),.UNSPECIFIED.);
#316=DRAUGHTING_PRE_DEFINED_COLOUR('white');
#317=DRAUGHTING_PRE_DEFINED_COLOUR('blue');
#318=PRESENTATION_LAYER_ASSIGNMENT('1','Layer 1',(#483,#484,#485,#311,#348,
#349,#350,#38,#39));
#319=STYLED_ITEM('',(#328),#483);
#320=STYLED_ITEM('',(#329),#484);
#321=STYLED_ITEM('',(#330),#485);
#322=STYLED_ITEM('',(#331),#311);
#323=STYLED_ITEM('',(#332),#348);
#324=STYLED_ITEM('',(#333),#349);
#325=STYLED_ITEM('',(#334),#350);
#326=STYLED_ITEM('',(#335),#38);
#327=STYLED_ITEM('',(#336),#39);
#328=PRESENTATION_STYLE_ASSIGNMENT((#337));
#329=PRESENTATION_STYLE_ASSIGNMENT((#338));
#330=PRESENTATION_STYLE_ASSIGNMENT((#339));
#331=PRESENTATION_STYLE_ASSIGNMENT((#303));
#332=PRESENTATION_STYLE_ASSIGNMENT((#304));
#333=PRESENTATION_STYLE_ASSIGNMENT((#305));
#334=PRESENTATION_STYLE_ASSIGNMENT((#306));
#335=PRESENTATION_STYLE_ASSIGNMENT((#28));
#336=PRESENTATION_STYLE_ASSIGNMENT((#29));
#337=POINT_STYLE('',#340,POSITIVE_LENGTH_MEASURE(3.),#343);
#338=POINT_STYLE('',#341,POSITIVE_LENGTH_MEASURE(3.),#316);
#339=POINT_STYLE('',#342,POSITIVE_LENGTH_MEASURE(3.),#343);
#340=PRE_DEFINED_POINT_MARKER_SYMBOL('plus');
#341=PRE_DEFINED_POINT_MARKER_SYMBOL('plus');
#342=PRE_DEFINED_POINT_MARKER_SYMBOL('plus');
#343=COLOUR_RGB('Medium Maroon',0.6,0.4,0.4);
#344=COLOUR_RGB('Silver Gray',0.6,0.6,0.6);
#345=COLOUR_RGB('TLS_NOCUT',0.498023956664378,0.498023956664378,0.498023956664378);
#346=COLOUR_RGB('TLS_CUT',0.8,0.8,0.8);
#347=AXIS2_PLACEMENT_3D('',#482,#388,#389);
#348=AXIS2_PLACEMENT_3D('PCS',#502,#390,#391);
#349=AXIS2_PLACEMENT_3D('MCS',#503,#392,#393);
#350=AXIS2_PLACEMENT_3D('CIP',#504,#394,#395);
#351=AXIS2_PLACEMENT_3D('',#505,#396,#397);
#352=AXIS2_PLACEMENT_3D('',#507,#398,#399);
#353=AXIS2_PLACEMENT_3D('',#509,#400,#401);
#354=AXIS2_PLACEMENT_3D('',#510,#402,#403);
#355=AXIS2_PLACEMENT_3D('',#512,#404,#405);
#356=AXIS2_PLACEMENT_3D('',#514,#406,#407);
#357=AXIS2_PLACEMENT_3D('',#515,#408,#409);
#358=AXIS2_PLACEMENT_3D('',#516,#410,#411);
#359=AXIS2_PLACEMENT_3D('',#518,#412,#413);
#360=AXIS2_PLACEMENT_3D('',#519,#414,#415);
#361=AXIS2_PLACEMENT_3D('',#523,#417,#418);
#362=AXIS2_PLACEMENT_3D('',#534,#421,#422);
#363=AXIS2_PLACEMENT_3D('',#535,#423,#424);
#364=AXIS2_PLACEMENT_3D('',#539,#426,#427);
#365=AXIS2_PLACEMENT_3D('',#550,#430,#431);
#366=AXIS2_PLACEMENT_3D('',#551,#432,#433);
#367=AXIS2_PLACEMENT_3D('',#555,#435,#436);
#368=AXIS2_PLACEMENT_3D('',#566,#439,#440);
#369=AXIS2_PLACEMENT_3D('',#567,#441,#442);
#370=AXIS2_PLACEMENT_3D('',#576,#443,#444);
#371=AXIS2_PLACEMENT_3D('',#577,#445,#446);
#372=AXIS2_PLACEMENT_3D('',#578,#447,#448);
#373=AXIS2_PLACEMENT_3D('',#579,#449,#450);
#374=AXIS2_PLACEMENT_3D('',#580,#451,#452);
#375=AXIS2_PLACEMENT_3D('',#584,#454,#455);
#376=AXIS2_PLACEMENT_3D('',#587,#458,#459);
#377=AXIS2_PLACEMENT_3D('',#588,#460,#461);
#378=AXIS2_PLACEMENT_3D('',#590,#462,#463);
#379=AXIS2_PLACEMENT_3D('',#591,#464,#465);
#380=AXIS2_PLACEMENT_3D('',#592,#466,#467);
#381=AXIS2_PLACEMENT_3D('',#593,#468,#469);
#382=AXIS2_PLACEMENT_3D('',#595,#470,#471);
#383=AXIS2_PLACEMENT_3D('',#596,#472,#473);
#384=AXIS2_PLACEMENT_3D('',#598,#474,#475);
#385=AXIS2_PLACEMENT_3D('',#599,#476,#477);
#386=AXIS2_PLACEMENT_3D('',#601,#478,#479);
#387=AXIS2_PLACEMENT_3D('',#602,#480,#481);
#388=DIRECTION('',(0.,0.,1.));
#389=DIRECTION('',(1.,0.,0.));
#390=DIRECTION('',(0.,0.,1.));
#391=DIRECTION('',(1.,0.,0.));
#392=DIRECTION('',(0.,0.,1.));
#393=DIRECTION('',(1.,0.,0.));
#394=DIRECTION('',(0.,0.,1.));
#395=DIRECTION('',(1.,0.,0.));
#396=DIRECTION('',(-1.0329761744241E-16,0.,1.));
#397=DIRECTION('',(-1.,0.,0.));
#398=DIRECTION('',(0.,0.,-1.));
#399=DIRECTION('',(-1.,0.,0.));
#400=DIRECTION('',(1.0329761744241E-16,0.,-1.));
#401=DIRECTION('',(-1.,0.,0.));
#402=DIRECTION('',(1.0329761744241E-16,0.,-1.));
#403=DIRECTION('',(-1.,0.,0.));
#404=DIRECTION('',(0.,0.,-1.));
#405=DIRECTION('',(-1.,0.,0.));
#406=DIRECTION('',(1.0329761744241E-16,0.,-1.));
#407=DIRECTION('',(-1.,0.,2.38921948459731E-17));
#408=DIRECTION('',(1.0329761744241E-16,0.,-1.));
#409=DIRECTION('',(-1.,0.,0.));
#410=DIRECTION('',(0.,0.,1.));
#411=DIRECTION('',(1.,0.,0.));
#412=DIRECTION('',(2.4990026575577E-16,0.,-1.));
#413=DIRECTION('',(-1.,0.,-2.4990026575577E-16));
#414=DIRECTION('',(8.28344032153662E-16,0.707106781186548,0.707106781186547));
#415=DIRECTION('',(-8.28344032153662E-16,-0.707106781186547,0.707106781186548));
#416=DIRECTION('',(1.,-1.17145536458252E-15,0.));
#417=DIRECTION('',(8.28344032153662E-16,0.707106781186548,0.707106781186547));
#418=DIRECTION('',(8.29197821516914E-16,0.707106781186547,-0.707106781186548));
#419=DIRECTION('',(0.,0.,1.));
#420=DIRECTION('',(0.,0.,-1.));
#421=DIRECTION('',(1.17145536458252E-15,1.,0.));
#422=DIRECTION('',(0.,0.,-1.));
#423=DIRECTION('',(-0.707106781186548,1.65668806430732E-15,0.707106781186547));
#424=DIRECTION('',(0.707106781186547,-1.65668806430732E-15,0.707106781186548));
#425=DIRECTION('',(2.34291072916505E-15,1.,0.));
#426=DIRECTION('',(-0.707106781186548,1.65668806430732E-15,0.707106781186547));
#427=DIRECTION('',(-0.707106781186547,1.65666091955785E-15,-0.707106781186548));
#428=DIRECTION('',(0.,0.,1.));
#429=DIRECTION('',(0.,0.,-1.));
#430=DIRECTION('',(-1.,2.34291072916505E-15,0.));
#431=DIRECTION('',(0.,0.,-1.));
#432=DIRECTION('',(-2.64204134232937E-15,-0.707106781186548,0.707106781186547));
#433=DIRECTION('',(2.64204134232936E-15,0.707106781186547,0.707106781186548));
#434=DIRECTION('',(-1.,3.7364106986726E-15,0.));
#435=DIRECTION('',(-2.64204134232937E-15,-0.707106781186548,0.707106781186547));
#436=DIRECTION('',(-2.64198385391268E-15,-0.707106781186547,-0.707106781186548));
#437=DIRECTION('',(0.,0.,1.));
#438=DIRECTION('',(0.,0.,-1.));
#439=DIRECTION('',(-3.7364106986726E-15,-1.,0.));
#440=DIRECTION('',(0.,0.,-1.));
#441=DIRECTION('',(0.,0.,1.));
#442=DIRECTION('',(-1.,0.,0.));
#443=DIRECTION('',(0.,0.,1.));
#444=DIRECTION('',(-1.,0.,0.));
#445=DIRECTION('',(0.,0.,1.));
#446=DIRECTION('',(-1.,0.,0.));
#447=DIRECTION('',(0.,0.,1.));
#448=DIRECTION('',(-1.,0.,0.));
#449=DIRECTION('',(0.,0.,-1.));
#450=DIRECTION('',(-1.,0.,0.));
#451=DIRECTION('',(0.707106781186548,0.,0.707106781186547));
#452=DIRECTION('',(-0.707106781186547,0.,0.707106781186548));
#453=DIRECTION('',(0.,-1.,0.));
#454=DIRECTION('',(0.707106781186548,0.,0.707106781186547));
#455=DIRECTION('',(0.707106781186547,0.,-0.707106781186548));
#456=DIRECTION('',(0.,0.,1.));
#457=DIRECTION('',(0.,0.,-1.));
#458=DIRECTION('',(1.,0.,0.));
#459=DIRECTION('',(0.,0.,-1.));
#460=DIRECTION('',(0.,0.,-1.));
#461=DIRECTION('',(1.,0.,0.));
#462=DIRECTION('',(0.,0.,1.));
#463=DIRECTION('',(1.,0.,0.));
#464=DIRECTION('',(0.,0.,-1.));
#465=DIRECTION('',(-1.,0.,-2.07172389646912E-17));
#466=DIRECTION('',(0.,0.,-1.));
#467=DIRECTION('',(-1.,0.,0.));
#468=DIRECTION('',(0.,0.,-1.));
#469=DIRECTION('',(1.,0.,0.));
#470=DIRECTION('',(0.,0.,1.));
#471=DIRECTION('',(1.,0.,0.));
#472=DIRECTION('',(0.,0.,-1.));
#473=DIRECTION('',(1.,0.,0.));
#474=DIRECTION('',(0.,0.,1.));
#475=DIRECTION('',(1.,0.,0.));
#476=DIRECTION('',(1.11184555555029E-16,0.,-1.));
#477=DIRECTION('',(1.,0.,0.));
#478=DIRECTION('',(0.,0.,1.));
#479=DIRECTION('',(1.,0.,2.43712367798392E-16));
#480=DIRECTION('',(-1.11184555555029E-16,0.,1.));
#481=DIRECTION('',(1.,0.,1.11022302462516E-16));
#482=CARTESIAN_POINT('',(0.,0.,0.));
#483=CARTESIAN_POINT('',(0.,0.,-23.));
#484=CARTESIAN_POINT('CRP',(-5.07806596478536,0.,-90.));
#485=CARTESIAN_POINT('CIP_DCSYS',(0.,0.,-90.));
#486=CARTESIAN_POINT('',(-5.07806596478536,0.,-77.));
#487=CARTESIAN_POINT('',(-3.3853773098569,0.,-77.));
#488=CARTESIAN_POINT('',(-1.69268865492845,0.,-77.));
#489=CARTESIAN_POINT('',(0.,0.,-77.));
#490=CARTESIAN_POINT('',(0.,0.,-81.3666666666667));
#491=CARTESIAN_POINT('',(0.,0.,-85.7333333333333));
#492=CARTESIAN_POINT('',(0.,0.,-90.1));
#493=CARTESIAN_POINT('',(-1.57968815594683,0.,-90.1));
#494=CARTESIAN_POINT('',(-3.15937631189366,0.,-90.1));
#495=CARTESIAN_POINT('',(-4.73906446784049,0.,-90.1));
#496=CARTESIAN_POINT('',(-4.85206496682211,0.,-89.0666666666667));
#497=CARTESIAN_POINT('',(-4.96506546580374,0.,-88.0333333333334));
#498=CARTESIAN_POINT('',(-5.07806596478536,0.,-87.));
#499=CARTESIAN_POINT('',(-5.07806596478536,0.,-83.6666666666667));
#500=CARTESIAN_POINT('',(-5.07806596478536,0.,-80.3333333333334));
#501=CARTESIAN_POINT('',(-5.07806596478536,0.,-77.));
#502=CARTESIAN_POINT('',(0.,0.,0.));
#503=CARTESIAN_POINT('',(0.,0.,-23.));
#504=CARTESIAN_POINT('',(0.,0.,-90.));
#505=CARTESIAN_POINT('',(8.12490623359686E-15,0.,-73.9719654596223));
#506=CARTESIAN_POINT('',(-3.49999999999999,0.,-73.9719654596223));
#507=CARTESIAN_POINT('',(0.,0.,-8.94));
#508=CARTESIAN_POINT('',(-3.5,0.,-8.94));
#509=CARTESIAN_POINT('',(7.99360577730113E-15,0.,-72.7008765463768));
#510=CARTESIAN_POINT('',(8.18171992319018E-15,0.,-74.5219654596224));
#511=CARTESIAN_POINT('',(-3.64737205583711,0.,-74.5219654596224));
#512=CARTESIAN_POINT('',(0.,0.,-77.));
#513=CARTESIAN_POINT('',(-5.07806596478536,0.,-77.));
#514=CARTESIAN_POINT('',(8.15535259808798E-15,0.,-74.2667095712966));
#515=CARTESIAN_POINT('',(8.12490623359686E-15,0.,-73.9719654596223));
#516=CARTESIAN_POINT('',(0.,0.,0.));
#517=CARTESIAN_POINT('',(1.96,0.,0.));
#518=CARTESIAN_POINT('',(3.8,0.,4.74810504935964E-16));
#519=CARTESIAN_POINT('',(0.,0.,-5.25));
#520=CARTESIAN_POINT('',(1.93056986405569,2.75,-8.));
#521=CARTESIAN_POINT('',(-1.93056986405569,2.75,-8.));
#522=CARTESIAN_POINT('',(8.25,2.74999999999999,-8.));
#523=CARTESIAN_POINT('',(8.25,2.74999999999999,-8.));
#524=CARTESIAN_POINT('',(-1.93056986405569,2.75,20.9080749503476));
#525=CARTESIAN_POINT('',(-1.93056986405569,2.75,-1.4));
#526=CARTESIAN_POINT('',(1.93056986405585,2.75,-1.40000000000008));
#527=CARTESIAN_POINT('',(1.33868652327781,2.75,-1.05991900573141));
#528=CARTESIAN_POINT('',(0.679895816961972,2.75,-0.790039297382016));
#529=CARTESIAN_POINT('',(-0.679577884616607,2.75,-0.789960711807166));
#530=CARTESIAN_POINT('',(-1.33903216041076,2.75,-1.06011759996735));
#531=CARTESIAN_POINT('',(-1.93056986405571,2.75,-1.39999999999998));
#532=CARTESIAN_POINT('',(1.9305698640559,2.75,-1.40000000000001));
#533=CARTESIAN_POINT('',(1.93056986405569,2.75,20.9080749503476));
#534=CARTESIAN_POINT('',(8.25,2.74999999999999,10.));
#535=CARTESIAN_POINT('',(0.,0.,-5.25));
#536=CARTESIAN_POINT('',(-2.75,1.9305698640557,-8.));
#537=CARTESIAN_POINT('',(-2.75,-1.93056986405568,-8.));
#538=CARTESIAN_POINT('',(-2.74999999999998,8.25000000000001,-8.));
#539=CARTESIAN_POINT('',(-2.74999999999998,8.25000000000001,-8.));
#540=CARTESIAN_POINT('',(-2.75,-1.93056986405568,20.9080749503476));
#541=CARTESIAN_POINT('',(-2.75,-1.93056986405568,-1.4));
#542=CARTESIAN_POINT('',(-2.75,1.93056986405593,-1.40000000000011));
#543=CARTESIAN_POINT('',(-2.75,1.33903216041099,-1.06011759996745));
#544=CARTESIAN_POINT('',(-2.75,0.679577884616843,-0.789960711807218));
#545=CARTESIAN_POINT('',(-2.75,-0.679895816961762,-0.790039297381963));
#546=CARTESIAN_POINT('',(-2.75,-1.33868652327763,-1.05991900573133));
#547=CARTESIAN_POINT('',(-2.75,-1.93056986405569,-1.4));
#548=CARTESIAN_POINT('',(-2.75,1.930569864056,-1.40000000000002));
#549=CARTESIAN_POINT('',(-2.75,1.9305698640557,20.9080749503476));
#550=CARTESIAN_POINT('',(-2.74999999999998,8.25000000000001,10.));
#551=CARTESIAN_POINT('',(0.,0.,-5.25));
#552=CARTESIAN_POINT('',(-1.9305698640557,-2.74999999999999,-8.));
#553=CARTESIAN_POINT('',(1.93056986405568,-2.75000000000001,-8.));
#554=CARTESIAN_POINT('',(-8.25000000000001,-2.74999999999997,-8.));
#555=CARTESIAN_POINT('',(-8.25000000000001,-2.74999999999997,-8.));
#556=CARTESIAN_POINT('',(1.93056986405568,-2.75000000000001,20.9080749503476));
#557=CARTESIAN_POINT('',(1.93056986405568,-2.75000000000001,-1.4));
#558=CARTESIAN_POINT('',(-1.93056986405594,-2.74999999999999,-1.4000000000001));
#559=CARTESIAN_POINT('',(-1.339032160411,-2.75,-1.06011759996745));
#560=CARTESIAN_POINT('',(-0.679577884616845,-2.75,-0.789960711807218));
#561=CARTESIAN_POINT('',(0.679895816961758,-2.75,-0.790039297381963));
#562=CARTESIAN_POINT('',(1.33868652327763,-2.75000000000001,-1.05991900573133));
#563=CARTESIAN_POINT('',(1.93056986405568,-2.75000000000001,-1.4));
#564=CARTESIAN_POINT('',(-1.930569864056,-2.74999999999999,-1.40000000000002));
#565=CARTESIAN_POINT('',(-1.9305698640557,-2.74999999999999,20.9080749503476));
#566=CARTESIAN_POINT('',(-8.25000000000001,-2.74999999999997,10.));
#567=CARTESIAN_POINT('',(0.,0.,-1.4));
#568=CARTESIAN_POINT('',(2.75,-1.9305698640559,-1.40000000000001));
#569=CARTESIAN_POINT('',(2.75,-1.93056986405585,-1.40000000000008));
#570=CARTESIAN_POINT('',(2.75,-1.33868652327781,-1.05991900573141));
#571=CARTESIAN_POINT('',(2.75,-0.679895816961969,-0.790039297382016));
#572=CARTESIAN_POINT('',(2.75,0.67957788461661,-0.789960711807166));
#573=CARTESIAN_POINT('',(2.75,1.33903216041076,-1.06011759996735));
#574=CARTESIAN_POINT('',(2.75,1.93056986405571,-1.39999999999998));
#575=CARTESIAN_POINT('',(2.75,1.93056986405569,-1.4));
#576=CARTESIAN_POINT('',(0.,0.,-1.4));
#577=CARTESIAN_POINT('',(0.,0.,-1.4));
#578=CARTESIAN_POINT('',(0.,0.,-1.4));
#579=CARTESIAN_POINT('',(0.,0.,0.));
#580=CARTESIAN_POINT('',(0.,0.,-5.25));
#581=CARTESIAN_POINT('',(2.75,-1.93056986405569,-8.));
#582=CARTESIAN_POINT('',(2.75,1.93056986405569,-8.));
#583=CARTESIAN_POINT('',(2.75,-8.25,-8.));
#584=CARTESIAN_POINT('',(2.75,-8.25,-8.));
#585=CARTESIAN_POINT('',(2.75,1.93056986405569,20.9080749503476));
#586=CARTESIAN_POINT('',(2.75,-1.93056986405569,20.9080749503476));
#587=CARTESIAN_POINT('',(2.75,-8.25,10.));
#588=CARTESIAN_POINT('',(0.,0.,-8.8));
#589=CARTESIAN_POINT('',(3.36,0.,-8.8));
#590=CARTESIAN_POINT('',(0.,0.,20.9080749503476));
#591=CARTESIAN_POINT('',(0.,0.,-10.24));
#592=CARTESIAN_POINT('',(0.,0.,-77.));
#593=CARTESIAN_POINT('',(0.,0.,-77.));
#594=CARTESIAN_POINT('',(5.07806596478536,0.,-77.));
#595=CARTESIAN_POINT('',(0.,0.,-77.));
#596=CARTESIAN_POINT('',(0.,0.,-87.));
#597=CARTESIAN_POINT('',(5.07806596478536,0.,-87.));
#598=CARTESIAN_POINT('',(0.,0.,20.9080749503476));
#599=CARTESIAN_POINT('',(5.76204974274071E-17,0.,-90.1));
#600=CARTESIAN_POINT('',(4.73906446784049,0.,-90.1));
#601=CARTESIAN_POINT('',(0.,0.,-92.));
#602=CARTESIAN_POINT('',(10.5,0.,-90.1));
#603=MECHANICAL_DESIGN_GEOMETRIC_PRESENTATION_REPRESENTATION('',(#319,#320,
#321,#322,#323,#324,#325,#326,#327),#604);
#604=(
GEOMETRIC_REPRESENTATION_CONTEXT(3)
GLOBAL_UNCERTAINTY_ASSIGNED_CONTEXT((#605))
GLOBAL_UNIT_ASSIGNED_CONTEXT((#611,#607,#606))
REPRESENTATION_CONTEXT('TOOL','TOP_LEVEL_ASSEMBLY_PART')
);
#605=UNCERTAINTY_MEASURE_WITH_UNIT(LENGTH_MEASURE(0.0508),#611,
'DISTANCE_ACCURACY_VALUE','Maximum Tolerance applied to model');
#606=(
NAMED_UNIT(*)
SI_UNIT($,.STERADIAN.)
SOLID_ANGLE_UNIT()
);
#607=(
CONVERSION_BASED_UNIT('DEGREE',#609)
NAMED_UNIT(#608)
PLANE_ANGLE_UNIT()
);
#608=DIMENSIONAL_EXPONENTS(0.,0.,0.,0.,0.,0.,0.);
#609=PLANE_ANGLE_MEASURE_WITH_UNIT(PLANE_ANGLE_MEASURE(0.0174532925),#610);
#610=(
NAMED_UNIT(*)
PLANE_ANGLE_UNIT()
SI_UNIT($,.RADIAN.)
);
#611=(
LENGTH_UNIT()
NAMED_UNIT(*)
SI_UNIT(.MILLI.,.METRE.)
);
ENDSEC;
END-ISO-10303-21;
