ISO-10303-21;
HEADER;
/* Generated by software containing ST-Developer
 * from STEP Tools, Inc. (www.steptools.com) 
 */
/* OPTION: using custom schema-name function */

FILE_DESCRIPTION(
/* description */ (''),
/* implementation_level */ '2;1');

FILE_NAME(
/* name */ 'AAA373917_A.STP',
/* time_stamp */ '2022-11-28T12:07:49+01:00',
/* author */ (''),
/* organization */ ('SMS'),
/* preprocessor_version */ 'ST-DEVELOPER v16.7',
/* originating_system */ 'SIEMENS PLM Software NX 12.0',
/* authorisation */ '');

FILE_SCHEMA (('AUTOMOTIVE_DESIGN { 1 0 10303 214 3 1 1 1 }'));
ENDSEC;

DATA;
#10=CONSTRUCTIVE_GEOMETRY_REPRESENTATION_RELATIONSHIP(
'supplemental geometry','',#26,#11);
#11=CONSTRUCTIVE_GEOMETRY_REPRESENTATION('supplemental geometry',(#87,#88),
#158);
#12=GEOMETRICALLY_BOUNDED_WIREFRAME_SHAPE_REPRESENTATION(
'AAA373917_A-None',(#27),#158);
#13=SHAPE_REPRESENTATION_RELATIONSHIP('None',
'relationship between AAA373917_A-None and AAA373917_A-None',#26,#15);
#14=SHAPE_REPRESENTATION_RELATIONSHIP('None',
'relationship between AAA373917_A-None and AAA373917_A-None',#26,#12);
#15=ADVANCED_BREP_SHAPE_REPRESENTATION('AAA373917_A-None',(#33),#158);
#16=SHAPE_DEFINITION_REPRESENTATION(#17,#26);
#17=PRODUCT_DEFINITION_SHAPE('','',#18);
#18=PRODUCT_DEFINITION(' ','',#20,#19);
#19=PRODUCT_DEFINITION_CONTEXT('part definition',#25,'design');
#20=PRODUCT_DEFINITION_FORMATION_WITH_SPECIFIED_SOURCE(' ',' ',#22,
 .NOT_KNOWN.);
#21=PRODUCT_RELATED_PRODUCT_CATEGORY('part','',(#22));
#22=PRODUCT('AAA373917_A','AAA373917_A','',(#23));
#23=PRODUCT_CONTEXT(' ',#25,'mechanical');
#24=APPLICATION_PROTOCOL_DEFINITION('international standard',
'automotive_design',2010,#25);
#25=APPLICATION_CONTEXT(
'core data for automotive mechanical design processes');
#26=SHAPE_REPRESENTATION('AAA373917_A-None',(#86),#158);
#27=GEOMETRIC_CURVE_SET('None',(#111,#112,#66));
#28=SURFACE_STYLE_USAGE(.BOTH.,#29);
#29=SURFACE_SIDE_STYLE('',(#30));
#30=SURFACE_STYLE_FILL_AREA(#31);
#31=FILL_AREA_STYLE('',(#32));
#32=FILL_AREA_STYLE_COLOUR('',#85);
#33=MANIFOLD_SOLID_BREP('CUT',#34);
#34=CLOSED_SHELL('',(#39,#40,#41));
#35=PLANE('',#92);
#36=PLANE('',#93);
#37=FACE_OUTER_BOUND('',#47,.T.);
#38=FACE_OUTER_BOUND('',#48,.T.);
#39=ADVANCED_FACE('',(#43,#44),#42,.T.);
#40=ADVANCED_FACE('',(#37),#35,.T.);
#41=ADVANCED_FACE('',(#38),#36,.T.);
#42=CYLINDRICAL_SURFACE('',#91,6.);
#43=FACE_BOUND('',#45,.T.);
#44=FACE_BOUND('',#46,.T.);
#45=EDGE_LOOP('',(#49));
#46=EDGE_LOOP('',(#50));
#47=EDGE_LOOP('',(#51));
#48=EDGE_LOOP('',(#52));
#49=ORIENTED_EDGE('',*,*,#55,.F.);
#50=ORIENTED_EDGE('',*,*,#56,.F.);
#51=ORIENTED_EDGE('',*,*,#55,.T.);
#52=ORIENTED_EDGE('',*,*,#56,.T.);
#53=VERTEX_POINT('',#151);
#54=VERTEX_POINT('',#153);
#55=EDGE_CURVE('',#53,#53,#57,.T.);
#56=EDGE_CURVE('',#54,#54,#58,.T.);
#57=CIRCLE('',#89,6.);
#58=CIRCLE('',#90,6.);
#59=CURVE_STYLE('',#63,POSITIVE_LENGTH_MEASURE(0.7),#62);
#60=CURVE_STYLE('',#64,POSITIVE_LENGTH_MEASURE(0.18),#84);
#61=CURVE_STYLE('',#65,POSITIVE_LENGTH_MEASURE(0.18),#84);
#62=DRAUGHTING_PRE_DEFINED_COLOUR('blue');
#63=DRAUGHTING_PRE_DEFINED_CURVE_FONT('continuous');
#64=DRAUGHTING_PRE_DEFINED_CURVE_FONT('continuous');
#65=DRAUGHTING_PRE_DEFINED_CURVE_FONT('continuous');
#66=B_SPLINE_CURVE_WITH_KNOTS('CUTTING EDGE LINE',3,(#113,#114,#115,#116,
#117,#118,#119,#120,#121,#122,#123,#124,#125,#126,#127,#128,#129,#130,#131,
#132,#133,#134,#135,#136,#137,#138,#139,#140,#141,#142,#143,#144,#145,#146,
#147),.UNSPECIFIED.,.T.,.F.,(1,1,2,1,1,1,1,1,1,1,1,1,1,1,1,1,1,1,1,1,1,
1,1,1,1,1,1,1,1,1,1,1,1,1,2,1,1),(-0.0625,-0.03125,0.,0.03125,0.0625,0.09375,
0.125,0.15625,0.1875,0.21875,0.25,0.28125,0.3125,0.34375,0.375,0.40625,
0.4375,0.46875,0.5,0.53125,0.5625,0.59375,0.625,0.65625,0.6875,0.71875,
0.75,0.78125,0.8125,0.84375,0.875,0.90625,0.9375,0.96875,1.,1.03125,1.0625),
 .UNSPECIFIED.);
#67=PRESENTATION_LAYER_ASSIGNMENT('1','Layer 1',(#111,#112,#66,#87,#88,
#33));
#68=STYLED_ITEM('',(#74),#111);
#69=STYLED_ITEM('',(#75),#112);
#70=STYLED_ITEM('',(#76),#66);
#71=STYLED_ITEM('',(#77),#87);
#72=STYLED_ITEM('',(#78),#88);
#73=STYLED_ITEM('',(#79),#33);
#74=PRESENTATION_STYLE_ASSIGNMENT((#80));
#75=PRESENTATION_STYLE_ASSIGNMENT((#81));
#76=PRESENTATION_STYLE_ASSIGNMENT((#59));
#77=PRESENTATION_STYLE_ASSIGNMENT((#60));
#78=PRESENTATION_STYLE_ASSIGNMENT((#61));
#79=PRESENTATION_STYLE_ASSIGNMENT((#28));
#80=POINT_STYLE('',#82,POSITIVE_LENGTH_MEASURE(3.),#84);
#81=POINT_STYLE('',#83,POSITIVE_LENGTH_MEASURE(3.),#84);
#82=PRE_DEFINED_POINT_MARKER_SYMBOL('plus');
#83=PRE_DEFINED_POINT_MARKER_SYMBOL('plus');
#84=COLOUR_RGB('Strong Stone',0.576470588235294,0.54508278019379,0.392156862745098);
#85=COLOUR_RGB('Light Gray',0.8,0.8,0.8);
#86=AXIS2_PLACEMENT_3D('',#110,#94,#95);
#87=AXIS2_PLACEMENT_3D('PCS',#148,#96,#97);
#88=AXIS2_PLACEMENT_3D('MCS',#149,#98,#99);
#89=AXIS2_PLACEMENT_3D('',#150,#100,#101);
#90=AXIS2_PLACEMENT_3D('',#152,#102,#103);
#91=AXIS2_PLACEMENT_3D('',#154,#104,#105);
#92=AXIS2_PLACEMENT_3D('',#155,#106,#107);
#93=AXIS2_PLACEMENT_3D('',#156,#108,#109);
#94=DIRECTION('',(0.,0.,1.));
#95=DIRECTION('',(1.,0.,0.));
#96=DIRECTION('',(0.,0.,1.));
#97=DIRECTION('',(1.,0.,0.));
#98=DIRECTION('',(0.,0.,1.));
#99=DIRECTION('',(1.,0.,0.));
#100=DIRECTION('',(0.,0.,1.));
#101=DIRECTION('',(1.,0.,0.));
#102=DIRECTION('',(0.,0.,-1.));
#103=DIRECTION('',(1.,0.,0.));
#104=DIRECTION('',(0.,0.,1.));
#105=DIRECTION('',(1.,0.,0.));
#106=DIRECTION('',(0.,0.,1.));
#107=DIRECTION('',(1.,0.,0.));
#108=DIRECTION('',(0.,0.,-1.));
#109=DIRECTION('',(1.,0.,0.));
#110=CARTESIAN_POINT('',(0.,0.,0.));
#111=CARTESIAN_POINT('',(-6.,-6.,0.));
#112=CARTESIAN_POINT('',(0.,0.,0.));
#113=CARTESIAN_POINT('',(6.,0.392698254195259,-1.6940658945086E-17));
#114=CARTESIAN_POINT('',(6.,-0.392698254195258,-1.6940658945086E-17));
#115=CARTESIAN_POINT('',(5.92264489863854,-1.17808728144229,-1.6940658945086E-17));
#116=CARTESIAN_POINT('',(5.57901067512562,-2.3109018669089,-1.6940658945086E-17));
#117=CARTESIAN_POINT('',(5.02097564756266,-3.35490863186722,-1.6940658945086E-17));
#118=CARTESIAN_POINT('',(4.26998997911147,-4.26998993857232,-1.6940658945086E-17));
#119=CARTESIAN_POINT('',(3.35490867954251,-5.02097561572391,-1.6940658945086E-17));
#120=CARTESIAN_POINT('',(2.31090193545892,-5.57901073147252,-1.6940658945086E-17));
#121=CARTESIAN_POINT('',(1.1780872753424,-5.92264457429124,-1.6940658945086E-17));
#122=CARTESIAN_POINT('',(1.91127084159248E-8,-6.03867771099878,-1.6940658945086E-17));
#123=CARTESIAN_POINT('',(-1.17808723784764,-5.92264458171365,-1.6940658945086E-17));
#124=CARTESIAN_POINT('',(-2.31090190015276,-5.57901074611606,-1.6940658945086E-17));
#125=CARTESIAN_POINT('',(-3.35490864774477,-5.02097563692638,-1.6940658945086E-17));
#126=CARTESIAN_POINT('',(-4.26998995208999,-4.26998996559939,-1.6940658945086E-17));
#127=CARTESIAN_POINT('',(-5.0209756263478,-3.35490866365496,-1.6940658945086E-17));
#128=CARTESIAN_POINT('',(-5.57901073877619,-2.3109019178007,-1.6940658945086E-17));
#129=CARTESIAN_POINT('',(-5.92264457805102,-1.17808725660708,-1.6940658945086E-17));
#130=CARTESIAN_POINT('',(-6.03867771099295,-1.43596246005018E-12,-1.6940658945086E-17));
#131=CARTESIAN_POINT('',(-5.92264457797719,1.17808725658845,-1.6940658945086E-17));
#132=CARTESIAN_POINT('',(-5.57901073881557,2.31090191781458,-1.6940658945086E-17));
#133=CARTESIAN_POINT('',(-5.02097562626703,3.35490866361096,-1.6940658945086E-17));
#134=CARTESIAN_POINT('',(-4.26998995208566,4.26998996561704,-1.6940658945086E-17));
#135=CARTESIAN_POINT('',(-3.35490864776462,5.02097563697802,-1.6940658945086E-17));
#136=CARTESIAN_POINT('',(-2.31090190012497,5.57901074608178,-1.6940658945086E-17));
#137=CARTESIAN_POINT('',(-1.1780872378701,5.92264458182764,-1.6940658945086E-17));
#138=CARTESIAN_POINT('',(1.91118036951821E-8,6.03867771098481,-1.6940658945086E-17));
#139=CARTESIAN_POINT('',(1.1780872753288,5.92264457423311,-1.6940658945086E-17));
#140=CARTESIAN_POINT('',(2.31090193547805,5.57901073151726,-1.6940658945086E-17));
#141=CARTESIAN_POINT('',(3.35490867947576,5.02097561560464,-1.6940658945086E-17));
#142=CARTESIAN_POINT('',(4.2699899791426,4.26998993856826,-1.6940658945086E-17));
#143=CARTESIAN_POINT('',(5.02097564762219,3.35490863188538,-1.6940658945086E-17));
#144=CARTESIAN_POINT('',(5.57901067509991,2.3109018668729,-1.6940658945086E-17));
#145=CARTESIAN_POINT('',(5.9226448987284,1.1780872814558,-1.6940658945086E-17));
#146=CARTESIAN_POINT('',(6.,0.392698254195259,-1.6940658945086E-17));
#147=CARTESIAN_POINT('',(6.,-0.392698254195258,-1.6940658945086E-17));
#148=CARTESIAN_POINT('',(-6.,-6.,0.));
#149=CARTESIAN_POINT('',(0.,0.,0.));
#150=CARTESIAN_POINT('',(0.,0.,-1.6940658945086E-17));
#151=CARTESIAN_POINT('',(6.,0.,-1.6940658945086E-17));
#152=CARTESIAN_POINT('',(0.,0.,-6.));
#153=CARTESIAN_POINT('',(6.,0.,-6.));
#154=CARTESIAN_POINT('',(0.,0.,0.));
#155=CARTESIAN_POINT('',(0.,0.,-1.6940658945086E-17));
#156=CARTESIAN_POINT('',(0.,0.,-6.));
#157=MECHANICAL_DESIGN_GEOMETRIC_PRESENTATION_REPRESENTATION('',(#68,#69,
#70,#71,#72,#73),#158);
#158=(
GEOMETRIC_REPRESENTATION_CONTEXT(3)
GLOBAL_UNCERTAINTY_ASSIGNED_CONTEXT((#159))
GLOBAL_UNIT_ASSIGNED_CONTEXT((#165,#161,#160))
REPRESENTATION_CONTEXT('AAA373917_A','TOP_LEVEL_ASSEMBLY_PART')
);
#159=UNCERTAINTY_MEASURE_WITH_UNIT(LENGTH_MEASURE(2.E-5),#165,
'DISTANCE_ACCURACY_VALUE','Maximum Tolerance applied to model');
#160=(
NAMED_UNIT(*)
SI_UNIT($,.STERADIAN.)
SOLID_ANGLE_UNIT()
);
#161=(
CONVERSION_BASED_UNIT('DEGREE',#163)
NAMED_UNIT(#162)
PLANE_ANGLE_UNIT()
);
#162=DIMENSIONAL_EXPONENTS(0.,0.,0.,0.,0.,0.,0.);
#163=PLANE_ANGLE_MEASURE_WITH_UNIT(PLANE_ANGLE_MEASURE(0.0174532925),#164);
#164=(
NAMED_UNIT(*)
PLANE_ANGLE_UNIT()
SI_UNIT($,.RADIAN.)
);
#165=(
LENGTH_UNIT()
NAMED_UNIT(*)
SI_UNIT(.MILLI.,.METRE.)
);
ENDSEC;
END-ISO-10303-21;
