ISO-10303-21;
HEADER;
/* Generated by software containing ST-Developer
 * from STEP Tools, Inc. (www.steptools.com) 
 */
/* OPTION: using custom schema-name function */

FILE_DESCRIPTION(
/* description */ (''),
/* implementation_level */ '2;1');

FILE_NAME(
/* name */ 'TOOL.STP',
/* time_stamp */ '2023-02-10T09:52:06+01:00',
/* author */ (''),
/* organization */ ('SMS'),
/* preprocessor_version */ 'ST-DEVELOPER v16.7',
/* originating_system */ 'SIEMENS PLM Software NX 12.0',
/* authorisation */ '');

FILE_SCHEMA (('AUTOMOTIVE_DESIGN { 1 0 10303 214 3 1 1 1 }'));
ENDSEC;

DATA;
#10=CONSTRUCTIVE_GEOMETRY_REPRESENTATION_RELATIONSHIP(
'supplemental geometry','',#26,#11);
#11=CONSTRUCTIVE_GEOMETRY_REPRESENTATION('supplemental geometry',(#370,
#371,#372),#642);
#12=GEOMETRICALLY_BOUNDED_WIREFRAME_SHAPE_REPRESENTATION('Tool-None',(#27),
#642);
#13=SHAPE_REPRESENTATION_RELATIONSHIP('None',
'relationship between Tool-None and Tool-None',#26,#15);
#14=SHAPE_REPRESENTATION_RELATIONSHIP('None',
'relationship between Tool-None and Tool-None',#26,#12);
#15=ADVANCED_BREP_SHAPE_REPRESENTATION('Tool-None',(#38,#39),#642);
#16=SHAPE_DEFINITION_REPRESENTATION(#17,#26);
#17=PRODUCT_DEFINITION_SHAPE('','',#18);
#18=PRODUCT_DEFINITION(' ','',#20,#19);
#19=PRODUCT_DEFINITION_CONTEXT('part definition',#25,'design');
#20=PRODUCT_DEFINITION_FORMATION_WITH_SPECIFIED_SOURCE(' ',' ',#22,
 .NOT_KNOWN.);
#21=PRODUCT_RELATED_PRODUCT_CATEGORY('part','',(#22));
#22=PRODUCT('Tool','Tool',' ',(#23));
#23=PRODUCT_CONTEXT(' ',#25,'mechanical');
#24=APPLICATION_PROTOCOL_DEFINITION('international standard',
'automotive_design',2010,#25);
#25=APPLICATION_CONTEXT(
'core data for automotive mechanical design processes');
#26=SHAPE_REPRESENTATION('Tool-None',(#369),#642);
#27=GEOMETRIC_CURVE_SET('None',(#517,#518,#519,#333));
#28=SURFACE_STYLE_USAGE(.BOTH.,#30);
#29=SURFACE_STYLE_USAGE(.BOTH.,#31);
#30=SURFACE_SIDE_STYLE('',(#32));
#31=SURFACE_SIDE_STYLE('',(#33));
#32=SURFACE_STYLE_FILL_AREA(#34);
#33=SURFACE_STYLE_FILL_AREA(#35);
#34=FILL_AREA_STYLE('',(#36));
#35=FILL_AREA_STYLE('',(#37));
#36=FILL_AREA_STYLE_COLOUR('',#367);
#37=FILL_AREA_STYLE_COLOUR('',#368);
#38=MANIFOLD_SOLID_BREP('NOCUT',#40);
#39=MANIFOLD_SOLID_BREP('CUT',#41);
#40=CLOSED_SHELL('',(#98,#99,#100,#101,#102,#103,#104,#105,#106,#107,#108,
#109,#110,#111,#112,#113));
#41=CLOSED_SHELL('',(#114,#115,#116,#117,#118,#119));
#42=PLANE('',#392);
#43=PLANE('',#394);
#44=PLANE('',#395);
#45=PLANE('',#396);
#46=PLANE('',#397);
#47=PLANE('',#398);
#48=PLANE('',#399);
#49=PLANE('',#400);
#50=PLANE('',#401);
#51=PLANE('',#402);
#52=PLANE('',#404);
#53=PLANE('',#410);
#54=FACE_OUTER_BOUND('',#156,.T.);
#55=FACE_OUTER_BOUND('',#159,.T.);
#56=FACE_OUTER_BOUND('',#160,.T.);
#57=FACE_OUTER_BOUND('',#161,.T.);
#58=FACE_OUTER_BOUND('',#162,.T.);
#59=FACE_OUTER_BOUND('',#163,.T.);
#60=FACE_OUTER_BOUND('',#164,.T.);
#61=FACE_OUTER_BOUND('',#165,.T.);
#62=FACE_OUTER_BOUND('',#166,.T.);
#63=FACE_OUTER_BOUND('',#167,.T.);
#64=FACE_OUTER_BOUND('',#168,.T.);
#65=FACE_OUTER_BOUND('',#173,.T.);
#66=TOROIDAL_SURFACE('',#391,1.45,0.2);
#67=CYLINDRICAL_SURFACE('',#384,1.2);
#68=CYLINDRICAL_SURFACE('',#387,1.25);
#69=CYLINDRICAL_SURFACE('',#408,1.54172881768146);
#70=ELLIPSE('',#380,1.69705627484771,1.2);
#71=ELLIPSE('',#381,1.69705627484771,1.2);
#72=ELLIPSE('',#382,1.69705627484771,1.2);
#73=ELLIPSE('',#383,1.69705627484771,1.2);
#74=LINE('',#578,#86);
#75=LINE('',#582,#87);
#76=LINE('',#583,#88);
#77=LINE('',#587,#89);
#78=LINE('',#588,#90);
#79=LINE('',#592,#91);
#80=LINE('',#593,#92);
#81=LINE('',#597,#93);
#82=LINE('',#612,#94);
#83=LINE('',#615,#95);
#84=LINE('',#618,#96);
#85=LINE('',#621,#97);
#86=VECTOR('',#436,1.);
#87=VECTOR('',#439,1.);
#88=VECTOR('',#440,1.);
#89=VECTOR('',#443,1.);
#90=VECTOR('',#444,1.);
#91=VECTOR('',#447,1.);
#92=VECTOR('',#448,1.);
#93=VECTOR('',#451,1.);
#94=VECTOR('',#472,1.);
#95=VECTOR('',#477,1.);
#96=VECTOR('',#482,1.);
#97=VECTOR('',#487,1.);
#98=ADVANCED_FACE('',(#126,#127),#120,.T.);
#99=ADVANCED_FACE('',(#128,#129),#67,.T.);
#100=ADVANCED_FACE('',(#130,#131),#68,.T.);
#101=ADVANCED_FACE('',(#132,#133),#121,.T.);
#102=ADVANCED_FACE('',(#134,#135),#66,.F.);
#103=ADVANCED_FACE('',(#54),#42,.F.);
#104=ADVANCED_FACE('',(#136,#137),#122,.T.);
#105=ADVANCED_FACE('',(#55),#43,.T.);
#106=ADVANCED_FACE('',(#56),#44,.T.);
#107=ADVANCED_FACE('',(#57),#45,.T.);
#108=ADVANCED_FACE('',(#58),#46,.T.);
#109=ADVANCED_FACE('',(#59),#47,.T.);
#110=ADVANCED_FACE('',(#60),#48,.T.);
#111=ADVANCED_FACE('',(#61),#49,.T.);
#112=ADVANCED_FACE('',(#62),#50,.T.);
#113=ADVANCED_FACE('',(#63),#51,.T.);
#114=ADVANCED_FACE('',(#64),#52,.T.);
#115=ADVANCED_FACE('',(#138,#139),#123,.T.);
#116=ADVANCED_FACE('',(#140,#141),#69,.T.);
#117=ADVANCED_FACE('',(#65),#53,.F.);
#118=ADVANCED_FACE('',(#142,#143),#124,.T.);
#119=ADVANCED_FACE('',(#144,#145),#125,.T.);
#120=CONICAL_SURFACE('',#378,0.5,45.);
#121=CONICAL_SURFACE('',#390,1.25,30.0000000000002);
#122=CONICAL_SURFACE('',#393,2.45,45.);
#123=CONICAL_SURFACE('',#406,1.3375,8.00000000000002);
#124=CONICAL_SURFACE('',#412,1.62172881768144,44.9999999999999);
#125=CONICAL_SURFACE('',#413,0.689979080142429,16.0404968595056);
#126=FACE_BOUND('',#146,.T.);
#127=FACE_BOUND('',#147,.T.);
#128=FACE_BOUND('',#148,.T.);
#129=FACE_BOUND('',#149,.T.);
#130=FACE_BOUND('',#150,.T.);
#131=FACE_BOUND('',#151,.T.);
#132=FACE_BOUND('',#152,.T.);
#133=FACE_BOUND('',#153,.T.);
#134=FACE_BOUND('',#154,.T.);
#135=FACE_BOUND('',#155,.T.);
#136=FACE_BOUND('',#157,.T.);
#137=FACE_BOUND('',#158,.T.);
#138=FACE_BOUND('',#169,.T.);
#139=FACE_BOUND('',#170,.T.);
#140=FACE_BOUND('',#171,.T.);
#141=FACE_BOUND('',#172,.T.);
#142=FACE_BOUND('',#174,.T.);
#143=FACE_BOUND('',#175,.T.);
#144=FACE_BOUND('',#176,.T.);
#145=FACE_BOUND('',#177,.T.);
#146=EDGE_LOOP('',(#178));
#147=EDGE_LOOP('',(#179,#180,#181,#182,#183,#184,#185,#186));
#148=EDGE_LOOP('',(#187));
#149=EDGE_LOOP('',(#188,#189,#190,#191,#192,#193,#194,#195,#196,#197,#198,
#199,#200,#201,#202,#203));
#150=EDGE_LOOP('',(#204));
#151=EDGE_LOOP('',(#205));
#152=EDGE_LOOP('',(#206));
#153=EDGE_LOOP('',(#207));
#154=EDGE_LOOP('',(#208));
#155=EDGE_LOOP('',(#209));
#156=EDGE_LOOP('',(#210));
#157=EDGE_LOOP('',(#211));
#158=EDGE_LOOP('',(#212));
#159=EDGE_LOOP('',(#213,#214));
#160=EDGE_LOOP('',(#215,#216,#217,#218));
#161=EDGE_LOOP('',(#219,#220));
#162=EDGE_LOOP('',(#221,#222,#223,#224));
#163=EDGE_LOOP('',(#225,#226));
#164=EDGE_LOOP('',(#227,#228,#229,#230));
#165=EDGE_LOOP('',(#231,#232,#233,#234));
#166=EDGE_LOOP('',(#235,#236));
#167=EDGE_LOOP('',(#237));
#168=EDGE_LOOP('',(#238));
#169=EDGE_LOOP('',(#239));
#170=EDGE_LOOP('',(#240));
#171=EDGE_LOOP('',(#241));
#172=EDGE_LOOP('',(#242));
#173=EDGE_LOOP('',(#243));
#174=EDGE_LOOP('',(#244));
#175=EDGE_LOOP('',(#245));
#176=EDGE_LOOP('',(#246));
#177=EDGE_LOOP('',(#247));
#178=ORIENTED_EDGE('',*,*,#275,.F.);
#179=ORIENTED_EDGE('',*,*,#276,.T.);
#180=ORIENTED_EDGE('',*,*,#277,.T.);
#181=ORIENTED_EDGE('',*,*,#278,.T.);
#182=ORIENTED_EDGE('',*,*,#279,.T.);
#183=ORIENTED_EDGE('',*,*,#280,.T.);
#184=ORIENTED_EDGE('',*,*,#281,.T.);
#185=ORIENTED_EDGE('',*,*,#282,.T.);
#186=ORIENTED_EDGE('',*,*,#283,.T.);
#187=ORIENTED_EDGE('',*,*,#284,.F.);
#188=ORIENTED_EDGE('',*,*,#285,.F.);
#189=ORIENTED_EDGE('',*,*,#286,.F.);
#190=ORIENTED_EDGE('',*,*,#287,.F.);
#191=ORIENTED_EDGE('',*,*,#276,.F.);
#192=ORIENTED_EDGE('',*,*,#288,.F.);
#193=ORIENTED_EDGE('',*,*,#289,.F.);
#194=ORIENTED_EDGE('',*,*,#290,.F.);
#195=ORIENTED_EDGE('',*,*,#282,.F.);
#196=ORIENTED_EDGE('',*,*,#291,.F.);
#197=ORIENTED_EDGE('',*,*,#292,.F.);
#198=ORIENTED_EDGE('',*,*,#293,.F.);
#199=ORIENTED_EDGE('',*,*,#280,.F.);
#200=ORIENTED_EDGE('',*,*,#294,.F.);
#201=ORIENTED_EDGE('',*,*,#295,.F.);
#202=ORIENTED_EDGE('',*,*,#296,.F.);
#203=ORIENTED_EDGE('',*,*,#278,.F.);
#204=ORIENTED_EDGE('',*,*,#297,.T.);
#205=ORIENTED_EDGE('',*,*,#298,.T.);
#206=ORIENTED_EDGE('',*,*,#299,.T.);
#207=ORIENTED_EDGE('',*,*,#300,.F.);
#208=ORIENTED_EDGE('',*,*,#297,.F.);
#209=ORIENTED_EDGE('',*,*,#299,.F.);
#210=ORIENTED_EDGE('',*,*,#275,.T.);
#211=ORIENTED_EDGE('',*,*,#284,.T.);
#212=ORIENTED_EDGE('',*,*,#298,.F.);
#213=ORIENTED_EDGE('',*,*,#292,.T.);
#214=ORIENTED_EDGE('',*,*,#301,.T.);
#215=ORIENTED_EDGE('',*,*,#291,.T.);
#216=ORIENTED_EDGE('',*,*,#281,.F.);
#217=ORIENTED_EDGE('',*,*,#293,.T.);
#218=ORIENTED_EDGE('',*,*,#301,.F.);
#219=ORIENTED_EDGE('',*,*,#289,.T.);
#220=ORIENTED_EDGE('',*,*,#302,.T.);
#221=ORIENTED_EDGE('',*,*,#288,.T.);
#222=ORIENTED_EDGE('',*,*,#283,.F.);
#223=ORIENTED_EDGE('',*,*,#290,.T.);
#224=ORIENTED_EDGE('',*,*,#302,.F.);
#225=ORIENTED_EDGE('',*,*,#295,.T.);
#226=ORIENTED_EDGE('',*,*,#303,.T.);
#227=ORIENTED_EDGE('',*,*,#294,.T.);
#228=ORIENTED_EDGE('',*,*,#279,.F.);
#229=ORIENTED_EDGE('',*,*,#296,.T.);
#230=ORIENTED_EDGE('',*,*,#303,.F.);
#231=ORIENTED_EDGE('',*,*,#285,.T.);
#232=ORIENTED_EDGE('',*,*,#277,.F.);
#233=ORIENTED_EDGE('',*,*,#287,.T.);
#234=ORIENTED_EDGE('',*,*,#304,.F.);
#235=ORIENTED_EDGE('',*,*,#286,.T.);
#236=ORIENTED_EDGE('',*,*,#304,.T.);
#237=ORIENTED_EDGE('',*,*,#300,.T.);
#238=ORIENTED_EDGE('',*,*,#305,.T.);
#239=ORIENTED_EDGE('',*,*,#305,.F.);
#240=ORIENTED_EDGE('',*,*,#306,.T.);
#241=ORIENTED_EDGE('',*,*,#306,.F.);
#242=ORIENTED_EDGE('',*,*,#307,.T.);
#243=ORIENTED_EDGE('',*,*,#308,.T.);
#244=ORIENTED_EDGE('',*,*,#308,.F.);
#245=ORIENTED_EDGE('',*,*,#309,.F.);
#246=ORIENTED_EDGE('',*,*,#309,.T.);
#247=ORIENTED_EDGE('',*,*,#307,.F.);
#248=VERTEX_POINT('',#546);
#249=VERTEX_POINT('',#548);
#250=VERTEX_POINT('',#549);
#251=VERTEX_POINT('',#554);
#252=VERTEX_POINT('',#556);
#253=VERTEX_POINT('',#561);
#254=VERTEX_POINT('',#563);
#255=VERTEX_POINT('',#568);
#256=VERTEX_POINT('',#570);
#257=VERTEX_POINT('',#577);
#258=VERTEX_POINT('',#579);
#259=VERTEX_POINT('',#581);
#260=VERTEX_POINT('',#584);
#261=VERTEX_POINT('',#586);
#262=VERTEX_POINT('',#589);
#263=VERTEX_POINT('',#591);
#264=VERTEX_POINT('',#594);
#265=VERTEX_POINT('',#596);
#266=VERTEX_POINT('',#600);
#267=VERTEX_POINT('',#602);
#268=VERTEX_POINT('',#605);
#269=VERTEX_POINT('',#607);
#270=VERTEX_POINT('',#626);
#271=VERTEX_POINT('',#629);
#272=VERTEX_POINT('',#632);
#273=VERTEX_POINT('',#635);
#274=VERTEX_POINT('',#638);
#275=EDGE_CURVE('',#248,#248,#310,.T.);
#276=EDGE_CURVE('',#249,#250,#311,.T.);
#277=EDGE_CURVE('',#250,#251,#334,.T.);
#278=EDGE_CURVE('',#251,#252,#312,.T.);
#279=EDGE_CURVE('',#252,#253,#335,.T.);
#280=EDGE_CURVE('',#253,#254,#313,.T.);
#281=EDGE_CURVE('',#254,#255,#336,.T.);
#282=EDGE_CURVE('',#255,#256,#314,.T.);
#283=EDGE_CURVE('',#256,#249,#337,.T.);
#284=EDGE_CURVE('',#257,#257,#315,.T.);
#285=EDGE_CURVE('',#258,#251,#74,.T.);
#286=EDGE_CURVE('',#259,#258,#70,.T.);
#287=EDGE_CURVE('',#250,#259,#75,.T.);
#288=EDGE_CURVE('',#260,#249,#76,.T.);
#289=EDGE_CURVE('',#261,#260,#71,.T.);
#290=EDGE_CURVE('',#256,#261,#77,.T.);
#291=EDGE_CURVE('',#262,#255,#78,.T.);
#292=EDGE_CURVE('',#263,#262,#72,.T.);
#293=EDGE_CURVE('',#254,#263,#79,.T.);
#294=EDGE_CURVE('',#264,#253,#80,.T.);
#295=EDGE_CURVE('',#265,#264,#73,.T.);
#296=EDGE_CURVE('',#252,#265,#81,.T.);
#297=EDGE_CURVE('',#266,#266,#316,.T.);
#298=EDGE_CURVE('',#267,#267,#317,.T.);
#299=EDGE_CURVE('',#268,#268,#318,.T.);
#300=EDGE_CURVE('',#269,#269,#319,.T.);
#301=EDGE_CURVE('',#262,#263,#82,.T.);
#302=EDGE_CURVE('',#260,#261,#83,.T.);
#303=EDGE_CURVE('',#264,#265,#84,.T.);
#304=EDGE_CURVE('',#258,#259,#85,.T.);
#305=EDGE_CURVE('',#270,#270,#320,.T.);
#306=EDGE_CURVE('',#271,#271,#321,.T.);
#307=EDGE_CURVE('',#272,#272,#322,.T.);
#308=EDGE_CURVE('',#273,#273,#323,.T.);
#309=EDGE_CURVE('',#274,#274,#324,.T.);
#310=CIRCLE('',#373,0.5);
#311=CIRCLE('',#374,1.2);
#312=CIRCLE('',#375,1.2);
#313=CIRCLE('',#376,1.2);
#314=CIRCLE('',#377,1.2);
#315=CIRCLE('',#379,1.2);
#316=CIRCLE('',#385,1.25);
#317=CIRCLE('',#386,1.25);
#318=CIRCLE('',#388,1.27679491924311);
#319=CIRCLE('',#389,1.3375);
#320=CIRCLE('',#403,1.3375);
#321=CIRCLE('',#405,1.54172881768146);
#322=CIRCLE('',#407,1.54172881768146);
#323=CIRCLE('',#409,0.944999999999985);
#324=CIRCLE('',#411,1.35377646284887);
#325=CURVE_STYLE('',#329,POSITIVE_LENGTH_MEASURE(0.18),#339);
#326=CURVE_STYLE('',#330,POSITIVE_LENGTH_MEASURE(0.13),#366);
#327=CURVE_STYLE('',#331,POSITIVE_LENGTH_MEASURE(0.18),#365);
#328=CURVE_STYLE('',#332,POSITIVE_LENGTH_MEASURE(0.18),#365);
#329=DRAUGHTING_PRE_DEFINED_CURVE_FONT('continuous');
#330=DRAUGHTING_PRE_DEFINED_CURVE_FONT('continuous');
#331=DRAUGHTING_PRE_DEFINED_CURVE_FONT('continuous');
#332=DRAUGHTING_PRE_DEFINED_CURVE_FONT('continuous');
#333=B_SPLINE_CURVE_WITH_KNOTS('CUTTING PART LINE',3,(#520,#521,#522,#523,
#524,#525,#526,#527,#528,#529,#530,#531,#532,#533,#534,#535,#536,#537,#538,
#539,#540,#541),.UNSPECIFIED.,.T.,.F.,(4,3,3,3,3,3,3,4),(0.,0.0785041047896411,
0.150056542970692,0.583383458310138,0.63393826509439,0.664864818688496,
0.701253914825172,1.),.UNSPECIFIED.);
#334=B_SPLINE_CURVE_WITH_KNOTS('',3,(#550,#551,#552,#553),.UNSPECIFIED.,
 .F.,.F.,(4,4),(0.,1.),.UNSPECIFIED.);
#335=B_SPLINE_CURVE_WITH_KNOTS('',3,(#557,#558,#559,#560),.UNSPECIFIED.,
 .F.,.F.,(4,4),(0.,1.),.UNSPECIFIED.);
#336=B_SPLINE_CURVE_WITH_KNOTS('',3,(#564,#565,#566,#567),.UNSPECIFIED.,
 .F.,.F.,(4,4),(0.,1.),.UNSPECIFIED.);
#337=B_SPLINE_CURVE_WITH_KNOTS('',3,(#571,#572,#573,#574),.UNSPECIFIED.,
 .F.,.F.,(4,4),(0.,1.),.UNSPECIFIED.);
#338=DRAUGHTING_PRE_DEFINED_COLOUR('white');
#339=DRAUGHTING_PRE_DEFINED_COLOUR('blue');
#340=PRESENTATION_LAYER_ASSIGNMENT('1','Layer 1',(#517,#518,#519,#333,#370,
#371,#372,#38,#39));
#341=STYLED_ITEM('',(#350),#517);
#342=STYLED_ITEM('',(#351),#518);
#343=STYLED_ITEM('',(#352),#519);
#344=STYLED_ITEM('',(#353),#333);
#345=STYLED_ITEM('',(#354),#370);
#346=STYLED_ITEM('',(#355),#371);
#347=STYLED_ITEM('',(#356),#372);
#348=STYLED_ITEM('',(#357),#38);
#349=STYLED_ITEM('',(#358),#39);
#350=PRESENTATION_STYLE_ASSIGNMENT((#359));
#351=PRESENTATION_STYLE_ASSIGNMENT((#360));
#352=PRESENTATION_STYLE_ASSIGNMENT((#361));
#353=PRESENTATION_STYLE_ASSIGNMENT((#325));
#354=PRESENTATION_STYLE_ASSIGNMENT((#326));
#355=PRESENTATION_STYLE_ASSIGNMENT((#327));
#356=PRESENTATION_STYLE_ASSIGNMENT((#328));
#357=PRESENTATION_STYLE_ASSIGNMENT((#28));
#358=PRESENTATION_STYLE_ASSIGNMENT((#29));
#359=POINT_STYLE('',#362,POSITIVE_LENGTH_MEASURE(3.),#365);
#360=POINT_STYLE('',#363,POSITIVE_LENGTH_MEASURE(3.),#338);
#361=POINT_STYLE('',#364,POSITIVE_LENGTH_MEASURE(3.),#365);
#362=PRE_DEFINED_POINT_MARKER_SYMBOL('plus');
#363=PRE_DEFINED_POINT_MARKER_SYMBOL('plus');
#364=PRE_DEFINED_POINT_MARKER_SYMBOL('plus');
#365=COLOUR_RGB('Medium Maroon',0.6,0.4,0.4);
#366=COLOUR_RGB('Silver Gray',0.6,0.6,0.6);
#367=COLOUR_RGB('TLS_NOCUT',0.498023956664378,0.498023956664378,0.498023956664378);
#368=COLOUR_RGB('TLS_CUT',0.8,0.8,0.8);
#369=AXIS2_PLACEMENT_3D('',#516,#414,#415);
#370=AXIS2_PLACEMENT_3D('PCS',#542,#416,#417);
#371=AXIS2_PLACEMENT_3D('MCS',#543,#418,#419);
#372=AXIS2_PLACEMENT_3D('CIP',#544,#420,#421);
#373=AXIS2_PLACEMENT_3D('',#545,#422,#423);
#374=AXIS2_PLACEMENT_3D('',#547,#424,#425);
#375=AXIS2_PLACEMENT_3D('',#555,#426,#427);
#376=AXIS2_PLACEMENT_3D('',#562,#428,#429);
#377=AXIS2_PLACEMENT_3D('',#569,#430,#431);
#378=AXIS2_PLACEMENT_3D('',#575,#432,#433);
#379=AXIS2_PLACEMENT_3D('',#576,#434,#435);
#380=AXIS2_PLACEMENT_3D('',#580,#437,#438);
#381=AXIS2_PLACEMENT_3D('',#585,#441,#442);
#382=AXIS2_PLACEMENT_3D('',#590,#445,#446);
#383=AXIS2_PLACEMENT_3D('',#595,#449,#450);
#384=AXIS2_PLACEMENT_3D('',#598,#452,#453);
#385=AXIS2_PLACEMENT_3D('',#599,#454,#455);
#386=AXIS2_PLACEMENT_3D('',#601,#456,#457);
#387=AXIS2_PLACEMENT_3D('',#603,#458,#459);
#388=AXIS2_PLACEMENT_3D('',#604,#460,#461);
#389=AXIS2_PLACEMENT_3D('',#606,#462,#463);
#390=AXIS2_PLACEMENT_3D('',#608,#464,#465);
#391=AXIS2_PLACEMENT_3D('',#609,#466,#467);
#392=AXIS2_PLACEMENT_3D('',#610,#468,#469);
#393=AXIS2_PLACEMENT_3D('',#611,#470,#471);
#394=AXIS2_PLACEMENT_3D('',#613,#473,#474);
#395=AXIS2_PLACEMENT_3D('',#614,#475,#476);
#396=AXIS2_PLACEMENT_3D('',#616,#478,#479);
#397=AXIS2_PLACEMENT_3D('',#617,#480,#481);
#398=AXIS2_PLACEMENT_3D('',#619,#483,#484);
#399=AXIS2_PLACEMENT_3D('',#620,#485,#486);
#400=AXIS2_PLACEMENT_3D('',#622,#488,#489);
#401=AXIS2_PLACEMENT_3D('',#623,#490,#491);
#402=AXIS2_PLACEMENT_3D('',#624,#492,#493);
#403=AXIS2_PLACEMENT_3D('',#625,#494,#495);
#404=AXIS2_PLACEMENT_3D('',#627,#496,#497);
#405=AXIS2_PLACEMENT_3D('',#628,#498,#499);
#406=AXIS2_PLACEMENT_3D('',#630,#500,#501);
#407=AXIS2_PLACEMENT_3D('',#631,#502,#503);
#408=AXIS2_PLACEMENT_3D('',#633,#504,#505);
#409=AXIS2_PLACEMENT_3D('',#634,#506,#507);
#410=AXIS2_PLACEMENT_3D('',#636,#508,#509);
#411=AXIS2_PLACEMENT_3D('',#637,#510,#511);
#412=AXIS2_PLACEMENT_3D('',#639,#512,#513);
#413=AXIS2_PLACEMENT_3D('',#640,#514,#515);
#414=DIRECTION('',(0.,0.,1.));
#415=DIRECTION('',(1.,0.,0.));
#416=DIRECTION('',(0.,0.,1.));
#417=DIRECTION('',(1.,0.,0.));
#418=DIRECTION('',(0.,0.,1.));
#419=DIRECTION('',(1.,0.,0.));
#420=DIRECTION('',(0.,0.,1.));
#421=DIRECTION('',(1.,0.,0.));
#422=DIRECTION('',(0.,0.,1.));
#423=DIRECTION('',(1.,0.,0.));
#424=DIRECTION('',(0.,0.,1.));
#425=DIRECTION('',(-1.,0.,0.));
#426=DIRECTION('',(0.,0.,1.));
#427=DIRECTION('',(-1.,0.,0.));
#428=DIRECTION('',(0.,0.,1.));
#429=DIRECTION('',(-1.,0.,0.));
#430=DIRECTION('',(0.,0.,1.));
#431=DIRECTION('',(-1.,0.,0.));
#432=DIRECTION('',(0.,0.,-1.));
#433=DIRECTION('',(-1.,0.,0.));
#434=DIRECTION('',(0.,0.,-1.));
#435=DIRECTION('',(1.,0.,0.));
#436=DIRECTION('',(0.,0.,1.));
#437=DIRECTION('',(0.707106781186547,0.,0.707106781186548));
#438=DIRECTION('',(-0.707106781186548,0.,0.707106781186547));
#439=DIRECTION('',(0.,0.,-1.));
#440=DIRECTION('',(0.,0.,1.));
#441=DIRECTION('',(-2.64204134232936E-15,-0.707106781186547,0.707106781186548));
#442=DIRECTION('',(2.64204134232937E-15,0.707106781186548,0.707106781186547));
#443=DIRECTION('',(0.,0.,-1.));
#444=DIRECTION('',(0.,0.,1.));
#445=DIRECTION('',(-0.707106781186547,1.65668806430732E-15,0.707106781186548));
#446=DIRECTION('',(0.707106781186548,-1.65668806430733E-15,0.707106781186547));
#447=DIRECTION('',(0.,0.,-1.));
#448=DIRECTION('',(0.,0.,1.));
#449=DIRECTION('',(8.28344032153661E-16,0.707106781186547,0.707106781186548));
#450=DIRECTION('',(-8.28344032153663E-16,-0.707106781186548,0.707106781186547));
#451=DIRECTION('',(0.,0.,-1.));
#452=DIRECTION('',(0.,0.,1.));
#453=DIRECTION('',(1.,0.,0.));
#454=DIRECTION('',(0.,0.,1.));
#455=DIRECTION('',(-1.,0.,0.));
#456=DIRECTION('',(0.,0.,-1.));
#457=DIRECTION('',(-1.,0.,0.));
#458=DIRECTION('',(0.,0.,-1.));
#459=DIRECTION('',(-1.,0.,0.));
#460=DIRECTION('',(0.,0.,-1.));
#461=DIRECTION('',(-1.,0.,0.));
#462=DIRECTION('',(0.,0.,-1.));
#463=DIRECTION('',(-1.,0.,0.));
#464=DIRECTION('',(0.,0.,-1.));
#465=DIRECTION('',(-1.,0.,-5.99627607642287E-17));
#466=DIRECTION('',(0.,0.,-1.));
#467=DIRECTION('',(-1.,0.,0.));
#468=DIRECTION('',(1.30153888529377E-16,0.,-1.));
#469=DIRECTION('',(-1.,0.,-1.30153888529377E-16));
#470=DIRECTION('',(0.,0.,-1.));
#471=DIRECTION('',(-1.,0.,-3.46096758137923E-17));
#472=DIRECTION('',(2.34291072916505E-15,1.,0.));
#473=DIRECTION('',(-0.707106781186547,1.65668806430732E-15,0.707106781186548));
#474=DIRECTION('',(-0.707106781186548,1.65666091955785E-15,-0.707106781186547));
#475=DIRECTION('',(-1.,2.34291072916505E-15,0.));
#476=DIRECTION('',(0.,0.,-1.));
#477=DIRECTION('',(-1.,3.7364106986726E-15,0.));
#478=DIRECTION('',(-2.64204134232936E-15,-0.707106781186547,0.707106781186548));
#479=DIRECTION('',(-2.64198385391268E-15,-0.707106781186548,-0.707106781186547));
#480=DIRECTION('',(-3.7364106986726E-15,-1.,0.));
#481=DIRECTION('',(0.,0.,-1.));
#482=DIRECTION('',(1.,-1.17145536458252E-15,0.));
#483=DIRECTION('',(8.28344032153661E-16,0.707106781186547,0.707106781186548));
#484=DIRECTION('',(8.28330459778925E-16,0.707106781186548,-0.707106781186547));
#485=DIRECTION('',(1.17145536458252E-15,1.,0.));
#486=DIRECTION('',(0.,0.,-1.));
#487=DIRECTION('',(0.,-1.,0.));
#488=DIRECTION('',(1.,0.,0.));
#489=DIRECTION('',(0.,0.,-1.));
#490=DIRECTION('',(0.707106781186547,0.,0.707106781186548));
#491=DIRECTION('',(0.707106781186548,0.,-0.707106781186547));
#492=DIRECTION('',(0.,0.,-1.));
#493=DIRECTION('',(-1.,0.,0.));
#494=DIRECTION('',(0.,0.,1.));
#495=DIRECTION('',(1.,0.,0.));
#496=DIRECTION('',(0.,0.,1.));
#497=DIRECTION('',(1.,0.,0.));
#498=DIRECTION('',(0.,0.,1.));
#499=DIRECTION('',(-1.,0.,0.));
#500=DIRECTION('',(0.,0.,-1.));
#501=DIRECTION('',(-1.,0.,-3.42351476208381E-16));
#502=DIRECTION('',(0.,0.,1.));
#503=DIRECTION('',(1.,0.,0.));
#504=DIRECTION('',(0.,0.,1.));
#505=DIRECTION('',(1.,0.,0.));
#506=DIRECTION('',(8.47947478026843E-17,0.,-1.));
#507=DIRECTION('',(1.,0.,0.));
#508=DIRECTION('',(-8.47947478026843E-17,0.,1.));
#509=DIRECTION('',(1.,0.,8.32667268468867E-17));
#510=DIRECTION('',(0.,0.,1.));
#511=DIRECTION('',(-1.,0.,0.));
#512=DIRECTION('',(-6.50362663531996E-16,0.,1.));
#513=DIRECTION('',(1.,0.,6.09634002513723E-16));
#514=DIRECTION('',(0.,0.,1.));
#515=DIRECTION('',(1.,0.,-1.68536375219906E-16));
#516=CARTESIAN_POINT('',(0.,0.,0.));
#517=CARTESIAN_POINT('',(0.,0.,-20.));
#518=CARTESIAN_POINT('CRP',(-1.54172881768146,0.,-56.));
#519=CARTESIAN_POINT('CIP_DCSYS',(0.,0.,-56.));
#520=CARTESIAN_POINT('',(-1.54172881768146,0.,-49.453163545769));
#521=CARTESIAN_POINT('',(-1.47365254512097,0.,-48.9687756971793));
#522=CARTESIAN_POINT('',(-1.40557627256049,0.,-48.4843878485897));
#523=CARTESIAN_POINT('',(-1.3375,0.,-48.));
#524=CARTESIAN_POINT('',(-0.891666666666667,0.,-48.));
#525=CARTESIAN_POINT('',(-0.445833333333333,0.,-48.));
#526=CARTESIAN_POINT('',(0.,0.,-48.));
#527=CARTESIAN_POINT('',(0.,0.,-50.7));
#528=CARTESIAN_POINT('',(0.,0.,-53.4));
#529=CARTESIAN_POINT('',(0.,0.,-56.1));
#530=CARTESIAN_POINT('',(-0.314999999999989,0.,-56.1));
#531=CARTESIAN_POINT('',(-0.629999999999979,0.,-56.1));
#532=CARTESIAN_POINT('',(-0.944999999999969,0.,-56.1));
#533=CARTESIAN_POINT('',(-1.0812588209496,0.,-55.9637411790504));
#534=CARTESIAN_POINT('',(-1.21751764189922,0.,-55.8274823581008));
#535=CARTESIAN_POINT('',(-1.35377646284886,0.,-55.6912235371511));
#536=CARTESIAN_POINT('',(-1.41642724779306,0.,-55.4733156914341));
#537=CARTESIAN_POINT('',(-1.47907803273726,0.,-55.255407845717));
#538=CARTESIAN_POINT('',(-1.54172881768146,0.,-55.0375));
#539=CARTESIAN_POINT('',(-1.54172881768146,0.,-53.1760545152563));
#540=CARTESIAN_POINT('',(-1.54172881768146,0.,-51.3146090305126));
#541=CARTESIAN_POINT('',(-1.54172881768146,0.,-49.453163545769));
#542=CARTESIAN_POINT('',(0.,0.,0.));
#543=CARTESIAN_POINT('',(0.,0.,-20.));
#544=CARTESIAN_POINT('',(0.,0.,-56.));
#545=CARTESIAN_POINT('',(0.,0.,0.));
#546=CARTESIAN_POINT('',(0.5,0.,0.));
#547=CARTESIAN_POINT('',(0.,0.,-0.699999999999999));
#548=CARTESIAN_POINT('',(0.580947501931235,-1.05,-0.699999999999989));
#549=CARTESIAN_POINT('',(1.05,-0.580947501931111,-0.699999999999999));
#550=CARTESIAN_POINT('',(1.05,-0.580947501931126,-0.699999999999959));
#551=CARTESIAN_POINT('',(1.05,-0.217550115688344,-0.524070996878255));
#552=CARTESIAN_POINT('',(1.05,0.217215027162486,-0.523908772843262));
#553=CARTESIAN_POINT('',(1.05,0.580947501931142,-0.699999999999996));
#554=CARTESIAN_POINT('',(1.05,0.580947501931142,-0.699999999999996));
#555=CARTESIAN_POINT('',(0.,0.,-0.699999999999999));
#556=CARTESIAN_POINT('',(0.580947501931112,1.05,-0.699999999999999));
#557=CARTESIAN_POINT('',(0.580947501931127,1.05,-0.699999999999959));
#558=CARTESIAN_POINT('',(0.217550115688345,1.05,-0.524070996878256));
#559=CARTESIAN_POINT('',(-0.217215027162484,1.05,-0.523908772843262));
#560=CARTESIAN_POINT('',(-0.580947501931141,1.05,-0.699999999999996));
#561=CARTESIAN_POINT('',(-0.580947501931141,1.05,-0.699999999999997));
#562=CARTESIAN_POINT('',(0.,0.,-0.699999999999999));
#563=CARTESIAN_POINT('',(-1.05,0.580947501931114,-0.699999999999999));
#564=CARTESIAN_POINT('',(-1.05,0.58094750193112,-0.699999999999984));
#565=CARTESIAN_POINT('',(-1.05,0.217215027162435,-0.523908772843242));
#566=CARTESIAN_POINT('',(-1.05,-0.217550115688428,-0.524070996878273));
#567=CARTESIAN_POINT('',(-1.05,-0.580947501931229,-0.70000000000001));
#568=CARTESIAN_POINT('',(-1.05,-0.580947501931237,-0.699999999999989));
#569=CARTESIAN_POINT('',(0.,0.,-0.699999999999999));
#570=CARTESIAN_POINT('',(-0.580947501931115,-1.05,-0.699999999999999));
#571=CARTESIAN_POINT('',(-0.580947501931121,-1.05,-0.699999999999984));
#572=CARTESIAN_POINT('',(-0.217215027162436,-1.05,-0.523908772843242));
#573=CARTESIAN_POINT('',(0.217550115688426,-1.05,-0.524070996878273));
#574=CARTESIAN_POINT('',(0.580947501931228,-1.05,-0.70000000000001));
#575=CARTESIAN_POINT('',(0.,0.,0.));
#576=CARTESIAN_POINT('',(0.,0.,-5.5));
#577=CARTESIAN_POINT('',(1.2,0.,-5.5));
#578=CARTESIAN_POINT('',(1.05,0.580947501931111,20.9080749503476));
#579=CARTESIAN_POINT('',(1.05,0.580947501931111,-5.));
#580=CARTESIAN_POINT('',(0.,0.,-3.95));
#581=CARTESIAN_POINT('',(1.05,-0.580947501931111,-5.));
#582=CARTESIAN_POINT('',(1.05,-0.580947501931111,20.9080749503476));
#583=CARTESIAN_POINT('',(0.580947501931107,-1.05,20.9080749503476));
#584=CARTESIAN_POINT('',(0.580947501931107,-1.05,-5.));
#585=CARTESIAN_POINT('',(0.,0.,-3.95));
#586=CARTESIAN_POINT('',(-0.580947501931115,-1.05,-5.));
#587=CARTESIAN_POINT('',(-0.580947501931115,-1.05,20.9080749503476));
#588=CARTESIAN_POINT('',(-1.05,-0.580947501931109,20.9080749503476));
#589=CARTESIAN_POINT('',(-1.05,-0.580947501931109,-5.));
#590=CARTESIAN_POINT('',(0.,0.,-3.95));
#591=CARTESIAN_POINT('',(-1.05,0.580947501931114,-5.));
#592=CARTESIAN_POINT('',(-1.05,0.580947501931114,20.9080749503476));
#593=CARTESIAN_POINT('',(-0.58094750193111,1.05,20.9080749503476));
#594=CARTESIAN_POINT('',(-0.58094750193111,1.05,-5.));
#595=CARTESIAN_POINT('',(0.,0.,-3.95));
#596=CARTESIAN_POINT('',(0.580947501931113,1.05,-5.));
#597=CARTESIAN_POINT('',(0.580947501931112,1.05,20.9080749503476));
#598=CARTESIAN_POINT('',(0.,0.,20.9080749503476));
#599=CARTESIAN_POINT('',(4.88498130835069E-15,0.,-47.7948557158515));
#600=CARTESIAN_POINT('',(-1.24999999999999,0.,-47.7948557158515));
#601=CARTESIAN_POINT('',(0.,0.,-5.55));
#602=CARTESIAN_POINT('',(-1.25,0.,-5.55));
#603=CARTESIAN_POINT('',(4.88498130835069E-15,0.,-47.7684455543377));
#604=CARTESIAN_POINT('',(4.88498130835069E-15,0.,-47.8948557158515));
#605=CARTESIAN_POINT('',(-1.27679491924311,0.,-47.8948557158515));
#606=CARTESIAN_POINT('',(4.88498130835069E-15,0.,-48.));
#607=CARTESIAN_POINT('',(-1.33749999999999,0.,-48.));
#608=CARTESIAN_POINT('',(4.88498130835069E-15,0.,-47.8484455543377));
#609=CARTESIAN_POINT('',(4.88498130835069E-15,0.,-47.7948557158515));
#610=CARTESIAN_POINT('',(1.45,0.,9.43615691837981E-17));
#611=CARTESIAN_POINT('',(0.,0.,-6.75));
#612=CARTESIAN_POINT('',(-1.04999999999999,3.15,-5.));
#613=CARTESIAN_POINT('',(-1.04999999999999,3.15,-5.));
#614=CARTESIAN_POINT('',(-1.04999999999999,3.15,10.));
#615=CARTESIAN_POINT('',(-3.15,-1.04999999999999,-5.));
#616=CARTESIAN_POINT('',(-3.15,-1.04999999999999,-5.));
#617=CARTESIAN_POINT('',(-3.15,-1.04999999999999,10.));
#618=CARTESIAN_POINT('',(3.15,1.05,-5.));
#619=CARTESIAN_POINT('',(3.15,1.05,-5.));
#620=CARTESIAN_POINT('',(3.15,1.05,10.));
#621=CARTESIAN_POINT('',(1.05,-3.15,-5.));
#622=CARTESIAN_POINT('',(1.05,-3.15,10.));
#623=CARTESIAN_POINT('',(1.05,-3.15,-5.));
#624=CARTESIAN_POINT('',(0.,0.,-48.));
#625=CARTESIAN_POINT('',(0.,0.,-48.));
#626=CARTESIAN_POINT('',(1.3375,0.,-48.));
#627=CARTESIAN_POINT('',(0.,0.,-48.));
#628=CARTESIAN_POINT('',(0.,0.,-49.453163545769));
#629=CARTESIAN_POINT('',(-1.54172881768146,0.,-49.453163545769));
#630=CARTESIAN_POINT('',(0.,0.,-48.));
#631=CARTESIAN_POINT('',(0.,0.,-55.0375));
#632=CARTESIAN_POINT('',(1.54172881768146,0.,-55.0375));
#633=CARTESIAN_POINT('',(0.,0.,20.9080749503476));
#634=CARTESIAN_POINT('',(1.61963201774625E-14,0.,-56.1));
#635=CARTESIAN_POINT('',(0.945000000000001,0.,-56.1));
#636=CARTESIAN_POINT('',(10.5,0.,-56.1));
#637=CARTESIAN_POINT('',(1.61614777617908E-14,0.,-55.6912235371511));
#638=CARTESIAN_POINT('',(-1.35377646284885,0.,-55.6912235371511));
#639=CARTESIAN_POINT('',(1.59872115546023E-14,0.,-55.4232711823185));
#640=CARTESIAN_POINT('',(0.,0.,-58.));
#641=MECHANICAL_DESIGN_GEOMETRIC_PRESENTATION_REPRESENTATION('',(#341,#342,
#343,#344,#345,#346,#347,#348,#349),#642);
#642=(
GEOMETRIC_REPRESENTATION_CONTEXT(3)
GLOBAL_UNCERTAINTY_ASSIGNED_CONTEXT((#643))
GLOBAL_UNIT_ASSIGNED_CONTEXT((#649,#645,#644))
REPRESENTATION_CONTEXT('TOOL','TOP_LEVEL_ASSEMBLY_PART')
);
#643=UNCERTAINTY_MEASURE_WITH_UNIT(LENGTH_MEASURE(0.0508),#649,
'DISTANCE_ACCURACY_VALUE','Maximum Tolerance applied to model');
#644=(
NAMED_UNIT(*)
SI_UNIT($,.STERADIAN.)
SOLID_ANGLE_UNIT()
);
#645=(
CONVERSION_BASED_UNIT('DEGREE',#647)
NAMED_UNIT(#646)
PLANE_ANGLE_UNIT()
);
#646=DIMENSIONAL_EXPONENTS(0.,0.,0.,0.,0.,0.,0.);
#647=PLANE_ANGLE_MEASURE_WITH_UNIT(PLANE_ANGLE_MEASURE(0.0174532925),#648);
#648=(
NAMED_UNIT(*)
PLANE_ANGLE_UNIT()
SI_UNIT($,.RADIAN.)
);
#649=(
LENGTH_UNIT()
NAMED_UNIT(*)
SI_UNIT(.MILLI.,.METRE.)
);
ENDSEC;
END-ISO-10303-21;
