ISO-10303-21;
HEADER;
/* Generated by software containing ST-Developer
 * from STEP Tools, Inc. (www.steptools.com) 
 */
/* OPTION: using custom schema-name function */

FILE_DESCRIPTION(
/* description */ (''),
/* implementation_level */ '2;1');

FILE_NAME(
/* name */ 'TOOL.STP',
/* time_stamp */ '2023-03-28T10:16:40+02:00',
/* author */ (''),
/* organization */ ('SMS'),
/* preprocessor_version */ 'ST-DEVELOPER v16.7',
/* originating_system */ 'SIEMENS PLM Software NX 12.0',
/* authorisation */ '');

FILE_SCHEMA (('AUTOMOTIVE_DESIGN { 1 0 10303 214 3 1 1 1 }'));
ENDSEC;

DATA;
#10=CONSTRUCTIVE_GEOMETRY_REPRESENTATION_RELATIONSHIP(
'supplemental geometry','',#26,#11);
#11=CONSTRUCTIVE_GEOMETRY_REPRESENTATION('supplemental geometry',(#241,
#242,#243),#402);
#12=GEOMETRICALLY_BOUNDED_WIREFRAME_SHAPE_REPRESENTATION('Tool-None',(#27),
#402);
#13=SHAPE_REPRESENTATION_RELATIONSHIP('None',
'relationship between Tool-None and Tool-None',#26,#15);
#14=SHAPE_REPRESENTATION_RELATIONSHIP('None',
'relationship between Tool-None and Tool-None',#26,#12);
#15=ADVANCED_BREP_SHAPE_REPRESENTATION('Tool-None',(#38,#39),#402);
#16=SHAPE_DEFINITION_REPRESENTATION(#17,#26);
#17=PRODUCT_DEFINITION_SHAPE('','',#18);
#18=PRODUCT_DEFINITION(' ','',#20,#19);
#19=PRODUCT_DEFINITION_CONTEXT('part definition',#25,'design');
#20=PRODUCT_DEFINITION_FORMATION_WITH_SPECIFIED_SOURCE(' ',' ',#22,
 .NOT_KNOWN.);
#21=PRODUCT_RELATED_PRODUCT_CATEGORY('part','',(#22));
#22=PRODUCT('Tool','Tool',' ',(#23));
#23=PRODUCT_CONTEXT(' ',#25,'mechanical');
#24=APPLICATION_PROTOCOL_DEFINITION('international standard',
'automotive_design',2010,#25);
#25=APPLICATION_CONTEXT(
'core data for automotive mechanical design processes');
#26=SHAPE_REPRESENTATION('Tool-None',(#240),#402);
#27=GEOMETRIC_CURVE_SET('None',(#327,#328,#329,#206));
#28=SURFACE_STYLE_USAGE(.BOTH.,#30);
#29=SURFACE_STYLE_USAGE(.BOTH.,#31);
#30=SURFACE_SIDE_STYLE('',(#32));
#31=SURFACE_SIDE_STYLE('',(#33));
#32=SURFACE_STYLE_FILL_AREA(#34);
#33=SURFACE_STYLE_FILL_AREA(#35);
#34=FILL_AREA_STYLE('',(#36));
#35=FILL_AREA_STYLE('',(#37));
#36=FILL_AREA_STYLE_COLOUR('',#238);
#37=FILL_AREA_STYLE_COLOUR('',#239);
#38=MANIFOLD_SOLID_BREP('NOCUT',#40);
#39=MANIFOLD_SOLID_BREP('CUT',#41);
#40=CLOSED_SHELL('',(#63,#64,#65,#66,#67,#68,#69,#70,#71));
#41=CLOSED_SHELL('',(#72,#73,#74,#75));
#42=CONICAL_SURFACE('',#252,11.5,45.0000000000001);
#43=CONICAL_SURFACE('',#263,12.5,45.);
#44=PLANE('',#251);
#45=PLANE('',#253);
#46=PLANE('',#254);
#47=PLANE('',#255);
#48=PLANE('',#256);
#49=PLANE('',#257);
#50=PLANE('',#258);
#51=PLANE('',#264);
#52=PLANE('',#265);
#53=FACE_OUTER_BOUND('',#88,.T.);
#54=FACE_OUTER_BOUND('',#89,.T.);
#55=FACE_OUTER_BOUND('',#90,.T.);
#56=FACE_OUTER_BOUND('',#91,.T.);
#57=FACE_OUTER_BOUND('',#92,.T.);
#58=FACE_OUTER_BOUND('',#93,.T.);
#59=FACE_OUTER_BOUND('',#94,.T.);
#60=FACE_OUTER_BOUND('',#95,.T.);
#61=FACE_OUTER_BOUND('',#100,.T.);
#62=FACE_OUTER_BOUND('',#101,.T.);
#63=ADVANCED_FACE('',(#78,#79,#80),#76,.T.);
#64=ADVANCED_FACE('',(#53),#44,.F.);
#65=ADVANCED_FACE('',(#54),#42,.T.);
#66=ADVANCED_FACE('',(#55),#45,.T.);
#67=ADVANCED_FACE('',(#56),#46,.T.);
#68=ADVANCED_FACE('',(#57),#47,.T.);
#69=ADVANCED_FACE('',(#58),#48,.T.);
#70=ADVANCED_FACE('',(#59),#49,.T.);
#71=ADVANCED_FACE('',(#60),#50,.T.);
#72=ADVANCED_FACE('',(#81,#82),#77,.T.);
#73=ADVANCED_FACE('',(#83,#84),#43,.T.);
#74=ADVANCED_FACE('',(#61),#51,.F.);
#75=ADVANCED_FACE('',(#62),#52,.T.);
#76=CYLINDRICAL_SURFACE('',#249,12.5);
#77=CYLINDRICAL_SURFACE('',#261,12.5);
#78=FACE_BOUND('',#85,.T.);
#79=FACE_BOUND('',#86,.T.);
#80=FACE_BOUND('',#87,.T.);
#81=FACE_BOUND('',#96,.T.);
#82=FACE_BOUND('',#97,.T.);
#83=FACE_BOUND('',#98,.T.);
#84=FACE_BOUND('',#99,.T.);
#85=EDGE_LOOP('',(#111,#112,#113,#114));
#86=EDGE_LOOP('',(#115,#116,#117,#118));
#87=EDGE_LOOP('',(#119));
#88=EDGE_LOOP('',(#120,#121));
#89=EDGE_LOOP('',(#122,#123,#124,#125));
#90=EDGE_LOOP('',(#126,#127,#128,#129,#130,#131));
#91=EDGE_LOOP('',(#132,#133));
#92=EDGE_LOOP('',(#134,#135));
#93=EDGE_LOOP('',(#136,#137,#138,#139));
#94=EDGE_LOOP('',(#140,#141));
#95=EDGE_LOOP('',(#142));
#96=EDGE_LOOP('',(#143));
#97=EDGE_LOOP('',(#144));
#98=EDGE_LOOP('',(#145));
#99=EDGE_LOOP('',(#146));
#100=EDGE_LOOP('',(#147));
#101=EDGE_LOOP('',(#148));
#102=CIRCLE('',#245,12.5);
#103=CIRCLE('',#248,12.5);
#104=CIRCLE('',#250,11.5);
#105=CIRCLE('',#259,12.5);
#106=CIRCLE('',#260,12.5);
#107=CIRCLE('',#262,12.25);
#108=ELLIPSE('',#244,17.6776695296637,12.5);
#109=ELLIPSE('',#246,17.6776695296637,12.5);
#110=ELLIPSE('',#247,17.6776695296637,12.5);
#111=ORIENTED_EDGE('',*,*,#163,.F.);
#112=ORIENTED_EDGE('',*,*,#164,.F.);
#113=ORIENTED_EDGE('',*,*,#165,.F.);
#114=ORIENTED_EDGE('',*,*,#166,.T.);
#115=ORIENTED_EDGE('',*,*,#167,.F.);
#116=ORIENTED_EDGE('',*,*,#168,.F.);
#117=ORIENTED_EDGE('',*,*,#169,.F.);
#118=ORIENTED_EDGE('',*,*,#170,.F.);
#119=ORIENTED_EDGE('',*,*,#171,.F.);
#120=ORIENTED_EDGE('',*,*,#172,.F.);
#121=ORIENTED_EDGE('',*,*,#173,.T.);
#122=ORIENTED_EDGE('',*,*,#166,.F.);
#123=ORIENTED_EDGE('',*,*,#174,.T.);
#124=ORIENTED_EDGE('',*,*,#173,.F.);
#125=ORIENTED_EDGE('',*,*,#175,.T.);
#126=ORIENTED_EDGE('',*,*,#165,.T.);
#127=ORIENTED_EDGE('',*,*,#176,.F.);
#128=ORIENTED_EDGE('',*,*,#163,.T.);
#129=ORIENTED_EDGE('',*,*,#175,.F.);
#130=ORIENTED_EDGE('',*,*,#172,.T.);
#131=ORIENTED_EDGE('',*,*,#174,.F.);
#132=ORIENTED_EDGE('',*,*,#164,.T.);
#133=ORIENTED_EDGE('',*,*,#176,.T.);
#134=ORIENTED_EDGE('',*,*,#167,.T.);
#135=ORIENTED_EDGE('',*,*,#177,.F.);
#136=ORIENTED_EDGE('',*,*,#168,.T.);
#137=ORIENTED_EDGE('',*,*,#177,.T.);
#138=ORIENTED_EDGE('',*,*,#170,.T.);
#139=ORIENTED_EDGE('',*,*,#178,.F.);
#140=ORIENTED_EDGE('',*,*,#169,.T.);
#141=ORIENTED_EDGE('',*,*,#178,.T.);
#142=ORIENTED_EDGE('',*,*,#171,.T.);
#143=ORIENTED_EDGE('',*,*,#179,.T.);
#144=ORIENTED_EDGE('',*,*,#180,.F.);
#145=ORIENTED_EDGE('',*,*,#181,.T.);
#146=ORIENTED_EDGE('',*,*,#179,.F.);
#147=ORIENTED_EDGE('',*,*,#181,.F.);
#148=ORIENTED_EDGE('',*,*,#180,.T.);
#149=VERTEX_POINT('',#350);
#150=VERTEX_POINT('',#351);
#151=VERTEX_POINT('',#353);
#152=VERTEX_POINT('',#355);
#153=VERTEX_POINT('',#358);
#154=VERTEX_POINT('',#359);
#155=VERTEX_POINT('',#361);
#156=VERTEX_POINT('',#363);
#157=VERTEX_POINT('',#366);
#158=VERTEX_POINT('',#369);
#159=VERTEX_POINT('',#370);
#160=VERTEX_POINT('',#392);
#161=VERTEX_POINT('',#394);
#162=VERTEX_POINT('',#397);
#163=EDGE_CURVE('',#149,#150,#182,.T.);
#164=EDGE_CURVE('',#151,#149,#108,.T.);
#165=EDGE_CURVE('',#152,#151,#183,.T.);
#166=EDGE_CURVE('',#152,#150,#102,.T.);
#167=EDGE_CURVE('',#153,#154,#109,.T.);
#168=EDGE_CURVE('',#155,#153,#184,.T.);
#169=EDGE_CURVE('',#156,#155,#110,.T.);
#170=EDGE_CURVE('',#154,#156,#185,.T.);
#171=EDGE_CURVE('',#157,#157,#103,.T.);
#172=EDGE_CURVE('',#158,#159,#186,.T.);
#173=EDGE_CURVE('',#158,#159,#104,.T.);
#174=EDGE_CURVE('',#152,#159,#207,.T.);
#175=EDGE_CURVE('',#158,#150,#208,.T.);
#176=EDGE_CURVE('',#149,#151,#187,.T.);
#177=EDGE_CURVE('',#153,#154,#188,.T.);
#178=EDGE_CURVE('',#155,#156,#189,.T.);
#179=EDGE_CURVE('',#160,#160,#105,.T.);
#180=EDGE_CURVE('',#161,#161,#106,.T.);
#181=EDGE_CURVE('',#162,#162,#107,.T.);
#182=LINE('',#349,#190);
#183=LINE('',#354,#191);
#184=LINE('',#360,#192);
#185=LINE('',#364,#193);
#186=LINE('',#368,#194);
#187=LINE('',#382,#195);
#188=LINE('',#385,#196);
#189=LINE('',#387,#197);
#190=VECTOR('',#274,1.);
#191=VECTOR('',#277,1.);
#192=VECTOR('',#282,1.);
#193=VECTOR('',#285,1.);
#194=VECTOR('',#290,1.);
#195=VECTOR('',#297,1.);
#196=VECTOR('',#302,1.);
#197=VECTOR('',#305,1.);
#198=CURVE_STYLE('',#202,POSITIVE_LENGTH_MEASURE(0.18),#210);
#199=CURVE_STYLE('',#203,POSITIVE_LENGTH_MEASURE(0.13),#237);
#200=CURVE_STYLE('',#204,POSITIVE_LENGTH_MEASURE(0.18),#236);
#201=CURVE_STYLE('',#205,POSITIVE_LENGTH_MEASURE(0.18),#236);
#202=DRAUGHTING_PRE_DEFINED_CURVE_FONT('continuous');
#203=DRAUGHTING_PRE_DEFINED_CURVE_FONT('continuous');
#204=DRAUGHTING_PRE_DEFINED_CURVE_FONT('continuous');
#205=DRAUGHTING_PRE_DEFINED_CURVE_FONT('continuous');
#206=B_SPLINE_CURVE_WITH_KNOTS('CUTTING PART LINE',3,(#330,#331,#332,#333,
#334,#335,#336,#337,#338,#339,#340,#341,#342,#343,#344,#345),
 .UNSPECIFIED.,.T.,.F.,(4,3,3,3,3,4),(0.,0.401618726363006,0.498628080556968,
0.902186994003853,0.997256161113161,1.),.UNSPECIFIED.);
#207=B_SPLINE_CURVE_WITH_KNOTS('',3,(#373,#374,#375,#376),.UNSPECIFIED.,
 .F.,.F.,(4,4),(0.,1.),.UNSPECIFIED.);
#208=B_SPLINE_CURVE_WITH_KNOTS('',3,(#377,#378,#379,#380),.UNSPECIFIED.,
 .F.,.F.,(4,4),(0.,1.),.UNSPECIFIED.);
#209=DRAUGHTING_PRE_DEFINED_COLOUR('white');
#210=DRAUGHTING_PRE_DEFINED_COLOUR('blue');
#211=PRESENTATION_LAYER_ASSIGNMENT('1','Layer 1',(#327,#328,#329,#206,#241,
#242,#243,#38,#39));
#212=STYLED_ITEM('',(#221),#327);
#213=STYLED_ITEM('',(#222),#328);
#214=STYLED_ITEM('',(#223),#329);
#215=STYLED_ITEM('',(#224),#206);
#216=STYLED_ITEM('',(#225),#241);
#217=STYLED_ITEM('',(#226),#242);
#218=STYLED_ITEM('',(#227),#243);
#219=STYLED_ITEM('',(#228),#38);
#220=STYLED_ITEM('',(#229),#39);
#221=PRESENTATION_STYLE_ASSIGNMENT((#230));
#222=PRESENTATION_STYLE_ASSIGNMENT((#231));
#223=PRESENTATION_STYLE_ASSIGNMENT((#232));
#224=PRESENTATION_STYLE_ASSIGNMENT((#198));
#225=PRESENTATION_STYLE_ASSIGNMENT((#199));
#226=PRESENTATION_STYLE_ASSIGNMENT((#200));
#227=PRESENTATION_STYLE_ASSIGNMENT((#201));
#228=PRESENTATION_STYLE_ASSIGNMENT((#28));
#229=PRESENTATION_STYLE_ASSIGNMENT((#29));
#230=POINT_STYLE('',#233,POSITIVE_LENGTH_MEASURE(3.),#236);
#231=POINT_STYLE('',#234,POSITIVE_LENGTH_MEASURE(3.),#209);
#232=POINT_STYLE('',#235,POSITIVE_LENGTH_MEASURE(3.),#236);
#233=PRE_DEFINED_POINT_MARKER_SYMBOL('plus');
#234=PRE_DEFINED_POINT_MARKER_SYMBOL('plus');
#235=PRE_DEFINED_POINT_MARKER_SYMBOL('plus');
#236=COLOUR_RGB('Medium Maroon',0.6,0.4,0.4);
#237=COLOUR_RGB('Silver Gray',0.6,0.6,0.6);
#238=COLOUR_RGB('TLS_NOCUT',0.498023956664378,0.498023956664378,0.498023956664378);
#239=COLOUR_RGB('TLS_CUT',0.8,0.8,0.8);
#240=AXIS2_PLACEMENT_3D('',#326,#266,#267);
#241=AXIS2_PLACEMENT_3D('PCS',#346,#268,#269);
#242=AXIS2_PLACEMENT_3D('MCS',#347,#270,#271);
#243=AXIS2_PLACEMENT_3D('CIP',#348,#272,#273);
#244=AXIS2_PLACEMENT_3D('',#352,#275,#276);
#245=AXIS2_PLACEMENT_3D('',#356,#278,#279);
#246=AXIS2_PLACEMENT_3D('',#357,#280,#281);
#247=AXIS2_PLACEMENT_3D('',#362,#283,#284);
#248=AXIS2_PLACEMENT_3D('',#365,#286,#287);
#249=AXIS2_PLACEMENT_3D('',#367,#288,#289);
#250=AXIS2_PLACEMENT_3D('',#371,#291,#292);
#251=AXIS2_PLACEMENT_3D('',#372,#293,#294);
#252=AXIS2_PLACEMENT_3D('',#381,#295,#296);
#253=AXIS2_PLACEMENT_3D('',#383,#298,#299);
#254=AXIS2_PLACEMENT_3D('',#384,#300,#301);
#255=AXIS2_PLACEMENT_3D('',#386,#303,#304);
#256=AXIS2_PLACEMENT_3D('',#388,#306,#307);
#257=AXIS2_PLACEMENT_3D('',#389,#308,#309);
#258=AXIS2_PLACEMENT_3D('',#390,#310,#311);
#259=AXIS2_PLACEMENT_3D('',#391,#312,#313);
#260=AXIS2_PLACEMENT_3D('',#393,#314,#315);
#261=AXIS2_PLACEMENT_3D('',#395,#316,#317);
#262=AXIS2_PLACEMENT_3D('',#396,#318,#319);
#263=AXIS2_PLACEMENT_3D('',#398,#320,#321);
#264=AXIS2_PLACEMENT_3D('',#399,#322,#323);
#265=AXIS2_PLACEMENT_3D('',#400,#324,#325);
#266=DIRECTION('',(0.,0.,1.));
#267=DIRECTION('',(1.,0.,0.));
#268=DIRECTION('',(0.,0.,1.));
#269=DIRECTION('',(1.,0.,0.));
#270=DIRECTION('',(0.,0.,1.));
#271=DIRECTION('',(1.,0.,0.));
#272=DIRECTION('',(0.,0.,1.));
#273=DIRECTION('',(1.,0.,0.));
#274=DIRECTION('',(0.,0.,1.));
#275=DIRECTION('',(0.,0.707106781186547,0.707106781186548));
#276=DIRECTION('',(0.,-0.707106781186548,0.707106781186547));
#277=DIRECTION('',(0.,0.,-1.));
#278=DIRECTION('',(0.,0.,-1.));
#279=DIRECTION('',(-1.,0.,0.));
#280=DIRECTION('',(0.,0.707106781186548,-0.707106781186548));
#281=DIRECTION('',(0.,0.707106781186548,0.707106781186548));
#282=DIRECTION('',(0.,0.,1.));
#283=DIRECTION('',(0.,0.707106781186549,0.707106781186546));
#284=DIRECTION('',(0.,-0.707106781186546,0.707106781186549));
#285=DIRECTION('',(0.,0.,-1.));
#286=DIRECTION('',(0.,0.,-1.));
#287=DIRECTION('',(-1.,0.,0.));
#288=DIRECTION('',(0.,0.,1.));
#289=DIRECTION('',(1.,0.,0.));
#290=DIRECTION('',(1.,0.,0.));
#291=DIRECTION('',(0.,0.,1.));
#292=DIRECTION('',(-1.,0.,0.));
#293=DIRECTION('',(0.,0.,-1.));
#294=DIRECTION('',(-1.,0.,0.));
#295=DIRECTION('',(0.,0.,-1.));
#296=DIRECTION('',(-1.,0.,0.));
#297=DIRECTION('',(1.,0.,0.));
#298=DIRECTION('',(0.,1.,0.));
#299=DIRECTION('',(0.,0.,-1.));
#300=DIRECTION('',(0.,0.707106781186547,0.707106781186548));
#301=DIRECTION('',(0.,0.707106781186548,-0.707106781186547));
#302=DIRECTION('',(1.,0.,0.));
#303=DIRECTION('',(0.,0.707106781186548,-0.707106781186548));
#304=DIRECTION('',(0.,-0.707106781186548,-0.707106781186548));
#305=DIRECTION('',(1.,0.,0.));
#306=DIRECTION('',(0.,1.,-1.44560289664734E-16));
#307=DIRECTION('',(0.,-1.43982048506075E-16,-1.));
#308=DIRECTION('',(0.,0.707106781186549,0.707106781186546));
#309=DIRECTION('',(0.,0.707106781186546,-0.707106781186549));
#310=DIRECTION('',(0.,0.,-1.));
#311=DIRECTION('',(-1.,0.,0.));
#312=DIRECTION('',(0.,0.,1.));
#313=DIRECTION('',(1.,0.,0.));
#314=DIRECTION('',(0.,0.,1.));
#315=DIRECTION('',(1.,0.,0.));
#316=DIRECTION('',(0.,0.,1.));
#317=DIRECTION('',(1.,0.,0.));
#318=DIRECTION('',(0.,0.,1.));
#319=DIRECTION('',(1.,0.,0.));
#320=DIRECTION('',(0.,0.,1.));
#321=DIRECTION('',(1.,0.,2.74129141882755E-17));
#322=DIRECTION('',(0.,0.,1.));
#323=DIRECTION('',(1.,0.,0.));
#324=DIRECTION('',(0.,0.,1.));
#325=DIRECTION('',(1.,0.,0.));
#326=CARTESIAN_POINT('',(0.,0.,0.));
#327=CARTESIAN_POINT('',(0.,0.,-56.));
#328=CARTESIAN_POINT('CRP',(-12.5,0.,-129.5));
#329=CARTESIAN_POINT('CIP_DCSYS',(0.,0.,-129.5));
#330=CARTESIAN_POINT('',(-12.5,0.,-129.25));
#331=CARTESIAN_POINT('',(-12.5,0.,-112.));
#332=CARTESIAN_POINT('',(-12.5,0.,-94.75));
#333=CARTESIAN_POINT('',(-12.5,0.,-77.5));
#334=CARTESIAN_POINT('',(-8.33333333333334,0.,-77.5));
#335=CARTESIAN_POINT('',(-4.16666666666667,0.,-77.5));
#336=CARTESIAN_POINT('',(0.,0.,-77.5));
#337=CARTESIAN_POINT('',(0.,0.,-94.8333333333333));
#338=CARTESIAN_POINT('',(0.,0.,-112.166666666667));
#339=CARTESIAN_POINT('',(0.,0.,-129.5));
#340=CARTESIAN_POINT('',(-4.08333333333333,0.,-129.5));
#341=CARTESIAN_POINT('',(-8.16666666666666,0.,-129.5));
#342=CARTESIAN_POINT('',(-12.25,0.,-129.5));
#343=CARTESIAN_POINT('',(-12.3333333333333,0.,-129.416666666667));
#344=CARTESIAN_POINT('',(-12.4166666666667,0.,-129.333333333333));
#345=CARTESIAN_POINT('',(-12.5,0.,-129.25));
#346=CARTESIAN_POINT('',(0.,0.,0.));
#347=CARTESIAN_POINT('',(0.,0.,-56.));
#348=CARTESIAN_POINT('',(0.,0.,-129.5));
#349=CARTESIAN_POINT('',(-6.78232998312528,10.5,0.));
#350=CARTESIAN_POINT('',(-6.78232998312529,10.5,-17.));
#351=CARTESIAN_POINT('',(-6.78232998312528,10.5,-0.999999999999997));
#352=CARTESIAN_POINT('',(0.,0.,-6.50000000000001));
#353=CARTESIAN_POINT('',(6.78232998312529,10.5,-17.));
#354=CARTESIAN_POINT('',(6.78232998312528,10.5,0.));
#355=CARTESIAN_POINT('',(6.78232998312528,10.5,-0.999999999999997));
#356=CARTESIAN_POINT('',(0.,0.,-0.999999999999997));
#357=CARTESIAN_POINT('',(0.,0.,-36.5));
#358=CARTESIAN_POINT('',(-6.78232998312527,10.5,-26.));
#359=CARTESIAN_POINT('',(6.78232998312528,10.5,-26.));
#360=CARTESIAN_POINT('',(-6.78232998312528,10.5,-1.51788304147971E-15));
#361=CARTESIAN_POINT('',(-6.78232998312527,10.5,-38.));
#362=CARTESIAN_POINT('',(0.,0.,-27.4999999999999));
#363=CARTESIAN_POINT('',(6.78232998312527,10.5,-38.));
#364=CARTESIAN_POINT('',(6.78232998312528,10.5,-1.51788304147971E-15));
#365=CARTESIAN_POINT('',(0.,0.,-77.5));
#366=CARTESIAN_POINT('',(-12.5,0.,-77.5));
#367=CARTESIAN_POINT('',(0.,0.,0.));
#368=CARTESIAN_POINT('',(0.,10.5,0.));
#369=CARTESIAN_POINT('',(-4.69041575982344,10.5,-1.23795024519963E-16));
#370=CARTESIAN_POINT('',(4.69041575982344,10.5,0.));
#371=CARTESIAN_POINT('',(0.,0.,0.));
#372=CARTESIAN_POINT('',(0.,12.5,0.));
#373=CARTESIAN_POINT('',(6.78232998312528,10.5,-0.999999999999997));
#374=CARTESIAN_POINT('',(6.1018010621907,10.5,-0.63075426361292));
#375=CARTESIAN_POINT('',(5.40395096505582,10.5,-0.291024067113982));
#376=CARTESIAN_POINT('',(4.69041575982344,10.5,3.88610844072734E-16));
#377=CARTESIAN_POINT('',(-4.69041575982344,10.5,-1.88966873347019E-15));
#378=CARTESIAN_POINT('',(-5.40445364369694,10.5,-0.291229090750545));
#379=CARTESIAN_POINT('',(-6.1056876934673,10.5,-0.632863096880171));
#380=CARTESIAN_POINT('',(-6.78232998312528,10.5,-0.999999999999999));
#381=CARTESIAN_POINT('',(0.,0.,0.));
#382=CARTESIAN_POINT('',(10.,10.5,-17.));
#383=CARTESIAN_POINT('',(10.,10.5,2.));
#384=CARTESIAN_POINT('',(10.,10.5,-17.));
#385=CARTESIAN_POINT('',(10.,10.5,-26.));
#386=CARTESIAN_POINT('',(10.,12.5,-24.));
#387=CARTESIAN_POINT('',(10.,10.5,-38.));
#388=CARTESIAN_POINT('',(10.,10.5,-26.));
#389=CARTESIAN_POINT('',(10.,12.5,-40.));
#390=CARTESIAN_POINT('',(0.,0.,-77.5));
#391=CARTESIAN_POINT('',(0.,0.,-129.25));
#392=CARTESIAN_POINT('',(12.5,0.,-129.25));
#393=CARTESIAN_POINT('',(0.,0.,-77.5));
#394=CARTESIAN_POINT('',(12.5,0.,-77.5));
#395=CARTESIAN_POINT('',(0.,0.,0.));
#396=CARTESIAN_POINT('',(0.,0.,-129.5));
#397=CARTESIAN_POINT('',(12.25,0.,-129.5));
#398=CARTESIAN_POINT('',(0.,0.,-129.25));
#399=CARTESIAN_POINT('',(0.,0.,-129.5));
#400=CARTESIAN_POINT('',(0.,0.,-77.5));
#401=MECHANICAL_DESIGN_GEOMETRIC_PRESENTATION_REPRESENTATION('',(#212,#213,
#214,#215,#216,#217,#218,#219,#220),#402);
#402=(
GEOMETRIC_REPRESENTATION_CONTEXT(3)
GLOBAL_UNCERTAINTY_ASSIGNED_CONTEXT((#403))
GLOBAL_UNIT_ASSIGNED_CONTEXT((#409,#405,#404))
REPRESENTATION_CONTEXT('TOOL','TOP_LEVEL_ASSEMBLY_PART')
);
#403=UNCERTAINTY_MEASURE_WITH_UNIT(LENGTH_MEASURE(0.0508),#409,
'DISTANCE_ACCURACY_VALUE','Maximum Tolerance applied to model');
#404=(
NAMED_UNIT(*)
SI_UNIT($,.STERADIAN.)
SOLID_ANGLE_UNIT()
);
#405=(
CONVERSION_BASED_UNIT('DEGREE',#407)
NAMED_UNIT(#406)
PLANE_ANGLE_UNIT()
);
#406=DIMENSIONAL_EXPONENTS(0.,0.,0.,0.,0.,0.,0.);
#407=PLANE_ANGLE_MEASURE_WITH_UNIT(PLANE_ANGLE_MEASURE(0.0174532925),#408);
#408=(
NAMED_UNIT(*)
PLANE_ANGLE_UNIT()
SI_UNIT($,.RADIAN.)
);
#409=(
LENGTH_UNIT()
NAMED_UNIT(*)
SI_UNIT(.MILLI.,.METRE.)
);
ENDSEC;
END-ISO-10303-21;
