ISO-10303-21;
HEADER;
/* Generated by software containing ST-Developer
 * from STEP Tools, Inc. (www.steptools.com) 
 */
/* OPTION: using custom schema-name function */

FILE_DESCRIPTION(
/* description */ (''),
/* implementation_level */ '2;1');

FILE_NAME(
/* name */ 'tool.stp',
/* time_stamp */ '2022-05-06T16:28:21+02:00',
/* author */ (''),
/* organization */ ('SMS'),
/* preprocessor_version */ 'ST-DEVELOPER v16.7',
/* originating_system */ 'SIEMENS PLM Software NX 12.0',
/* authorisation */ '');

FILE_SCHEMA (('AUTOMOTIVE_DESIGN { 1 0 10303 214 3 1 1 1 }'));
ENDSEC;

DATA;
#10=CONSTRUCTIVE_GEOMETRY_REPRESENTATION_RELATIONSHIP(
'supplemental geometry','',#26,#11);
#11=CONSTRUCTIVE_GEOMETRY_REPRESENTATION('supplemental geometry',(#340,
#341,#342),#588);
#12=GEOMETRICALLY_BOUNDED_WIREFRAME_SHAPE_REPRESENTATION('Tool-None',(#27),
#588);
#13=SHAPE_REPRESENTATION_RELATIONSHIP('None',
'relationship between Tool-None and Tool-None',#26,#15);
#14=SHAPE_REPRESENTATION_RELATIONSHIP('None',
'relationship between Tool-None and Tool-None',#26,#12);
#15=ADVANCED_BREP_SHAPE_REPRESENTATION('Tool-None',(#39,#40),#588);
#16=SHAPE_DEFINITION_REPRESENTATION(#17,#26);
#17=PRODUCT_DEFINITION_SHAPE('','',#18);
#18=PRODUCT_DEFINITION(' ','',#20,#19);
#19=PRODUCT_DEFINITION_CONTEXT('part definition',#25,'design');
#20=PRODUCT_DEFINITION_FORMATION_WITH_SPECIFIED_SOURCE(' ',' ',#22,
 .NOT_KNOWN.);
#21=PRODUCT_RELATED_PRODUCT_CATEGORY('part','',(#22));
#22=PRODUCT('Tool','Tool',' ',(#23));
#23=PRODUCT_CONTEXT(' ',#25,'mechanical');
#24=APPLICATION_PROTOCOL_DEFINITION('international standard',
'automotive_design',2010,#25);
#25=APPLICATION_CONTEXT(
'core data for automotive mechanical design processes');
#26=SHAPE_REPRESENTATION('Tool-None',(#339),#588);
#27=GEOMETRIC_CURVE_SET('None',(#469,#470,#471,#303));
#28=VERTEX_LOOP('',#250);
#29=SURFACE_STYLE_USAGE(.BOTH.,#31);
#30=SURFACE_STYLE_USAGE(.BOTH.,#32);
#31=SURFACE_SIDE_STYLE('',(#33));
#32=SURFACE_SIDE_STYLE('',(#34));
#33=SURFACE_STYLE_FILL_AREA(#35);
#34=SURFACE_STYLE_FILL_AREA(#36);
#35=FILL_AREA_STYLE('',(#37));
#36=FILL_AREA_STYLE('',(#38));
#37=FILL_AREA_STYLE_COLOUR('',#337);
#38=FILL_AREA_STYLE_COLOUR('',#338);
#39=MANIFOLD_SOLID_BREP('NOCUT',#41);
#40=MANIFOLD_SOLID_BREP('CUT',#42);
#41=CLOSED_SHELL('',(#98,#99,#100,#101,#102,#103,#104,#105,#106,#107,#108,
#109,#110,#111,#112));
#42=CLOSED_SHELL('',(#113,#114,#115,#116));
#43=CONICAL_SURFACE('',#363,1.776,45.);
#44=CONICAL_SURFACE('',#369,4.3,45.);
#45=CONICAL_SURFACE('',#376,2.95147650344913,13.7263903816168);
#46=CONICAL_SURFACE('',#377,4.25526041406748,45.);
#47=LINE('',#505,#59);
#48=LINE('',#507,#60);
#49=LINE('',#516,#61);
#50=LINE('',#521,#62);
#51=LINE('',#523,#63);
#52=LINE('',#532,#64);
#53=LINE('',#537,#65);
#54=LINE('',#539,#66);
#55=LINE('',#548,#67);
#56=LINE('',#566,#68);
#57=LINE('',#568,#69);
#58=LINE('',#569,#70);
#59=VECTOR('',#402,1.);
#60=VECTOR('',#405,1.);
#61=VECTOR('',#406,1.);
#62=VECTOR('',#411,1.);
#63=VECTOR('',#414,1.);
#64=VECTOR('',#415,1.);
#65=VECTOR('',#420,1.);
#66=VECTOR('',#423,1.);
#67=VECTOR('',#424,1.);
#68=VECTOR('',#439,1.);
#69=VECTOR('',#442,1.);
#70=VECTOR('',#443,1.);
#71=ELLIPSE('',#350,4.20869956162233,2.976);
#72=ELLIPSE('',#353,4.20869956162233,2.976);
#73=ELLIPSE('',#356,4.20869956162233,2.976);
#74=ELLIPSE('',#364,4.20869956162233,2.976);
#75=PLANE('',#349);
#76=PLANE('',#351);
#77=PLANE('',#352);
#78=PLANE('',#354);
#79=PLANE('',#355);
#80=PLANE('',#357);
#81=PLANE('',#358);
#82=PLANE('',#365);
#83=PLANE('',#366);
#84=PLANE('',#370);
#85=PLANE('',#374);
#86=FACE_OUTER_BOUND('',#140,.T.);
#87=FACE_OUTER_BOUND('',#141,.T.);
#88=FACE_OUTER_BOUND('',#142,.T.);
#89=FACE_OUTER_BOUND('',#143,.T.);
#90=FACE_OUTER_BOUND('',#144,.T.);
#91=FACE_OUTER_BOUND('',#145,.T.);
#92=FACE_OUTER_BOUND('',#146,.T.);
#93=FACE_OUTER_BOUND('',#149,.T.);
#94=FACE_OUTER_BOUND('',#150,.T.);
#95=FACE_OUTER_BOUND('',#155,.T.);
#96=FACE_OUTER_BOUND('',#158,.T.);
#97=TOROIDAL_SURFACE('',#347,4.2,1.1);
#98=ADVANCED_FACE('',(#120,#121),#117,.T.);
#99=ADVANCED_FACE('',(#122,#123),#97,.F.);
#100=ADVANCED_FACE('',(#86),#75,.F.);
#101=ADVANCED_FACE('',(#87),#76,.T.);
#102=ADVANCED_FACE('',(#88),#77,.T.);
#103=ADVANCED_FACE('',(#89),#78,.T.);
#104=ADVANCED_FACE('',(#90),#79,.T.);
#105=ADVANCED_FACE('',(#91),#80,.T.);
#106=ADVANCED_FACE('',(#92),#81,.T.);
#107=ADVANCED_FACE('',(#124,#125),#43,.T.);
#108=ADVANCED_FACE('',(#93),#82,.T.);
#109=ADVANCED_FACE('',(#94),#83,.T.);
#110=ADVANCED_FACE('',(#126,#127),#118,.T.);
#111=ADVANCED_FACE('',(#128,#129),#44,.T.);
#112=ADVANCED_FACE('',(#95),#84,.T.);
#113=ADVANCED_FACE('FACE1',(#130,#131),#119,.T.);
#114=ADVANCED_FACE('',(#96),#85,.F.);
#115=ADVANCED_FACE('',(#132,#133),#45,.T.);
#116=ADVANCED_FACE('',(#134,#135),#46,.T.);
#117=CYLINDRICAL_SURFACE('',#345,3.1);
#118=CYLINDRICAL_SURFACE('',#368,2.976);
#119=CYLINDRICAL_SURFACE('',#373,4.2552604140675);
#120=FACE_BOUND('',#136,.T.);
#121=FACE_BOUND('',#137,.T.);
#122=FACE_BOUND('',#138,.T.);
#123=FACE_BOUND('',#139,.T.);
#124=FACE_BOUND('',#147,.T.);
#125=FACE_BOUND('',#148,.T.);
#126=FACE_BOUND('',#151,.T.);
#127=FACE_BOUND('',#152,.T.);
#128=FACE_BOUND('',#153,.T.);
#129=FACE_BOUND('',#154,.T.);
#130=FACE_BOUND('',#156,.T.);
#131=FACE_BOUND('',#157,.T.);
#132=FACE_BOUND('',#159,.T.);
#133=FACE_BOUND('',#160,.T.);
#134=FACE_BOUND('',#161,.T.);
#135=FACE_BOUND('',#28,.T.);
#136=EDGE_LOOP('',(#162));
#137=EDGE_LOOP('',(#163));
#138=EDGE_LOOP('',(#164));
#139=EDGE_LOOP('',(#165));
#140=EDGE_LOOP('',(#166));
#141=EDGE_LOOP('',(#167,#168));
#142=EDGE_LOOP('',(#169,#170,#171,#172));
#143=EDGE_LOOP('',(#173,#174));
#144=EDGE_LOOP('',(#175,#176,#177,#178));
#145=EDGE_LOOP('',(#179,#180));
#146=EDGE_LOOP('',(#181,#182,#183,#184));
#147=EDGE_LOOP('',(#185));
#148=EDGE_LOOP('',(#186,#187,#188,#189,#190,#191,#192,#193));
#149=EDGE_LOOP('',(#194,#195));
#150=EDGE_LOOP('',(#196,#197,#198,#199));
#151=EDGE_LOOP('',(#200));
#152=EDGE_LOOP('',(#201,#202,#203,#204,#205,#206,#207,#208,#209,#210,#211,
#212,#213,#214,#215,#216));
#153=EDGE_LOOP('',(#217));
#154=EDGE_LOOP('',(#218));
#155=EDGE_LOOP('',(#219));
#156=EDGE_LOOP('',(#220));
#157=EDGE_LOOP('',(#221));
#158=EDGE_LOOP('',(#222));
#159=EDGE_LOOP('',(#223));
#160=EDGE_LOOP('',(#224));
#161=EDGE_LOOP('',(#225));
#162=ORIENTED_EDGE('',*,*,#251,.T.);
#163=ORIENTED_EDGE('',*,*,#252,.T.);
#164=ORIENTED_EDGE('',*,*,#251,.F.);
#165=ORIENTED_EDGE('',*,*,#253,.F.);
#166=ORIENTED_EDGE('',*,*,#254,.T.);
#167=ORIENTED_EDGE('',*,*,#255,.T.);
#168=ORIENTED_EDGE('',*,*,#256,.T.);
#169=ORIENTED_EDGE('',*,*,#257,.T.);
#170=ORIENTED_EDGE('',*,*,#258,.F.);
#171=ORIENTED_EDGE('',*,*,#259,.T.);
#172=ORIENTED_EDGE('',*,*,#256,.F.);
#173=ORIENTED_EDGE('',*,*,#260,.T.);
#174=ORIENTED_EDGE('',*,*,#261,.T.);
#175=ORIENTED_EDGE('',*,*,#262,.T.);
#176=ORIENTED_EDGE('',*,*,#263,.F.);
#177=ORIENTED_EDGE('',*,*,#264,.T.);
#178=ORIENTED_EDGE('',*,*,#261,.F.);
#179=ORIENTED_EDGE('',*,*,#265,.T.);
#180=ORIENTED_EDGE('',*,*,#266,.T.);
#181=ORIENTED_EDGE('',*,*,#267,.T.);
#182=ORIENTED_EDGE('',*,*,#268,.F.);
#183=ORIENTED_EDGE('',*,*,#269,.T.);
#184=ORIENTED_EDGE('',*,*,#266,.F.);
#185=ORIENTED_EDGE('',*,*,#254,.F.);
#186=ORIENTED_EDGE('',*,*,#270,.T.);
#187=ORIENTED_EDGE('',*,*,#271,.T.);
#188=ORIENTED_EDGE('',*,*,#272,.T.);
#189=ORIENTED_EDGE('',*,*,#258,.T.);
#190=ORIENTED_EDGE('',*,*,#273,.T.);
#191=ORIENTED_EDGE('',*,*,#263,.T.);
#192=ORIENTED_EDGE('',*,*,#274,.T.);
#193=ORIENTED_EDGE('',*,*,#268,.T.);
#194=ORIENTED_EDGE('',*,*,#275,.T.);
#195=ORIENTED_EDGE('',*,*,#276,.T.);
#196=ORIENTED_EDGE('',*,*,#277,.T.);
#197=ORIENTED_EDGE('',*,*,#271,.F.);
#198=ORIENTED_EDGE('',*,*,#278,.T.);
#199=ORIENTED_EDGE('',*,*,#276,.F.);
#200=ORIENTED_EDGE('',*,*,#279,.F.);
#201=ORIENTED_EDGE('',*,*,#277,.F.);
#202=ORIENTED_EDGE('',*,*,#275,.F.);
#203=ORIENTED_EDGE('',*,*,#278,.F.);
#204=ORIENTED_EDGE('',*,*,#270,.F.);
#205=ORIENTED_EDGE('',*,*,#267,.F.);
#206=ORIENTED_EDGE('',*,*,#265,.F.);
#207=ORIENTED_EDGE('',*,*,#269,.F.);
#208=ORIENTED_EDGE('',*,*,#274,.F.);
#209=ORIENTED_EDGE('',*,*,#262,.F.);
#210=ORIENTED_EDGE('',*,*,#260,.F.);
#211=ORIENTED_EDGE('',*,*,#264,.F.);
#212=ORIENTED_EDGE('',*,*,#273,.F.);
#213=ORIENTED_EDGE('',*,*,#257,.F.);
#214=ORIENTED_EDGE('',*,*,#255,.F.);
#215=ORIENTED_EDGE('',*,*,#259,.F.);
#216=ORIENTED_EDGE('',*,*,#272,.F.);
#217=ORIENTED_EDGE('',*,*,#279,.T.);
#218=ORIENTED_EDGE('',*,*,#252,.F.);
#219=ORIENTED_EDGE('',*,*,#253,.T.);
#220=ORIENTED_EDGE('',*,*,#280,.T.);
#221=ORIENTED_EDGE('',*,*,#281,.F.);
#222=ORIENTED_EDGE('',*,*,#281,.T.);
#223=ORIENTED_EDGE('',*,*,#282,.T.);
#224=ORIENTED_EDGE('',*,*,#280,.F.);
#225=ORIENTED_EDGE('',*,*,#282,.F.);
#226=VERTEX_POINT('',#492);
#227=VERTEX_POINT('',#494);
#228=VERTEX_POINT('',#497);
#229=VERTEX_POINT('',#500);
#230=VERTEX_POINT('',#503);
#231=VERTEX_POINT('',#504);
#232=VERTEX_POINT('',#508);
#233=VERTEX_POINT('',#515);
#234=VERTEX_POINT('',#519);
#235=VERTEX_POINT('',#520);
#236=VERTEX_POINT('',#524);
#237=VERTEX_POINT('',#531);
#238=VERTEX_POINT('',#535);
#239=VERTEX_POINT('',#536);
#240=VERTEX_POINT('',#540);
#241=VERTEX_POINT('',#547);
#242=VERTEX_POINT('',#551);
#243=VERTEX_POINT('',#558);
#244=VERTEX_POINT('',#564);
#245=VERTEX_POINT('',#565);
#246=VERTEX_POINT('',#572);
#247=VERTEX_POINT('',#577);
#248=VERTEX_POINT('',#579);
#249=VERTEX_POINT('',#583);
#250=VERTEX_POINT('',#585);
#251=EDGE_CURVE('',#226,#226,#283,.T.);
#252=EDGE_CURVE('',#227,#227,#284,.T.);
#253=EDGE_CURVE('',#228,#228,#285,.T.);
#254=EDGE_CURVE('',#229,#229,#286,.T.);
#255=EDGE_CURVE('',#230,#231,#71,.T.);
#256=EDGE_CURVE('',#231,#230,#47,.T.);
#257=EDGE_CURVE('',#231,#232,#48,.T.);
#258=EDGE_CURVE('',#233,#232,#304,.T.);
#259=EDGE_CURVE('',#233,#230,#49,.T.);
#260=EDGE_CURVE('',#234,#235,#72,.T.);
#261=EDGE_CURVE('',#235,#234,#50,.T.);
#262=EDGE_CURVE('',#235,#236,#51,.T.);
#263=EDGE_CURVE('',#237,#236,#305,.T.);
#264=EDGE_CURVE('',#237,#234,#52,.T.);
#265=EDGE_CURVE('',#238,#239,#73,.T.);
#266=EDGE_CURVE('',#239,#238,#53,.T.);
#267=EDGE_CURVE('',#239,#240,#54,.T.);
#268=EDGE_CURVE('',#241,#240,#306,.T.);
#269=EDGE_CURVE('',#241,#238,#55,.T.);
#270=EDGE_CURVE('',#240,#242,#287,.T.);
#271=EDGE_CURVE('',#242,#243,#307,.T.);
#272=EDGE_CURVE('',#243,#233,#288,.T.);
#273=EDGE_CURVE('',#232,#237,#289,.T.);
#274=EDGE_CURVE('',#236,#241,#290,.T.);
#275=EDGE_CURVE('',#244,#245,#74,.T.);
#276=EDGE_CURVE('',#245,#244,#56,.T.);
#277=EDGE_CURVE('',#245,#243,#57,.T.);
#278=EDGE_CURVE('',#242,#244,#58,.T.);
#279=EDGE_CURVE('',#246,#246,#291,.T.);
#280=EDGE_CURVE('',#247,#247,#292,.T.);
#281=EDGE_CURVE('',#248,#248,#293,.T.);
#282=EDGE_CURVE('',#249,#249,#294,.T.);
#283=CIRCLE('',#343,3.1);
#284=CIRCLE('',#344,3.1);
#285=CIRCLE('',#346,3.1565);
#286=CIRCLE('',#348,1.776);
#287=CIRCLE('',#359,2.976);
#288=CIRCLE('',#360,2.976);
#289=CIRCLE('',#361,2.976);
#290=CIRCLE('',#362,2.976);
#291=CIRCLE('',#367,2.976);
#292=CIRCLE('',#371,4.2552604140675);
#293=CIRCLE('',#372,4.2552604140675);
#294=CIRCLE('',#375,3.54504307279455);
#295=CURVE_STYLE('',#299,POSITIVE_LENGTH_MEASURE(0.18),#309);
#296=CURVE_STYLE('',#300,POSITIVE_LENGTH_MEASURE(0.13),#336);
#297=CURVE_STYLE('',#301,POSITIVE_LENGTH_MEASURE(0.18),#335);
#298=CURVE_STYLE('',#302,POSITIVE_LENGTH_MEASURE(0.18),#335);
#299=DRAUGHTING_PRE_DEFINED_CURVE_FONT('continuous');
#300=DRAUGHTING_PRE_DEFINED_CURVE_FONT('continuous');
#301=DRAUGHTING_PRE_DEFINED_CURVE_FONT('continuous');
#302=DRAUGHTING_PRE_DEFINED_CURVE_FONT('continuous');
#303=B_SPLINE_CURVE_WITH_KNOTS('CUTTING PART LINE',3,(#472,#473,#474,#475,
#476,#477,#478,#479,#480,#481,#482,#483,#484,#485,#486,#487),
 .UNSPECIFIED.,.T.,.F.,(4,3,3,3,3,4),(0.,0.0623052384174253,0.367521916235809,
0.456100930902093,0.895638282956088,1.),.UNSPECIFIED.);
#304=B_SPLINE_CURVE_WITH_KNOTS('',3,(#509,#510,#511,#512,#513,#514),
 .UNSPECIFIED.,.F.,.F.,(4,2,4),(0.,0.5,1.),.UNSPECIFIED.);
#305=B_SPLINE_CURVE_WITH_KNOTS('',3,(#525,#526,#527,#528,#529,#530),
 .UNSPECIFIED.,.F.,.F.,(4,2,4),(0.,0.5,1.),.UNSPECIFIED.);
#306=B_SPLINE_CURVE_WITH_KNOTS('',3,(#541,#542,#543,#544,#545,#546),
 .UNSPECIFIED.,.F.,.F.,(4,2,4),(0.,0.5,1.),.UNSPECIFIED.);
#307=B_SPLINE_CURVE_WITH_KNOTS('',3,(#552,#553,#554,#555,#556,#557),
 .UNSPECIFIED.,.F.,.F.,(4,2,4),(0.,0.5,1.),.UNSPECIFIED.);
#308=DRAUGHTING_PRE_DEFINED_COLOUR('white');
#309=DRAUGHTING_PRE_DEFINED_COLOUR('blue');
#310=PRESENTATION_LAYER_ASSIGNMENT('1','Layer 1',(#469,#470,#471,#303,#340,
#341,#342,#39,#40));
#311=STYLED_ITEM('',(#320),#469);
#312=STYLED_ITEM('',(#321),#470);
#313=STYLED_ITEM('',(#322),#471);
#314=STYLED_ITEM('',(#323),#303);
#315=STYLED_ITEM('',(#324),#340);
#316=STYLED_ITEM('',(#325),#341);
#317=STYLED_ITEM('',(#326),#342);
#318=STYLED_ITEM('',(#327),#39);
#319=STYLED_ITEM('',(#328),#40);
#320=PRESENTATION_STYLE_ASSIGNMENT((#329));
#321=PRESENTATION_STYLE_ASSIGNMENT((#330));
#322=PRESENTATION_STYLE_ASSIGNMENT((#331));
#323=PRESENTATION_STYLE_ASSIGNMENT((#295));
#324=PRESENTATION_STYLE_ASSIGNMENT((#296));
#325=PRESENTATION_STYLE_ASSIGNMENT((#297));
#326=PRESENTATION_STYLE_ASSIGNMENT((#298));
#327=PRESENTATION_STYLE_ASSIGNMENT((#29));
#328=PRESENTATION_STYLE_ASSIGNMENT((#30));
#329=POINT_STYLE('',#332,POSITIVE_LENGTH_MEASURE(3.),#335);
#330=POINT_STYLE('',#333,POSITIVE_LENGTH_MEASURE(3.),#308);
#331=POINT_STYLE('',#334,POSITIVE_LENGTH_MEASURE(3.),#335);
#332=PRE_DEFINED_POINT_MARKER_SYMBOL('plus');
#333=PRE_DEFINED_POINT_MARKER_SYMBOL('plus');
#334=PRE_DEFINED_POINT_MARKER_SYMBOL('plus');
#335=COLOUR_RGB('Medium Maroon',0.6,0.4,0.4);
#336=COLOUR_RGB('Silver Gray',0.6,0.6,0.6);
#337=COLOUR_RGB('TLS_NOCUT',0.498023956664378,0.498023956664378,0.498023956664378);
#338=COLOUR_RGB('TLS_CUT',0.8,0.8,0.8);
#339=AXIS2_PLACEMENT_3D('',#468,#378,#379);
#340=AXIS2_PLACEMENT_3D('PCS',#488,#380,#381);
#341=AXIS2_PLACEMENT_3D('MCS',#489,#382,#383);
#342=AXIS2_PLACEMENT_3D('CIP',#490,#384,#385);
#343=AXIS2_PLACEMENT_3D('',#491,#386,#387);
#344=AXIS2_PLACEMENT_3D('',#493,#388,#389);
#345=AXIS2_PLACEMENT_3D('',#495,#390,#391);
#346=AXIS2_PLACEMENT_3D('',#496,#392,#393);
#347=AXIS2_PLACEMENT_3D('',#498,#394,#395);
#348=AXIS2_PLACEMENT_3D('',#499,#396,#397);
#349=AXIS2_PLACEMENT_3D('',#501,#398,#399);
#350=AXIS2_PLACEMENT_3D('',#502,#400,#401);
#351=AXIS2_PLACEMENT_3D('',#506,#403,#404);
#352=AXIS2_PLACEMENT_3D('',#517,#407,#408);
#353=AXIS2_PLACEMENT_3D('',#518,#409,#410);
#354=AXIS2_PLACEMENT_3D('',#522,#412,#413);
#355=AXIS2_PLACEMENT_3D('',#533,#416,#417);
#356=AXIS2_PLACEMENT_3D('',#534,#418,#419);
#357=AXIS2_PLACEMENT_3D('',#538,#421,#422);
#358=AXIS2_PLACEMENT_3D('',#549,#425,#426);
#359=AXIS2_PLACEMENT_3D('',#550,#427,#428);
#360=AXIS2_PLACEMENT_3D('',#559,#429,#430);
#361=AXIS2_PLACEMENT_3D('',#560,#431,#432);
#362=AXIS2_PLACEMENT_3D('',#561,#433,#434);
#363=AXIS2_PLACEMENT_3D('',#562,#435,#436);
#364=AXIS2_PLACEMENT_3D('',#563,#437,#438);
#365=AXIS2_PLACEMENT_3D('',#567,#440,#441);
#366=AXIS2_PLACEMENT_3D('',#570,#444,#445);
#367=AXIS2_PLACEMENT_3D('',#571,#446,#447);
#368=AXIS2_PLACEMENT_3D('',#573,#448,#449);
#369=AXIS2_PLACEMENT_3D('',#574,#450,#451);
#370=AXIS2_PLACEMENT_3D('',#575,#452,#453);
#371=AXIS2_PLACEMENT_3D('',#576,#454,#455);
#372=AXIS2_PLACEMENT_3D('',#578,#456,#457);
#373=AXIS2_PLACEMENT_3D('',#580,#458,#459);
#374=AXIS2_PLACEMENT_3D('',#581,#460,#461);
#375=AXIS2_PLACEMENT_3D('',#582,#462,#463);
#376=AXIS2_PLACEMENT_3D('',#584,#464,#465);
#377=AXIS2_PLACEMENT_3D('',#586,#466,#467);
#378=DIRECTION('',(0.,0.,1.));
#379=DIRECTION('',(1.,0.,0.));
#380=DIRECTION('',(0.,0.,1.));
#381=DIRECTION('',(1.,0.,0.));
#382=DIRECTION('',(0.,0.,1.));
#383=DIRECTION('',(1.,0.,0.));
#384=DIRECTION('',(0.,0.,1.));
#385=DIRECTION('',(1.,0.,0.));
#386=DIRECTION('',(0.,0.,1.));
#387=DIRECTION('',(-1.,0.,0.));
#388=DIRECTION('',(0.,0.,-1.));
#389=DIRECTION('',(-1.,0.,0.));
#390=DIRECTION('',(0.,0.,-1.));
#391=DIRECTION('',(-1.,0.,0.));
#392=DIRECTION('',(0.,0.,-1.));
#393=DIRECTION('',(-1.,0.,0.));
#394=DIRECTION('',(0.,0.,-1.));
#395=DIRECTION('',(-1.,0.,0.));
#396=DIRECTION('',(0.,0.,1.));
#397=DIRECTION('',(1.,0.,0.));
#398=DIRECTION('',(1.20812096875163E-16,0.,-1.));
#399=DIRECTION('',(-1.,0.,-1.20812096875163E-16));
#400=DIRECTION('',(8.28344032153662E-16,0.707106781186547,0.707106781186548));
#401=DIRECTION('',(-8.28344032153662E-16,-0.707106781186548,0.707106781186547));
#402=DIRECTION('',(1.,-1.17145536458252E-15,0.));
#403=DIRECTION('',(8.28344032153662E-16,0.707106781186547,0.707106781186548));
#404=DIRECTION('',(8.28330459778925E-16,0.707106781186548,-0.707106781186547));
#405=DIRECTION('',(0.,0.,1.));
#406=DIRECTION('',(0.,0.,-1.));
#407=DIRECTION('',(1.17145536458252E-15,1.,0.));
#408=DIRECTION('',(0.,0.,-1.));
#409=DIRECTION('',(-0.707106781186547,1.65668806430732E-15,0.707106781186548));
#410=DIRECTION('',(0.707106781186548,-1.65668806430732E-15,0.707106781186547));
#411=DIRECTION('',(2.34291072916505E-15,1.,0.));
#412=DIRECTION('',(-0.707106781186547,1.65668806430732E-15,0.707106781186548));
#413=DIRECTION('',(-0.707106781186548,1.65666091955785E-15,-0.707106781186547));
#414=DIRECTION('',(0.,0.,1.));
#415=DIRECTION('',(0.,0.,-1.));
#416=DIRECTION('',(-1.,2.34291072916505E-15,0.));
#417=DIRECTION('',(0.,0.,-1.));
#418=DIRECTION('',(-2.64204134232936E-15,-0.707106781186547,0.707106781186548));
#419=DIRECTION('',(2.64204134232936E-15,0.707106781186548,0.707106781186547));
#420=DIRECTION('',(-1.,3.7364106986726E-15,0.));
#421=DIRECTION('',(-2.64204134232936E-15,-0.707106781186547,0.707106781186548));
#422=DIRECTION('',(-2.64198385391268E-15,-0.707106781186548,-0.707106781186547));
#423=DIRECTION('',(0.,0.,1.));
#424=DIRECTION('',(0.,0.,-1.));
#425=DIRECTION('',(-3.7364106986726E-15,-1.,0.));
#426=DIRECTION('',(0.,0.,-1.));
#427=DIRECTION('',(0.,0.,1.));
#428=DIRECTION('',(-1.,0.,0.));
#429=DIRECTION('',(0.,0.,1.));
#430=DIRECTION('',(-1.,0.,0.));
#431=DIRECTION('',(0.,0.,1.));
#432=DIRECTION('',(-1.,0.,0.));
#433=DIRECTION('',(0.,0.,1.));
#434=DIRECTION('',(-1.,0.,0.));
#435=DIRECTION('',(0.,0.,-1.));
#436=DIRECTION('',(-1.,0.,0.));
#437=DIRECTION('',(0.707106781186547,0.,0.707106781186548));
#438=DIRECTION('',(-0.707106781186548,0.,0.707106781186547));
#439=DIRECTION('',(0.,-1.,0.));
#440=DIRECTION('',(0.707106781186547,0.,0.707106781186548));
#441=DIRECTION('',(0.707106781186548,0.,-0.707106781186547));
#442=DIRECTION('',(0.,0.,1.));
#443=DIRECTION('',(0.,0.,-1.));
#444=DIRECTION('',(1.,0.,0.));
#445=DIRECTION('',(0.,0.,-1.));
#446=DIRECTION('',(0.,0.,-1.));
#447=DIRECTION('',(1.,0.,0.));
#448=DIRECTION('',(0.,0.,1.));
#449=DIRECTION('',(1.,0.,0.));
#450=DIRECTION('',(0.,0.,-1.));
#451=DIRECTION('',(-1.,0.,9.67285817531627E-17));
#452=DIRECTION('',(0.,0.,-1.));
#453=DIRECTION('',(-1.,0.,0.));
#454=DIRECTION('',(0.,0.,1.));
#455=DIRECTION('',(1.,0.,0.));
#456=DIRECTION('',(0.,0.,1.));
#457=DIRECTION('',(1.,0.,0.));
#458=DIRECTION('',(0.,0.,1.));
#459=DIRECTION('',(1.,0.,0.));
#460=DIRECTION('',(0.,0.,-1.));
#461=DIRECTION('',(-1.,0.,0.));
#462=DIRECTION('',(0.,0.,1.));
#463=DIRECTION('',(-1.,0.,0.));
#464=DIRECTION('',(0.,0.,1.));
#465=DIRECTION('',(1.,0.,-2.24547660348304E-16));
#466=DIRECTION('',(-3.52223116190274E-16,0.,1.));
#467=DIRECTION('',(1.,0.,3.31655626329724E-16));
#468=CARTESIAN_POINT('',(0.,0.,0.));
#469=CARTESIAN_POINT('',(0.,0.,-23.));
#470=CARTESIAN_POINT('CRP',(-4.0802604140675,0.,-70.));
#471=CARTESIAN_POINT('CIP_DCSYS',(0.,0.,-70.));
#472=CARTESIAN_POINT('',(-3.54504307279455,0.,-69.5699569272054));
#473=CARTESIAN_POINT('',(-3.7817821865522,0.,-68.6007543589396));
#474=CARTESIAN_POINT('',(-4.01852130030985,0.,-67.6315517906738));
#475=CARTESIAN_POINT('',(-4.2552604140675,0.,-66.662349222408));
#476=CARTESIAN_POINT('',(-4.2552604140675,0.,-61.7748994816053));
#477=CARTESIAN_POINT('',(-4.2552604140675,0.,-56.8874497408027));
#478=CARTESIAN_POINT('',(-4.2552604140675,0.,-52.));
#479=CARTESIAN_POINT('',(-2.836840276045,0.,-52.));
#480=CARTESIAN_POINT('',(-1.4184201380225,0.,-52.));
#481=CARTESIAN_POINT('',(0.,0.,-52.));
#482=CARTESIAN_POINT('',(0.,0.,-59.0383333333333));
#483=CARTESIAN_POINT('',(0.,0.,-66.0766666666667));
#484=CARTESIAN_POINT('',(6.88338275267597E-15,0.,-73.115));
#485=CARTESIAN_POINT('',(-1.18168102426483,0.,-71.9333189757351));
#486=CARTESIAN_POINT('',(-2.36336204852968,0.,-70.7516379514703));
#487=CARTESIAN_POINT('',(-3.54504307279453,0.,-69.5699569272054));
#488=CARTESIAN_POINT('',(0.,0.,0.));
#489=CARTESIAN_POINT('',(0.,0.,-23.));
#490=CARTESIAN_POINT('',(0.,0.,-70.));
#491=CARTESIAN_POINT('',(5.32907051820075E-15,0.,-51.6519946121107));
#492=CARTESIAN_POINT('',(-3.09999999999999,0.,-51.6519946121107));
#493=CARTESIAN_POINT('',(0.,0.,-8.812));
#494=CARTESIAN_POINT('',(-3.1,0.,-8.812));
#495=CARTESIAN_POINT('',(5.32907051820075E-15,0.,-51.4621391293724));
#496=CARTESIAN_POINT('',(5.32907051820075E-15,0.,-52.));
#497=CARTESIAN_POINT('',(-3.15649999999999,0.,-52.));
#498=CARTESIAN_POINT('',(5.32907051820075E-15,0.,-51.6519946121107));
#499=CARTESIAN_POINT('',(0.,0.,0.));
#500=CARTESIAN_POINT('',(1.776,0.,0.));
#501=CARTESIAN_POINT('',(3.3,0.,1.9933995984402E-16));
#502=CARTESIAN_POINT('',(0.,0.,-5.5));
#503=CARTESIAN_POINT('',(1.61448939296609,2.5,-8.));
#504=CARTESIAN_POINT('',(-1.61448939296608,2.5,-8.));
#505=CARTESIAN_POINT('',(7.5,2.49999999999999,-8.));
#506=CARTESIAN_POINT('',(7.5,2.49999999999999,-8.));
#507=CARTESIAN_POINT('',(-1.61448939296608,2.5,20.9080749503476));
#508=CARTESIAN_POINT('',(-1.61448939296608,2.5,-1.2));
#509=CARTESIAN_POINT('',(1.61448939296609,2.5,-1.2));
#510=CARTESIAN_POINT('',(1.11477845115344,2.5,-0.928905236859675));
#511=CARTESIAN_POINT('',(0.564584531265369,2.5,-0.724001827911762));
#512=CARTESIAN_POINT('',(-0.564568343035229,2.5,-0.723998172114445));
#513=CARTESIAN_POINT('',(-1.11439824619394,2.5,-0.928698974469128));
#514=CARTESIAN_POINT('',(-1.61448939296608,2.5,-1.2));
#515=CARTESIAN_POINT('',(1.61448939296609,2.5,-1.2));
#516=CARTESIAN_POINT('',(1.61448939296609,2.5,20.9080749503476));
#517=CARTESIAN_POINT('',(7.5,2.49999999999999,10.));
#518=CARTESIAN_POINT('',(0.,0.,-5.5));
#519=CARTESIAN_POINT('',(-2.5,1.61448939296609,-8.));
#520=CARTESIAN_POINT('',(-2.5,-1.61448939296608,-8.));
#521=CARTESIAN_POINT('',(-2.49999999999998,7.50000000000001,-8.));
#522=CARTESIAN_POINT('',(-2.49999999999998,7.50000000000001,-8.));
#523=CARTESIAN_POINT('',(-2.5,-1.61448939296608,20.9080749503476));
#524=CARTESIAN_POINT('',(-2.5,-1.61448939296608,-1.2));
#525=CARTESIAN_POINT('',(-2.5,1.61448939296609,-1.2));
#526=CARTESIAN_POINT('',(-2.5,1.11439824619395,-0.928698974469128));
#527=CARTESIAN_POINT('',(-2.5,0.564568343035237,-0.723998172114445));
#528=CARTESIAN_POINT('',(-2.5,-0.564584531265362,-0.724001827911762));
#529=CARTESIAN_POINT('',(-2.5,-1.11477845115344,-0.928905236859675));
#530=CARTESIAN_POINT('',(-2.5,-1.61448939296608,-1.2));
#531=CARTESIAN_POINT('',(-2.5,1.61448939296609,-1.2));
#532=CARTESIAN_POINT('',(-2.5,1.61448939296609,20.9080749503476));
#533=CARTESIAN_POINT('',(-2.49999999999998,7.50000000000001,10.));
#534=CARTESIAN_POINT('',(0.,0.,-5.5));
#535=CARTESIAN_POINT('',(-1.61448939296609,-2.49999999999999,-8.));
#536=CARTESIAN_POINT('',(1.61448939296608,-2.50000000000001,-8.));
#537=CARTESIAN_POINT('',(-7.50000000000001,-2.49999999999997,-8.));
#538=CARTESIAN_POINT('',(-7.50000000000001,-2.49999999999997,-8.));
#539=CARTESIAN_POINT('',(1.61448939296608,-2.50000000000001,20.9080749503476));
#540=CARTESIAN_POINT('',(1.61448939296608,-2.50000000000001,-1.2));
#541=CARTESIAN_POINT('',(-1.6144893929661,-2.49999999999999,-1.2));
#542=CARTESIAN_POINT('',(-1.11439824619395,-2.5,-0.928698974469128));
#543=CARTESIAN_POINT('',(-0.56456834303524,-2.5,-0.723998172114445));
#544=CARTESIAN_POINT('',(0.564584531265357,-2.5,-0.724001827911762));
#545=CARTESIAN_POINT('',(1.11477845115343,-2.5,-0.928905236859675));
#546=CARTESIAN_POINT('',(1.61448939296608,-2.50000000000001,-1.2));
#547=CARTESIAN_POINT('',(-1.6144893929661,-2.49999999999999,-1.2));
#548=CARTESIAN_POINT('',(-1.6144893929661,-2.49999999999999,20.9080749503476));
#549=CARTESIAN_POINT('',(-7.50000000000001,-2.49999999999997,10.));
#550=CARTESIAN_POINT('',(0.,0.,-1.2));
#551=CARTESIAN_POINT('',(2.5,-1.61448939296609,-1.2));
#552=CARTESIAN_POINT('',(2.5,-1.61448939296609,-1.2));
#553=CARTESIAN_POINT('',(2.5,-1.11477845115344,-0.928905236859674));
#554=CARTESIAN_POINT('',(2.5,-0.564584531265366,-0.724001827911762));
#555=CARTESIAN_POINT('',(2.5,0.564568343035231,-0.723998172114445));
#556=CARTESIAN_POINT('',(2.5,1.11439824619394,-0.928698974469128));
#557=CARTESIAN_POINT('',(2.5,1.61448939296609,-1.2));
#558=CARTESIAN_POINT('',(2.5,1.61448939296609,-1.2));
#559=CARTESIAN_POINT('',(0.,0.,-1.2));
#560=CARTESIAN_POINT('',(0.,0.,-1.2));
#561=CARTESIAN_POINT('',(0.,0.,-1.2));
#562=CARTESIAN_POINT('',(0.,0.,0.));
#563=CARTESIAN_POINT('',(0.,0.,-5.5));
#564=CARTESIAN_POINT('',(2.5,-1.61448939296608,-8.));
#565=CARTESIAN_POINT('',(2.5,1.61448939296608,-8.));
#566=CARTESIAN_POINT('',(2.5,-7.5,-8.));
#567=CARTESIAN_POINT('',(2.5,-7.5,-8.));
#568=CARTESIAN_POINT('',(2.5,1.61448939296609,20.9080749503476));
#569=CARTESIAN_POINT('',(2.5,-1.61448939296609,20.9080749503476));
#570=CARTESIAN_POINT('',(2.5,-7.5,10.));
#571=CARTESIAN_POINT('',(0.,0.,-8.688));
#572=CARTESIAN_POINT('',(2.976,0.,-8.688));
#573=CARTESIAN_POINT('',(0.,0.,20.9080749503476));
#574=CARTESIAN_POINT('',(0.,0.,-10.012));
#575=CARTESIAN_POINT('',(0.,0.,-52.));
#576=CARTESIAN_POINT('',(0.,0.,-66.662349222408));
#577=CARTESIAN_POINT('',(4.2552604140675,0.,-66.662349222408));
#578=CARTESIAN_POINT('',(0.,0.,-52.));
#579=CARTESIAN_POINT('',(4.2552604140675,0.,-52.));
#580=CARTESIAN_POINT('',(0.,0.,-68.8597395859325));
#581=CARTESIAN_POINT('',(4.2552604140675,0.,-52.));
#582=CARTESIAN_POINT('',(2.02341694083683E-14,0.,-69.5699569272054));
#583=CARTESIAN_POINT('',(-3.54504307279453,0.,-69.5699569272054));
#584=CARTESIAN_POINT('',(0.,0.,-72.));
#585=CARTESIAN_POINT('',(2.1316282072803E-14,0.,-73.115));
#586=CARTESIAN_POINT('',(1.99840144432528E-14,0.,-68.8597395859325));
#587=MECHANICAL_DESIGN_GEOMETRIC_PRESENTATION_REPRESENTATION('',(#311,#312,
#313,#314,#315,#316,#317,#318,#319),#588);
#588=(
GEOMETRIC_REPRESENTATION_CONTEXT(3)
GLOBAL_UNCERTAINTY_ASSIGNED_CONTEXT((#589))
GLOBAL_UNIT_ASSIGNED_CONTEXT((#595,#591,#590))
REPRESENTATION_CONTEXT('tool','TOP_LEVEL_ASSEMBLY_PART')
);
#589=UNCERTAINTY_MEASURE_WITH_UNIT(LENGTH_MEASURE(0.0508),#595,
'DISTANCE_ACCURACY_VALUE','Maximum Tolerance applied to model');
#590=(
NAMED_UNIT(*)
SI_UNIT($,.STERADIAN.)
SOLID_ANGLE_UNIT()
);
#591=(
CONVERSION_BASED_UNIT('DEGREE',#593)
NAMED_UNIT(#592)
PLANE_ANGLE_UNIT()
);
#592=DIMENSIONAL_EXPONENTS(0.,0.,0.,0.,0.,0.,0.);
#593=PLANE_ANGLE_MEASURE_WITH_UNIT(PLANE_ANGLE_MEASURE(0.0174532925),#594);
#594=(
NAMED_UNIT(*)
PLANE_ANGLE_UNIT()
SI_UNIT($,.RADIAN.)
);
#595=(
LENGTH_UNIT()
NAMED_UNIT(*)
SI_UNIT(.MILLI.,.METRE.)
);
ENDSEC;
END-ISO-10303-21;
