ISO-10303-21;
HEADER;
/* Generated by software containing ST-Developer
 * from STEP Tools, Inc. (www.steptools.com) 
 */
/* OPTION: using custom schema-name function */

FILE_DESCRIPTION(
/* description */ (''),
/* implementation_level */ '2;1');

FILE_NAME(
/* name */ 'TOOL.STP',
/* time_stamp */ '2023-10-17T06:44:58+02:00',
/* author */ (''),
/* organization */ ('SMS'),
/* preprocessor_version */ 'ST-DEVELOPER v16.7',
/* originating_system */ 'SIEMENS PLM Software NX 12.0',
/* authorisation */ '');

FILE_SCHEMA (('AUTOMOTIVE_DESIGN { 1 0 10303 214 3 1 1 1 }'));
ENDSEC;

DATA;
#10=CONSTRUCTIVE_GEOMETRY_REPRESENTATION_RELATIONSHIP(
'supplemental geometry','',#26,#11);
#11=CONSTRUCTIVE_GEOMETRY_REPRESENTATION('supplemental geometry',(#351,
#352,#353),#608);
#12=GEOMETRICALLY_BOUNDED_WIREFRAME_SHAPE_REPRESENTATION('Tool-None',(#27),
#608);
#13=SHAPE_REPRESENTATION_RELATIONSHIP('None',
'relationship between Tool-None and Tool-None',#26,#15);
#14=SHAPE_REPRESENTATION_RELATIONSHIP('None',
'relationship between Tool-None and Tool-None',#26,#12);
#15=ADVANCED_BREP_SHAPE_REPRESENTATION('Tool-None',(#39,#40),#608);
#16=SHAPE_DEFINITION_REPRESENTATION(#17,#26);
#17=PRODUCT_DEFINITION_SHAPE('','',#18);
#18=PRODUCT_DEFINITION(' ','',#20,#19);
#19=PRODUCT_DEFINITION_CONTEXT('part definition',#25,'design');
#20=PRODUCT_DEFINITION_FORMATION_WITH_SPECIFIED_SOURCE(' ',' ',#22,
 .NOT_KNOWN.);
#21=PRODUCT_RELATED_PRODUCT_CATEGORY('part','',(#22));
#22=PRODUCT('Tool','Tool',' ',(#23));
#23=PRODUCT_CONTEXT(' ',#25,'mechanical');
#24=APPLICATION_PROTOCOL_DEFINITION('international standard',
'automotive_design',2010,#25);
#25=APPLICATION_CONTEXT(
'core data for automotive mechanical design processes');
#26=SHAPE_REPRESENTATION('Tool-None',(#350),#608);
#27=GEOMETRIC_CURVE_SET('None',(#486,#487,#488,#314));
#28=VERTEX_LOOP('',#259);
#29=SURFACE_STYLE_USAGE(.BOTH.,#31);
#30=SURFACE_STYLE_USAGE(.BOTH.,#32);
#31=SURFACE_SIDE_STYLE('',(#33));
#32=SURFACE_SIDE_STYLE('',(#34));
#33=SURFACE_STYLE_FILL_AREA(#35);
#34=SURFACE_STYLE_FILL_AREA(#36);
#35=FILL_AREA_STYLE('',(#37));
#36=FILL_AREA_STYLE('',(#38));
#37=FILL_AREA_STYLE_COLOUR('',#348);
#38=FILL_AREA_STYLE_COLOUR('',#349);
#39=MANIFOLD_SOLID_BREP('NOCUT',#41);
#40=MANIFOLD_SOLID_BREP('CUT',#42);
#41=CLOSED_SHELL('',(#98,#99,#100,#101,#102,#103,#104,#105,#106,#107,#108,
#109,#110,#111,#112,#113));
#42=CLOSED_SHELL('',(#114,#115,#116,#117));
#43=CONICAL_SURFACE('',#375,0.511999999999999,45.);
#44=CONICAL_SURFACE('',#381,2.775,45.);
#45=CONICAL_SURFACE('',#389,0.869135400634836,8.97472644434854);
#46=CONICAL_SURFACE('',#390,1.6203476742858,45.0000000000001);
#47=LINE('',#524,#59);
#48=LINE('',#526,#60);
#49=LINE('',#535,#61);
#50=LINE('',#540,#62);
#51=LINE('',#542,#63);
#52=LINE('',#551,#64);
#53=LINE('',#556,#65);
#54=LINE('',#558,#66);
#55=LINE('',#567,#67);
#56=LINE('',#585,#68);
#57=LINE('',#587,#69);
#58=LINE('',#588,#70);
#59=VECTOR('',#417,1.);
#60=VECTOR('',#420,1.);
#61=VECTOR('',#421,1.);
#62=VECTOR('',#426,1.);
#63=VECTOR('',#429,1.);
#64=VECTOR('',#430,1.);
#65=VECTOR('',#435,1.);
#66=VECTOR('',#438,1.);
#67=VECTOR('',#439,1.);
#68=VECTOR('',#454,1.);
#69=VECTOR('',#457,1.);
#70=VECTOR('',#458,1.);
#71=ELLIPSE('',#362,2.13829090630812,1.512);
#72=ELLIPSE('',#365,2.13829090630812,1.512);
#73=ELLIPSE('',#368,2.13829090630812,1.512);
#74=ELLIPSE('',#376,2.13829090630812,1.512);
#75=PLANE('',#361);
#76=PLANE('',#363);
#77=PLANE('',#364);
#78=PLANE('',#366);
#79=PLANE('',#367);
#80=PLANE('',#369);
#81=PLANE('',#370);
#82=PLANE('',#377);
#83=PLANE('',#378);
#84=PLANE('',#382);
#85=PLANE('',#383);
#86=PLANE('',#385);
#87=FACE_OUTER_BOUND('',#144,.T.);
#88=FACE_OUTER_BOUND('',#145,.T.);
#89=FACE_OUTER_BOUND('',#146,.T.);
#90=FACE_OUTER_BOUND('',#147,.T.);
#91=FACE_OUTER_BOUND('',#148,.T.);
#92=FACE_OUTER_BOUND('',#149,.T.);
#93=FACE_OUTER_BOUND('',#150,.T.);
#94=FACE_OUTER_BOUND('',#153,.T.);
#95=FACE_OUTER_BOUND('',#154,.T.);
#96=FACE_OUTER_BOUND('',#161,.T.);
#97=FACE_OUTER_BOUND('',#162,.T.);
#98=ADVANCED_FACE('',(#122,#123),#118,.T.);
#99=ADVANCED_FACE('',(#124,#125),#119,.T.);
#100=ADVANCED_FACE('',(#87),#75,.F.);
#101=ADVANCED_FACE('',(#88),#76,.T.);
#102=ADVANCED_FACE('',(#89),#77,.T.);
#103=ADVANCED_FACE('',(#90),#78,.T.);
#104=ADVANCED_FACE('',(#91),#79,.T.);
#105=ADVANCED_FACE('',(#92),#80,.T.);
#106=ADVANCED_FACE('',(#93),#81,.T.);
#107=ADVANCED_FACE('',(#126,#127),#43,.T.);
#108=ADVANCED_FACE('',(#94),#82,.T.);
#109=ADVANCED_FACE('',(#95),#83,.T.);
#110=ADVANCED_FACE('',(#128,#129),#120,.T.);
#111=ADVANCED_FACE('',(#130,#131),#44,.T.);
#112=ADVANCED_FACE('',(#132,#133),#84,.T.);
#113=ADVANCED_FACE('',(#96),#85,.T.);
#114=ADVANCED_FACE('',(#97),#86,.T.);
#115=ADVANCED_FACE('',(#134,#135),#121,.T.);
#116=ADVANCED_FACE('',(#136,#137),#45,.T.);
#117=ADVANCED_FACE('',(#138,#139),#46,.T.);
#118=CYLINDRICAL_SURFACE('',#356,1.54034767428581);
#119=CYLINDRICAL_SURFACE('',#359,1.575);
#120=CYLINDRICAL_SURFACE('',#380,1.512);
#121=CYLINDRICAL_SURFACE('',#387,1.54034767428581);
#122=FACE_BOUND('',#140,.T.);
#123=FACE_BOUND('',#141,.T.);
#124=FACE_BOUND('',#142,.T.);
#125=FACE_BOUND('',#143,.T.);
#126=FACE_BOUND('',#151,.T.);
#127=FACE_BOUND('',#152,.T.);
#128=FACE_BOUND('',#155,.T.);
#129=FACE_BOUND('',#156,.T.);
#130=FACE_BOUND('',#157,.T.);
#131=FACE_BOUND('',#158,.T.);
#132=FACE_BOUND('',#159,.T.);
#133=FACE_BOUND('',#160,.T.);
#134=FACE_BOUND('',#163,.T.);
#135=FACE_BOUND('',#164,.T.);
#136=FACE_BOUND('',#165,.T.);
#137=FACE_BOUND('',#166,.T.);
#138=FACE_BOUND('',#167,.T.);
#139=FACE_BOUND('',#28,.T.);
#140=EDGE_LOOP('',(#168));
#141=EDGE_LOOP('',(#169));
#142=EDGE_LOOP('',(#170));
#143=EDGE_LOOP('',(#171));
#144=EDGE_LOOP('',(#172));
#145=EDGE_LOOP('',(#173,#174));
#146=EDGE_LOOP('',(#175,#176,#177,#178));
#147=EDGE_LOOP('',(#179,#180));
#148=EDGE_LOOP('',(#181,#182,#183,#184));
#149=EDGE_LOOP('',(#185,#186));
#150=EDGE_LOOP('',(#187,#188,#189,#190));
#151=EDGE_LOOP('',(#191));
#152=EDGE_LOOP('',(#192,#193,#194,#195,#196,#197,#198,#199));
#153=EDGE_LOOP('',(#200,#201));
#154=EDGE_LOOP('',(#202,#203,#204,#205));
#155=EDGE_LOOP('',(#206));
#156=EDGE_LOOP('',(#207,#208,#209,#210,#211,#212,#213,#214,#215,#216,#217,
#218,#219,#220,#221,#222));
#157=EDGE_LOOP('',(#223));
#158=EDGE_LOOP('',(#224));
#159=EDGE_LOOP('',(#225));
#160=EDGE_LOOP('',(#226));
#161=EDGE_LOOP('',(#227));
#162=EDGE_LOOP('',(#228));
#163=EDGE_LOOP('',(#229));
#164=EDGE_LOOP('',(#230));
#165=EDGE_LOOP('',(#231));
#166=EDGE_LOOP('',(#232));
#167=EDGE_LOOP('',(#233));
#168=ORIENTED_EDGE('',*,*,#260,.T.);
#169=ORIENTED_EDGE('',*,*,#261,.T.);
#170=ORIENTED_EDGE('',*,*,#262,.T.);
#171=ORIENTED_EDGE('',*,*,#263,.F.);
#172=ORIENTED_EDGE('',*,*,#264,.T.);
#173=ORIENTED_EDGE('',*,*,#265,.T.);
#174=ORIENTED_EDGE('',*,*,#266,.T.);
#175=ORIENTED_EDGE('',*,*,#267,.T.);
#176=ORIENTED_EDGE('',*,*,#268,.F.);
#177=ORIENTED_EDGE('',*,*,#269,.T.);
#178=ORIENTED_EDGE('',*,*,#266,.F.);
#179=ORIENTED_EDGE('',*,*,#270,.T.);
#180=ORIENTED_EDGE('',*,*,#271,.T.);
#181=ORIENTED_EDGE('',*,*,#272,.T.);
#182=ORIENTED_EDGE('',*,*,#273,.F.);
#183=ORIENTED_EDGE('',*,*,#274,.T.);
#184=ORIENTED_EDGE('',*,*,#271,.F.);
#185=ORIENTED_EDGE('',*,*,#275,.T.);
#186=ORIENTED_EDGE('',*,*,#276,.T.);
#187=ORIENTED_EDGE('',*,*,#277,.T.);
#188=ORIENTED_EDGE('',*,*,#278,.F.);
#189=ORIENTED_EDGE('',*,*,#279,.T.);
#190=ORIENTED_EDGE('',*,*,#276,.F.);
#191=ORIENTED_EDGE('',*,*,#264,.F.);
#192=ORIENTED_EDGE('',*,*,#280,.T.);
#193=ORIENTED_EDGE('',*,*,#281,.T.);
#194=ORIENTED_EDGE('',*,*,#282,.T.);
#195=ORIENTED_EDGE('',*,*,#268,.T.);
#196=ORIENTED_EDGE('',*,*,#283,.T.);
#197=ORIENTED_EDGE('',*,*,#273,.T.);
#198=ORIENTED_EDGE('',*,*,#284,.T.);
#199=ORIENTED_EDGE('',*,*,#278,.T.);
#200=ORIENTED_EDGE('',*,*,#285,.T.);
#201=ORIENTED_EDGE('',*,*,#286,.T.);
#202=ORIENTED_EDGE('',*,*,#287,.T.);
#203=ORIENTED_EDGE('',*,*,#281,.F.);
#204=ORIENTED_EDGE('',*,*,#288,.T.);
#205=ORIENTED_EDGE('',*,*,#286,.F.);
#206=ORIENTED_EDGE('',*,*,#289,.F.);
#207=ORIENTED_EDGE('',*,*,#287,.F.);
#208=ORIENTED_EDGE('',*,*,#285,.F.);
#209=ORIENTED_EDGE('',*,*,#288,.F.);
#210=ORIENTED_EDGE('',*,*,#280,.F.);
#211=ORIENTED_EDGE('',*,*,#277,.F.);
#212=ORIENTED_EDGE('',*,*,#275,.F.);
#213=ORIENTED_EDGE('',*,*,#279,.F.);
#214=ORIENTED_EDGE('',*,*,#284,.F.);
#215=ORIENTED_EDGE('',*,*,#272,.F.);
#216=ORIENTED_EDGE('',*,*,#270,.F.);
#217=ORIENTED_EDGE('',*,*,#274,.F.);
#218=ORIENTED_EDGE('',*,*,#283,.F.);
#219=ORIENTED_EDGE('',*,*,#267,.F.);
#220=ORIENTED_EDGE('',*,*,#265,.F.);
#221=ORIENTED_EDGE('',*,*,#269,.F.);
#222=ORIENTED_EDGE('',*,*,#282,.F.);
#223=ORIENTED_EDGE('',*,*,#289,.T.);
#224=ORIENTED_EDGE('',*,*,#262,.F.);
#225=ORIENTED_EDGE('',*,*,#260,.F.);
#226=ORIENTED_EDGE('',*,*,#263,.T.);
#227=ORIENTED_EDGE('',*,*,#261,.F.);
#228=ORIENTED_EDGE('',*,*,#290,.F.);
#229=ORIENTED_EDGE('',*,*,#291,.F.);
#230=ORIENTED_EDGE('',*,*,#290,.T.);
#231=ORIENTED_EDGE('',*,*,#291,.T.);
#232=ORIENTED_EDGE('',*,*,#292,.T.);
#233=ORIENTED_EDGE('',*,*,#292,.F.);
#234=VERTEX_POINT('',#509);
#235=VERTEX_POINT('',#511);
#236=VERTEX_POINT('',#514);
#237=VERTEX_POINT('',#516);
#238=VERTEX_POINT('',#519);
#239=VERTEX_POINT('',#522);
#240=VERTEX_POINT('',#523);
#241=VERTEX_POINT('',#527);
#242=VERTEX_POINT('',#534);
#243=VERTEX_POINT('',#538);
#244=VERTEX_POINT('',#539);
#245=VERTEX_POINT('',#543);
#246=VERTEX_POINT('',#550);
#247=VERTEX_POINT('',#554);
#248=VERTEX_POINT('',#555);
#249=VERTEX_POINT('',#559);
#250=VERTEX_POINT('',#566);
#251=VERTEX_POINT('',#570);
#252=VERTEX_POINT('',#577);
#253=VERTEX_POINT('',#583);
#254=VERTEX_POINT('',#584);
#255=VERTEX_POINT('',#591);
#256=VERTEX_POINT('',#597);
#257=VERTEX_POINT('',#600);
#258=VERTEX_POINT('',#603);
#259=VERTEX_POINT('',#605);
#260=EDGE_CURVE('',#234,#234,#293,.T.);
#261=EDGE_CURVE('',#235,#235,#294,.T.);
#262=EDGE_CURVE('',#236,#236,#295,.T.);
#263=EDGE_CURVE('',#237,#237,#296,.T.);
#264=EDGE_CURVE('',#238,#238,#297,.T.);
#265=EDGE_CURVE('',#239,#240,#71,.T.);
#266=EDGE_CURVE('',#240,#239,#47,.T.);
#267=EDGE_CURVE('',#240,#241,#48,.T.);
#268=EDGE_CURVE('',#242,#241,#315,.T.);
#269=EDGE_CURVE('',#242,#239,#49,.T.);
#270=EDGE_CURVE('',#243,#244,#72,.T.);
#271=EDGE_CURVE('',#244,#243,#50,.T.);
#272=EDGE_CURVE('',#244,#245,#51,.T.);
#273=EDGE_CURVE('',#246,#245,#316,.T.);
#274=EDGE_CURVE('',#246,#243,#52,.T.);
#275=EDGE_CURVE('',#247,#248,#73,.T.);
#276=EDGE_CURVE('',#248,#247,#53,.T.);
#277=EDGE_CURVE('',#248,#249,#54,.T.);
#278=EDGE_CURVE('',#250,#249,#317,.T.);
#279=EDGE_CURVE('',#250,#247,#55,.T.);
#280=EDGE_CURVE('',#249,#251,#298,.T.);
#281=EDGE_CURVE('',#251,#252,#318,.T.);
#282=EDGE_CURVE('',#252,#242,#299,.T.);
#283=EDGE_CURVE('',#241,#246,#300,.T.);
#284=EDGE_CURVE('',#245,#250,#301,.T.);
#285=EDGE_CURVE('',#253,#254,#74,.T.);
#286=EDGE_CURVE('',#254,#253,#56,.T.);
#287=EDGE_CURVE('',#254,#252,#57,.T.);
#288=EDGE_CURVE('',#251,#253,#58,.T.);
#289=EDGE_CURVE('',#255,#255,#302,.T.);
#290=EDGE_CURVE('',#256,#256,#303,.T.);
#291=EDGE_CURVE('',#257,#257,#304,.T.);
#292=EDGE_CURVE('',#258,#258,#305,.T.);
#293=CIRCLE('',#354,1.54034767428581);
#294=CIRCLE('',#355,1.54034767428581);
#295=CIRCLE('',#357,1.575);
#296=CIRCLE('',#358,1.575);
#297=CIRCLE('',#360,0.511999999999999);
#298=CIRCLE('',#371,1.512);
#299=CIRCLE('',#372,1.512);
#300=CIRCLE('',#373,1.512);
#301=CIRCLE('',#374,1.512);
#302=CIRCLE('',#379,1.512);
#303=CIRCLE('',#384,1.54034767428581);
#304=CIRCLE('',#386,1.54034767428581);
#305=CIRCLE('',#388,1.22626165380417);
#306=CURVE_STYLE('',#310,POSITIVE_LENGTH_MEASURE(0.18),#320);
#307=CURVE_STYLE('',#311,POSITIVE_LENGTH_MEASURE(0.13),#347);
#308=CURVE_STYLE('',#312,POSITIVE_LENGTH_MEASURE(0.18),#346);
#309=CURVE_STYLE('',#313,POSITIVE_LENGTH_MEASURE(0.18),#346);
#310=DRAUGHTING_PRE_DEFINED_CURVE_FONT('continuous');
#311=DRAUGHTING_PRE_DEFINED_CURVE_FONT('continuous');
#312=DRAUGHTING_PRE_DEFINED_CURVE_FONT('continuous');
#313=DRAUGHTING_PRE_DEFINED_CURVE_FONT('continuous');
#314=B_SPLINE_CURVE_WITH_KNOTS('CUTTING PART LINE',3,(#489,#490,#491,#492,
#493,#494,#495,#496,#497,#498,#499,#500,#501,#502,#503,#504),
 .UNSPECIFIED.,.T.,.F.,(4,3,3,3,3,4),(0.,0.0700064756866774,0.522900677362968,
0.601717260442558,0.693222693296503,1.),.UNSPECIFIED.);
#315=B_SPLINE_CURVE_WITH_KNOTS('',3,(#528,#529,#530,#531,#532,#533),
 .UNSPECIFIED.,.F.,.F.,(4,2,4),(0.,0.5,1.),.UNSPECIFIED.);
#316=B_SPLINE_CURVE_WITH_KNOTS('',3,(#544,#545,#546,#547,#548,#549),
 .UNSPECIFIED.,.F.,.F.,(4,2,4),(0.,0.5,1.),.UNSPECIFIED.);
#317=B_SPLINE_CURVE_WITH_KNOTS('',3,(#560,#561,#562,#563,#564,#565),
 .UNSPECIFIED.,.F.,.F.,(4,2,4),(0.,0.5,1.),.UNSPECIFIED.);
#318=B_SPLINE_CURVE_WITH_KNOTS('',3,(#571,#572,#573,#574,#575,#576),
 .UNSPECIFIED.,.F.,.F.,(4,2,4),(0.,0.5,1.),.UNSPECIFIED.);
#319=DRAUGHTING_PRE_DEFINED_COLOUR('white');
#320=DRAUGHTING_PRE_DEFINED_COLOUR('blue');
#321=PRESENTATION_LAYER_ASSIGNMENT('1','Layer 1',(#486,#487,#488,#314,#351,
#352,#353,#39,#40));
#322=STYLED_ITEM('',(#331),#486);
#323=STYLED_ITEM('',(#332),#487);
#324=STYLED_ITEM('',(#333),#488);
#325=STYLED_ITEM('',(#334),#314);
#326=STYLED_ITEM('',(#335),#351);
#327=STYLED_ITEM('',(#336),#352);
#328=STYLED_ITEM('',(#337),#353);
#329=STYLED_ITEM('',(#338),#39);
#330=STYLED_ITEM('',(#339),#40);
#331=PRESENTATION_STYLE_ASSIGNMENT((#340));
#332=PRESENTATION_STYLE_ASSIGNMENT((#341));
#333=PRESENTATION_STYLE_ASSIGNMENT((#342));
#334=PRESENTATION_STYLE_ASSIGNMENT((#306));
#335=PRESENTATION_STYLE_ASSIGNMENT((#307));
#336=PRESENTATION_STYLE_ASSIGNMENT((#308));
#337=PRESENTATION_STYLE_ASSIGNMENT((#309));
#338=PRESENTATION_STYLE_ASSIGNMENT((#29));
#339=PRESENTATION_STYLE_ASSIGNMENT((#30));
#340=POINT_STYLE('',#343,POSITIVE_LENGTH_MEASURE(3.),#346);
#341=POINT_STYLE('',#344,POSITIVE_LENGTH_MEASURE(3.),#319);
#342=POINT_STYLE('',#345,POSITIVE_LENGTH_MEASURE(3.),#346);
#343=PRE_DEFINED_POINT_MARKER_SYMBOL('plus');
#344=PRE_DEFINED_POINT_MARKER_SYMBOL('plus');
#345=PRE_DEFINED_POINT_MARKER_SYMBOL('plus');
#346=COLOUR_RGB('Medium Maroon',0.6,0.4,0.4);
#347=COLOUR_RGB('Silver Gray',0.6,0.6,0.6);
#348=COLOUR_RGB('TLS_NOCUT',0.498023956664378,0.498023956664378,0.498023956664378);
#349=COLOUR_RGB('TLS_CUT',0.8,0.8,0.8);
#350=AXIS2_PLACEMENT_3D('',#485,#391,#392);
#351=AXIS2_PLACEMENT_3D('PCS',#505,#393,#394);
#352=AXIS2_PLACEMENT_3D('MCS',#506,#395,#396);
#353=AXIS2_PLACEMENT_3D('CIP',#507,#397,#398);
#354=AXIS2_PLACEMENT_3D('',#508,#399,#400);
#355=AXIS2_PLACEMENT_3D('',#510,#401,#402);
#356=AXIS2_PLACEMENT_3D('',#512,#403,#404);
#357=AXIS2_PLACEMENT_3D('',#513,#405,#406);
#358=AXIS2_PLACEMENT_3D('',#515,#407,#408);
#359=AXIS2_PLACEMENT_3D('',#517,#409,#410);
#360=AXIS2_PLACEMENT_3D('',#518,#411,#412);
#361=AXIS2_PLACEMENT_3D('',#520,#413,#414);
#362=AXIS2_PLACEMENT_3D('',#521,#415,#416);
#363=AXIS2_PLACEMENT_3D('',#525,#418,#419);
#364=AXIS2_PLACEMENT_3D('',#536,#422,#423);
#365=AXIS2_PLACEMENT_3D('',#537,#424,#425);
#366=AXIS2_PLACEMENT_3D('',#541,#427,#428);
#367=AXIS2_PLACEMENT_3D('',#552,#431,#432);
#368=AXIS2_PLACEMENT_3D('',#553,#433,#434);
#369=AXIS2_PLACEMENT_3D('',#557,#436,#437);
#370=AXIS2_PLACEMENT_3D('',#568,#440,#441);
#371=AXIS2_PLACEMENT_3D('',#569,#442,#443);
#372=AXIS2_PLACEMENT_3D('',#578,#444,#445);
#373=AXIS2_PLACEMENT_3D('',#579,#446,#447);
#374=AXIS2_PLACEMENT_3D('',#580,#448,#449);
#375=AXIS2_PLACEMENT_3D('',#581,#450,#451);
#376=AXIS2_PLACEMENT_3D('',#582,#452,#453);
#377=AXIS2_PLACEMENT_3D('',#586,#455,#456);
#378=AXIS2_PLACEMENT_3D('',#589,#459,#460);
#379=AXIS2_PLACEMENT_3D('',#590,#461,#462);
#380=AXIS2_PLACEMENT_3D('',#592,#463,#464);
#381=AXIS2_PLACEMENT_3D('',#593,#465,#466);
#382=AXIS2_PLACEMENT_3D('',#594,#467,#468);
#383=AXIS2_PLACEMENT_3D('',#595,#469,#470);
#384=AXIS2_PLACEMENT_3D('',#596,#471,#472);
#385=AXIS2_PLACEMENT_3D('',#598,#473,#474);
#386=AXIS2_PLACEMENT_3D('',#599,#475,#476);
#387=AXIS2_PLACEMENT_3D('',#601,#477,#478);
#388=AXIS2_PLACEMENT_3D('',#602,#479,#480);
#389=AXIS2_PLACEMENT_3D('',#604,#481,#482);
#390=AXIS2_PLACEMENT_3D('',#606,#483,#484);
#391=DIRECTION('',(0.,0.,1.));
#392=DIRECTION('',(1.,0.,0.));
#393=DIRECTION('',(0.,0.,1.));
#394=DIRECTION('',(1.,0.,0.));
#395=DIRECTION('',(0.,0.,1.));
#396=DIRECTION('',(1.,0.,0.));
#397=DIRECTION('',(0.,0.,1.));
#398=DIRECTION('',(1.,0.,0.));
#399=DIRECTION('',(0.,0.,-1.));
#400=DIRECTION('',(1.,0.,0.));
#401=DIRECTION('',(0.,0.,1.));
#402=DIRECTION('',(-1.,0.,0.));
#403=DIRECTION('',(0.,0.,1.));
#404=DIRECTION('',(1.,0.,0.));
#405=DIRECTION('',(0.,0.,-1.));
#406=DIRECTION('',(-1.,0.,0.));
#407=DIRECTION('',(0.,0.,-1.));
#408=DIRECTION('',(-1.,0.,0.));
#409=DIRECTION('',(3.77015398983068E-16,0.,-1.));
#410=DIRECTION('',(-1.,0.,0.));
#411=DIRECTION('',(0.,0.,1.));
#412=DIRECTION('',(1.,0.,0.));
#413=DIRECTION('',(4.46042206986062E-16,0.,-1.));
#414=DIRECTION('',(-1.,0.,-4.46042206986062E-16));
#415=DIRECTION('',(8.28344032153661E-16,0.707106781186547,0.707106781186548));
#416=DIRECTION('',(-8.28344032153663E-16,-0.707106781186548,0.707106781186547));
#417=DIRECTION('',(1.,-1.17145536458252E-15,0.));
#418=DIRECTION('',(8.28344032153661E-16,0.707106781186547,0.707106781186548));
#419=DIRECTION('',(8.28330459778925E-16,0.707106781186548,-0.707106781186547));
#420=DIRECTION('',(0.,0.,1.));
#421=DIRECTION('',(0.,0.,-1.));
#422=DIRECTION('',(1.17145536458252E-15,1.,0.));
#423=DIRECTION('',(0.,0.,-1.));
#424=DIRECTION('',(-0.707106781186547,1.65668806430732E-15,0.707106781186548));
#425=DIRECTION('',(0.707106781186548,-1.65668806430733E-15,0.707106781186547));
#426=DIRECTION('',(2.34291072916505E-15,1.,0.));
#427=DIRECTION('',(-0.707106781186547,1.65668806430732E-15,0.707106781186548));
#428=DIRECTION('',(-0.707106781186548,1.65666091955785E-15,-0.707106781186547));
#429=DIRECTION('',(0.,0.,1.));
#430=DIRECTION('',(0.,0.,-1.));
#431=DIRECTION('',(-1.,2.34291072916505E-15,0.));
#432=DIRECTION('',(0.,0.,-1.));
#433=DIRECTION('',(-2.64204134232936E-15,-0.707106781186547,0.707106781186548));
#434=DIRECTION('',(2.64204134232937E-15,0.707106781186548,0.707106781186547));
#435=DIRECTION('',(-1.,3.7364106986726E-15,0.));
#436=DIRECTION('',(-2.64204134232936E-15,-0.707106781186547,0.707106781186548));
#437=DIRECTION('',(-2.64198385391268E-15,-0.707106781186548,-0.707106781186547));
#438=DIRECTION('',(0.,0.,1.));
#439=DIRECTION('',(0.,0.,-1.));
#440=DIRECTION('',(-3.7364106986726E-15,-1.,0.));
#441=DIRECTION('',(0.,0.,-1.));
#442=DIRECTION('',(0.,0.,1.));
#443=DIRECTION('',(-1.,0.,0.));
#444=DIRECTION('',(0.,0.,1.));
#445=DIRECTION('',(-1.,0.,0.));
#446=DIRECTION('',(0.,0.,1.));
#447=DIRECTION('',(-1.,0.,0.));
#448=DIRECTION('',(0.,0.,1.));
#449=DIRECTION('',(-1.,0.,0.));
#450=DIRECTION('',(0.,0.,-1.));
#451=DIRECTION('',(-1.,0.,0.));
#452=DIRECTION('',(0.707106781186547,0.,0.707106781186548));
#453=DIRECTION('',(-0.707106781186548,0.,0.707106781186547));
#454=DIRECTION('',(0.,-1.,0.));
#455=DIRECTION('',(0.707106781186547,0.,0.707106781186548));
#456=DIRECTION('',(0.707106781186548,0.,-0.707106781186547));
#457=DIRECTION('',(0.,0.,1.));
#458=DIRECTION('',(0.,0.,-1.));
#459=DIRECTION('',(1.,0.,0.));
#460=DIRECTION('',(0.,0.,-1.));
#461=DIRECTION('',(0.,0.,-1.));
#462=DIRECTION('',(1.,0.,0.));
#463=DIRECTION('',(0.,0.,1.));
#464=DIRECTION('',(1.,0.,0.));
#465=DIRECTION('',(0.,0.,-1.));
#466=DIRECTION('',(-1.,0.,-7.26567634723899E-17));
#467=DIRECTION('',(0.,0.,-1.));
#468=DIRECTION('',(-1.,0.,0.));
#469=DIRECTION('',(0.,0.,-1.));
#470=DIRECTION('',(-1.,0.,0.));
#471=DIRECTION('',(0.,0.,-1.));
#472=DIRECTION('',(1.,0.,0.));
#473=DIRECTION('',(0.,0.,1.));
#474=DIRECTION('',(1.,0.,0.));
#475=DIRECTION('',(0.,0.,-1.));
#476=DIRECTION('',(1.,0.,0.));
#477=DIRECTION('',(0.,0.,1.));
#478=DIRECTION('',(1.,0.,0.));
#479=DIRECTION('',(0.,0.,1.));
#480=DIRECTION('',(-1.,0.,0.));
#481=DIRECTION('',(0.,0.,1.));
#482=DIRECTION('',(1.,0.,-3.05867873938903E-16));
#483=DIRECTION('',(-6.50917016225414E-16,0.,1.));
#484=DIRECTION('',(1.,0.,6.85839198536531E-16));
#485=CARTESIAN_POINT('',(0.,0.,0.));
#486=CARTESIAN_POINT('',(0.,0.,-20.));
#487=CARTESIAN_POINT('CRP',(-1.54034767428581,0.,-48.));
#488=CARTESIAN_POINT('CIP_DCSYS',(0.,0.,-48.));
#489=CARTESIAN_POINT('',(-1.54034767428581,0.,-39.));
#490=CARTESIAN_POINT('',(-1.02689844952387,0.,-39.));
#491=CARTESIAN_POINT('',(-0.513449224761937,0.,-39.));
#492=CARTESIAN_POINT('',(0.,0.,-39.));
#493=CARTESIAN_POINT('',(0.,0.,-42.3216666666667));
#494=CARTESIAN_POINT('',(0.,0.,-45.6433333333333));
#495=CARTESIAN_POINT('',(-2.1094237467878E-15,0.,-48.965));
#496=CARTESIAN_POINT('',(-0.408753884601389,0.,-48.5562461153986));
#497=CARTESIAN_POINT('',(-0.817507769202774,0.,-48.1474922307972));
#498=CARTESIAN_POINT('',(-1.22626165380416,0.,-47.7387383461958));
#499=CARTESIAN_POINT('',(-1.33095699396472,0.,-47.0758255641305));
#500=CARTESIAN_POINT('',(-1.43565233412527,0.,-46.4129127820653));
#501=CARTESIAN_POINT('',(-1.54034767428581,0.,-45.75));
#502=CARTESIAN_POINT('',(-1.54034767428581,0.,-43.5));
#503=CARTESIAN_POINT('',(-1.54034767428581,0.,-41.25));
#504=CARTESIAN_POINT('',(-1.54034767428581,0.,-39.));
#505=CARTESIAN_POINT('',(0.,0.,0.));
#506=CARTESIAN_POINT('',(0.,0.,-20.));
#507=CARTESIAN_POINT('',(0.,0.,-48.));
#508=CARTESIAN_POINT('',(0.,0.,-37.5));
#509=CARTESIAN_POINT('',(1.54034767428581,0.,-37.5));
#510=CARTESIAN_POINT('',(0.,0.,-39.));
#511=CARTESIAN_POINT('',(-1.54034767428581,0.,-39.));
#512=CARTESIAN_POINT('',(0.,0.,20.9080749503476));
#513=CARTESIAN_POINT('',(0.,0.,-5.563));
#514=CARTESIAN_POINT('',(-1.575,0.,-5.563));
#515=CARTESIAN_POINT('',(3.35949258983285E-15,0.,-37.5));
#516=CARTESIAN_POINT('',(-1.57499999999999,0.,-37.5));
#517=CARTESIAN_POINT('',(3.77475828372553E-15,0.,-38.6014555241319));
#518=CARTESIAN_POINT('',(0.,0.,0.));
#519=CARTESIAN_POINT('',(0.511999999999999,0.,0.));
#520=CARTESIAN_POINT('',(1.775,0.,3.95862458700131E-16));
#521=CARTESIAN_POINT('',(0.,0.,-3.75));
#522=CARTESIAN_POINT('',(0.850672675004909,1.25,-5.));
#523=CARTESIAN_POINT('',(-0.850672675004906,1.25,-5.));
#524=CARTESIAN_POINT('',(3.75,1.25,-5.));
#525=CARTESIAN_POINT('',(3.75,1.25,-5.));
#526=CARTESIAN_POINT('',(-0.850672675004904,1.25,20.9080749503476));
#527=CARTESIAN_POINT('',(-0.850672675004904,1.25,-1.));
#528=CARTESIAN_POINT('',(0.850672675004908,1.25,-1.));
#529=CARTESIAN_POINT('',(0.588667517197768,1.25,-0.852592176946508));
#530=CARTESIAN_POINT('',(0.298970989897315,1.25,-0.738053050533647));
#531=CARTESIAN_POINT('',(-0.298527215837151,1.25,-0.737946988853439));
#532=CARTESIAN_POINT('',(-0.589387921750874,1.25,-0.852997486780007));
#533=CARTESIAN_POINT('',(-0.850672675004915,1.25,-0.999999999999989));
#534=CARTESIAN_POINT('',(0.850672675004908,1.25,-1.));
#535=CARTESIAN_POINT('',(0.850672675004907,1.25,20.9080749503476));
#536=CARTESIAN_POINT('',(3.75,1.25,10.));
#537=CARTESIAN_POINT('',(0.,0.,-3.75));
#538=CARTESIAN_POINT('',(-1.25,0.85067267500491,-5.));
#539=CARTESIAN_POINT('',(-1.25,-0.850672675004904,-5.));
#540=CARTESIAN_POINT('',(-1.24999999999999,3.75,-5.));
#541=CARTESIAN_POINT('',(-1.24999999999999,3.75,-5.));
#542=CARTESIAN_POINT('',(-1.25,-0.850672675004903,20.9080749503476));
#543=CARTESIAN_POINT('',(-1.25,-0.850672675004903,-1.));
#544=CARTESIAN_POINT('',(-1.25,0.850672675005048,-1.00000000000006));
#545=CARTESIAN_POINT('',(-1.25,0.589387921750994,-0.852997486780056));
#546=CARTESIAN_POINT('',(-1.25,0.298527215837254,-0.737946988853456));
#547=CARTESIAN_POINT('',(-1.25,-0.298970989897262,-0.738053050533629));
#548=CARTESIAN_POINT('',(-1.25,-0.588667517197742,-0.852592176946495));
#549=CARTESIAN_POINT('',(-1.25,-0.850672675004904,-1.));
#550=CARTESIAN_POINT('',(-1.25,0.850672675005088,-1.00000000000001));
#551=CARTESIAN_POINT('',(-1.25,0.850672675004909,20.9080749503476));
#552=CARTESIAN_POINT('',(-1.24999999999999,3.75,10.));
#553=CARTESIAN_POINT('',(0.,0.,-3.75));
#554=CARTESIAN_POINT('',(-0.850672675004912,-1.25,-5.));
#555=CARTESIAN_POINT('',(0.850672675004903,-1.25,-5.));
#556=CARTESIAN_POINT('',(-3.75,-1.24999999999999,-5.));
#557=CARTESIAN_POINT('',(-3.75,-1.24999999999999,-5.));
#558=CARTESIAN_POINT('',(0.850672675004901,-1.25,20.9080749503476));
#559=CARTESIAN_POINT('',(0.850672675004901,-1.25,-1.));
#560=CARTESIAN_POINT('',(-0.85067267500505,-1.25,-1.00000000000006));
#561=CARTESIAN_POINT('',(-0.589387921750996,-1.25,-0.852997486780056));
#562=CARTESIAN_POINT('',(-0.298527215837256,-1.25,-0.737946988853456));
#563=CARTESIAN_POINT('',(0.29897098989726,-1.25,-0.738053050533629));
#564=CARTESIAN_POINT('',(0.58866751719774,-1.25,-0.852592176946495));
#565=CARTESIAN_POINT('',(0.850672675004901,-1.25,-1.));
#566=CARTESIAN_POINT('',(-0.850672675005089,-1.25,-1.00000000000001));
#567=CARTESIAN_POINT('',(-0.85067267500491,-1.25,20.9080749503476));
#568=CARTESIAN_POINT('',(-3.75,-1.24999999999999,10.));
#569=CARTESIAN_POINT('',(0.,0.,-1.));
#570=CARTESIAN_POINT('',(1.25,-0.850672675004906,-1.));
#571=CARTESIAN_POINT('',(1.25,-0.850672675004906,-1.));
#572=CARTESIAN_POINT('',(1.25,-0.588667517197766,-0.852592176946508));
#573=CARTESIAN_POINT('',(1.25,-0.298970989897314,-0.738053050533647));
#574=CARTESIAN_POINT('',(1.25,0.298527215837152,-0.737946988853439));
#575=CARTESIAN_POINT('',(1.25,0.589387921750876,-0.852997486780007));
#576=CARTESIAN_POINT('',(1.25,0.850672675004916,-0.999999999999989));
#577=CARTESIAN_POINT('',(1.25,0.850672675004906,-1.));
#578=CARTESIAN_POINT('',(0.,0.,-1.));
#579=CARTESIAN_POINT('',(0.,0.,-1.));
#580=CARTESIAN_POINT('',(0.,0.,-1.));
#581=CARTESIAN_POINT('',(0.,0.,0.));
#582=CARTESIAN_POINT('',(0.,0.,-3.75));
#583=CARTESIAN_POINT('',(1.25,-0.850672675004907,-5.));
#584=CARTESIAN_POINT('',(1.25,0.850672675004907,-5.));
#585=CARTESIAN_POINT('',(1.25,-3.75,-5.));
#586=CARTESIAN_POINT('',(1.25,-3.75,-5.));
#587=CARTESIAN_POINT('',(1.25,0.850672675004906,20.9080749503476));
#588=CARTESIAN_POINT('',(1.25,-0.850672675004906,20.9080749503476));
#589=CARTESIAN_POINT('',(1.25,-3.75,10.));
#590=CARTESIAN_POINT('',(0.,0.,-5.5));
#591=CARTESIAN_POINT('',(1.512,0.,-5.5));
#592=CARTESIAN_POINT('',(0.,0.,20.9080749503476));
#593=CARTESIAN_POINT('',(0.,0.,-6.763));
#594=CARTESIAN_POINT('',(3.54034767428582,0.,-37.5));
#595=CARTESIAN_POINT('',(0.,0.,-39.));
#596=CARTESIAN_POINT('',(0.,0.,-39.));
#597=CARTESIAN_POINT('',(1.54034767428581,0.,-39.));
#598=CARTESIAN_POINT('',(0.,0.,-39.));
#599=CARTESIAN_POINT('',(0.,0.,-45.75));
#600=CARTESIAN_POINT('',(1.54034767428581,0.,-45.75));
#601=CARTESIAN_POINT('',(0.,0.,20.9080749503476));
#602=CARTESIAN_POINT('',(1.35791935920899E-14,0.,-47.7387383461958));
#603=CARTESIAN_POINT('',(-1.22626165380416,0.,-47.7387383461958));
#604=CARTESIAN_POINT('',(0.,0.,-50.));
#605=CARTESIAN_POINT('',(1.4432899320127E-14,0.,-48.965));
#606=CARTESIAN_POINT('',(1.33226762955019E-14,0.,-47.3446523257142));
#607=MECHANICAL_DESIGN_GEOMETRIC_PRESENTATION_REPRESENTATION('',(#322,#323,
#324,#325,#326,#327,#328,#329,#330),#608);
#608=(
GEOMETRIC_REPRESENTATION_CONTEXT(3)
GLOBAL_UNCERTAINTY_ASSIGNED_CONTEXT((#609))
GLOBAL_UNIT_ASSIGNED_CONTEXT((#615,#611,#610))
REPRESENTATION_CONTEXT('TOOL','TOP_LEVEL_ASSEMBLY_PART')
);
#609=UNCERTAINTY_MEASURE_WITH_UNIT(LENGTH_MEASURE(0.0508),#615,
'DISTANCE_ACCURACY_VALUE','Maximum Tolerance applied to model');
#610=(
NAMED_UNIT(*)
SI_UNIT($,.STERADIAN.)
SOLID_ANGLE_UNIT()
);
#611=(
CONVERSION_BASED_UNIT('DEGREE',#613)
NAMED_UNIT(#612)
PLANE_ANGLE_UNIT()
);
#612=DIMENSIONAL_EXPONENTS(0.,0.,0.,0.,0.,0.,0.);
#613=PLANE_ANGLE_MEASURE_WITH_UNIT(PLANE_ANGLE_MEASURE(0.0174532925),#614);
#614=(
NAMED_UNIT(*)
PLANE_ANGLE_UNIT()
SI_UNIT($,.RADIAN.)
);
#615=(
LENGTH_UNIT()
NAMED_UNIT(*)
SI_UNIT(.MILLI.,.METRE.)
);
ENDSEC;
END-ISO-10303-21;
