ISO-10303-21;
HEADER;
/* Generated by software containing ST-Developer
 * from STEP Tools, Inc. (www.steptools.com) 
 */
/* OPTION: using custom schema-name function */

FILE_DESCRIPTION(
/* description */ (''),
/* implementation_level */ '2;1');

FILE_NAME(
/* name */ 'TOOL.STP',
/* time_stamp */ '2022-11-11T06:14:21+01:00',
/* author */ (''),
/* organization */ ('SMS'),
/* preprocessor_version */ 'ST-DEVELOPER v16.7',
/* originating_system */ 'SIEMENS PLM Software NX 12.0',
/* authorisation */ '');

FILE_SCHEMA (('AUTOMOTIVE_DESIGN { 1 0 10303 214 3 1 1 1 }'));
ENDSEC;

DATA;
#10=CONSTRUCTIVE_GEOMETRY_REPRESENTATION_RELATIONSHIP(
'supplemental geometry','',#26,#11);
#11=CONSTRUCTIVE_GEOMETRY_REPRESENTATION('supplemental geometry',(#361,
#362,#363),#627);
#12=GEOMETRICALLY_BOUNDED_WIREFRAME_SHAPE_REPRESENTATION('Tool-None',(#27),
#627);
#13=SHAPE_REPRESENTATION_RELATIONSHIP('None',
'relationship between Tool-None and Tool-None',#26,#15);
#14=SHAPE_REPRESENTATION_RELATIONSHIP('None',
'relationship between Tool-None and Tool-None',#26,#12);
#15=ADVANCED_BREP_SHAPE_REPRESENTATION('Tool-None',(#39,#40),#627);
#16=SHAPE_DEFINITION_REPRESENTATION(#17,#26);
#17=PRODUCT_DEFINITION_SHAPE('','',#18);
#18=PRODUCT_DEFINITION(' ','',#20,#19);
#19=PRODUCT_DEFINITION_CONTEXT('part definition',#25,'design');
#20=PRODUCT_DEFINITION_FORMATION_WITH_SPECIFIED_SOURCE(' ',' ',#22,
 .NOT_KNOWN.);
#21=PRODUCT_RELATED_PRODUCT_CATEGORY('part','',(#22));
#22=PRODUCT('Tool','Tool',' ',(#23));
#23=PRODUCT_CONTEXT(' ',#25,'mechanical');
#24=APPLICATION_PROTOCOL_DEFINITION('international standard',
'automotive_design',2010,#25);
#25=APPLICATION_CONTEXT(
'core data for automotive mechanical design processes');
#26=SHAPE_REPRESENTATION('Tool-None',(#360),#627);
#27=GEOMETRIC_CURVE_SET('None',(#502,#503,#504,#325));
#28=VERTEX_LOOP('',#268);
#29=SURFACE_STYLE_USAGE(.BOTH.,#31);
#30=SURFACE_STYLE_USAGE(.BOTH.,#32);
#31=SURFACE_SIDE_STYLE('',(#33));
#32=SURFACE_SIDE_STYLE('',(#34));
#33=SURFACE_STYLE_FILL_AREA(#35);
#34=SURFACE_STYLE_FILL_AREA(#36);
#35=FILL_AREA_STYLE('',(#37));
#36=FILL_AREA_STYLE('',(#38));
#37=FILL_AREA_STYLE_COLOUR('',#359);
#38=FILL_AREA_STYLE_COLOUR('',#359);
#39=MANIFOLD_SOLID_BREP('NOCUT',#41);
#40=MANIFOLD_SOLID_BREP('CUT',#42);
#41=CLOSED_SHELL('',(#99,#100,#101,#102,#103,#104,#105,#106,#107,#108,#109,
#110,#111,#112,#113,#114,#115));
#42=CLOSED_SHELL('',(#116,#117,#118,#119));
#43=LINE('',#544,#55);
#44=LINE('',#546,#56);
#45=LINE('',#555,#57);
#46=LINE('',#560,#58);
#47=LINE('',#562,#59);
#48=LINE('',#571,#60);
#49=LINE('',#576,#61);
#50=LINE('',#578,#62);
#51=LINE('',#587,#63);
#52=LINE('',#605,#64);
#53=LINE('',#607,#65);
#54=LINE('',#608,#66);
#55=VECTOR('',#435,1.);
#56=VECTOR('',#438,1.);
#57=VECTOR('',#439,1.);
#58=VECTOR('',#444,1.);
#59=VECTOR('',#447,1.);
#60=VECTOR('',#448,1.);
#61=VECTOR('',#453,1.);
#62=VECTOR('',#456,1.);
#63=VECTOR('',#457,1.);
#64=VECTOR('',#472,1.);
#65=VECTOR('',#475,1.);
#66=VECTOR('',#476,1.);
#67=ELLIPSE('',#375,4.07293505963452,2.88);
#68=ELLIPSE('',#378,4.07293505963452,2.88);
#69=ELLIPSE('',#381,4.07293505963452,2.88);
#70=ELLIPSE('',#389,4.07293505963452,2.88);
#71=PLANE('',#374);
#72=PLANE('',#376);
#73=PLANE('',#377);
#74=PLANE('',#379);
#75=PLANE('',#380);
#76=PLANE('',#382);
#77=PLANE('',#383);
#78=PLANE('',#390);
#79=PLANE('',#391);
#80=PLANE('',#395);
#81=PLANE('',#397);
#82=FACE_OUTER_BOUND('',#152,.T.);
#83=FACE_OUTER_BOUND('',#153,.T.);
#84=FACE_OUTER_BOUND('',#154,.T.);
#85=FACE_OUTER_BOUND('',#155,.T.);
#86=FACE_OUTER_BOUND('',#156,.T.);
#87=FACE_OUTER_BOUND('',#157,.T.);
#88=FACE_OUTER_BOUND('',#158,.T.);
#89=FACE_OUTER_BOUND('',#161,.T.);
#90=FACE_OUTER_BOUND('',#162,.T.);
#91=FACE_OUTER_BOUND('',#167,.T.);
#92=FACE_OUTER_BOUND('',#168,.T.);
#93=TOROIDAL_SURFACE('',#372,4.09999999999999,1.1);
#94=CONICAL_SURFACE('',#371,2.99999999999999,30.0000000000001);
#95=CONICAL_SURFACE('',#388,1.68,45.);
#96=CONICAL_SURFACE('',#394,4.2,44.9999999999999);
#97=CONICAL_SURFACE('',#401,3.07148836885611,8.76909003502711);
#98=CONICAL_SURFACE('',#402,4.23372558851653,45.);
#99=ADVANCED_FACE('',(#124,#125),#120,.T.);
#100=ADVANCED_FACE('',(#126,#127),#121,.T.);
#101=ADVANCED_FACE('',(#128,#129),#94,.T.);
#102=ADVANCED_FACE('',(#130,#131),#93,.F.);
#103=ADVANCED_FACE('',(#82),#71,.F.);
#104=ADVANCED_FACE('',(#83),#72,.T.);
#105=ADVANCED_FACE('',(#84),#73,.T.);
#106=ADVANCED_FACE('',(#85),#74,.T.);
#107=ADVANCED_FACE('',(#86),#75,.T.);
#108=ADVANCED_FACE('',(#87),#76,.T.);
#109=ADVANCED_FACE('',(#88),#77,.T.);
#110=ADVANCED_FACE('',(#132,#133),#95,.T.);
#111=ADVANCED_FACE('',(#89),#78,.T.);
#112=ADVANCED_FACE('',(#90),#79,.T.);
#113=ADVANCED_FACE('',(#134,#135),#122,.T.);
#114=ADVANCED_FACE('',(#136,#137),#96,.T.);
#115=ADVANCED_FACE('',(#91),#80,.T.);
#116=ADVANCED_FACE('',(#92),#81,.T.);
#117=ADVANCED_FACE('',(#138,#139),#123,.T.);
#118=ADVANCED_FACE('',(#140,#141),#97,.T.);
#119=ADVANCED_FACE('',(#142,#143),#98,.T.);
#120=CYLINDRICAL_SURFACE('',#366,4.05872558851655);
#121=CYLINDRICAL_SURFACE('',#369,2.99999999999999);
#122=CYLINDRICAL_SURFACE('',#393,2.88);
#123=CYLINDRICAL_SURFACE('',#399,4.05872558851655);
#124=FACE_BOUND('',#144,.T.);
#125=FACE_BOUND('',#145,.T.);
#126=FACE_BOUND('',#146,.T.);
#127=FACE_BOUND('',#147,.T.);
#128=FACE_BOUND('',#148,.T.);
#129=FACE_BOUND('',#149,.T.);
#130=FACE_BOUND('',#150,.T.);
#131=FACE_BOUND('',#151,.T.);
#132=FACE_BOUND('',#159,.T.);
#133=FACE_BOUND('',#160,.T.);
#134=FACE_BOUND('',#163,.T.);
#135=FACE_BOUND('',#164,.T.);
#136=FACE_BOUND('',#165,.T.);
#137=FACE_BOUND('',#166,.T.);
#138=FACE_BOUND('',#169,.T.);
#139=FACE_BOUND('',#170,.T.);
#140=FACE_BOUND('',#171,.T.);
#141=FACE_BOUND('',#172,.T.);
#142=FACE_BOUND('',#173,.T.);
#143=FACE_BOUND('',#28,.T.);
#144=EDGE_LOOP('',(#174));
#145=EDGE_LOOP('',(#175));
#146=EDGE_LOOP('',(#176));
#147=EDGE_LOOP('',(#177));
#148=EDGE_LOOP('',(#178));
#149=EDGE_LOOP('',(#179));
#150=EDGE_LOOP('',(#180));
#151=EDGE_LOOP('',(#181));
#152=EDGE_LOOP('',(#182));
#153=EDGE_LOOP('',(#183,#184));
#154=EDGE_LOOP('',(#185,#186,#187,#188));
#155=EDGE_LOOP('',(#189,#190));
#156=EDGE_LOOP('',(#191,#192,#193,#194));
#157=EDGE_LOOP('',(#195,#196));
#158=EDGE_LOOP('',(#197,#198,#199,#200));
#159=EDGE_LOOP('',(#201));
#160=EDGE_LOOP('',(#202,#203,#204,#205,#206,#207,#208,#209));
#161=EDGE_LOOP('',(#210,#211));
#162=EDGE_LOOP('',(#212,#213,#214,#215));
#163=EDGE_LOOP('',(#216));
#164=EDGE_LOOP('',(#217,#218,#219,#220,#221,#222,#223,#224,#225,#226,#227,
#228,#229,#230,#231,#232));
#165=EDGE_LOOP('',(#233));
#166=EDGE_LOOP('',(#234));
#167=EDGE_LOOP('',(#235));
#168=EDGE_LOOP('',(#236));
#169=EDGE_LOOP('',(#237));
#170=EDGE_LOOP('',(#238));
#171=EDGE_LOOP('',(#239));
#172=EDGE_LOOP('',(#240));
#173=EDGE_LOOP('',(#241));
#174=ORIENTED_EDGE('',*,*,#269,.T.);
#175=ORIENTED_EDGE('',*,*,#270,.T.);
#176=ORIENTED_EDGE('',*,*,#271,.T.);
#177=ORIENTED_EDGE('',*,*,#272,.T.);
#178=ORIENTED_EDGE('',*,*,#273,.T.);
#179=ORIENTED_EDGE('',*,*,#269,.F.);
#180=ORIENTED_EDGE('',*,*,#271,.F.);
#181=ORIENTED_EDGE('',*,*,#273,.F.);
#182=ORIENTED_EDGE('',*,*,#274,.T.);
#183=ORIENTED_EDGE('',*,*,#275,.T.);
#184=ORIENTED_EDGE('',*,*,#276,.T.);
#185=ORIENTED_EDGE('',*,*,#277,.T.);
#186=ORIENTED_EDGE('',*,*,#278,.F.);
#187=ORIENTED_EDGE('',*,*,#279,.T.);
#188=ORIENTED_EDGE('',*,*,#276,.F.);
#189=ORIENTED_EDGE('',*,*,#280,.T.);
#190=ORIENTED_EDGE('',*,*,#281,.T.);
#191=ORIENTED_EDGE('',*,*,#282,.T.);
#192=ORIENTED_EDGE('',*,*,#283,.F.);
#193=ORIENTED_EDGE('',*,*,#284,.T.);
#194=ORIENTED_EDGE('',*,*,#281,.F.);
#195=ORIENTED_EDGE('',*,*,#285,.T.);
#196=ORIENTED_EDGE('',*,*,#286,.T.);
#197=ORIENTED_EDGE('',*,*,#287,.T.);
#198=ORIENTED_EDGE('',*,*,#288,.F.);
#199=ORIENTED_EDGE('',*,*,#289,.T.);
#200=ORIENTED_EDGE('',*,*,#286,.F.);
#201=ORIENTED_EDGE('',*,*,#274,.F.);
#202=ORIENTED_EDGE('',*,*,#290,.T.);
#203=ORIENTED_EDGE('',*,*,#291,.T.);
#204=ORIENTED_EDGE('',*,*,#292,.T.);
#205=ORIENTED_EDGE('',*,*,#278,.T.);
#206=ORIENTED_EDGE('',*,*,#293,.T.);
#207=ORIENTED_EDGE('',*,*,#283,.T.);
#208=ORIENTED_EDGE('',*,*,#294,.T.);
#209=ORIENTED_EDGE('',*,*,#288,.T.);
#210=ORIENTED_EDGE('',*,*,#295,.T.);
#211=ORIENTED_EDGE('',*,*,#296,.T.);
#212=ORIENTED_EDGE('',*,*,#297,.T.);
#213=ORIENTED_EDGE('',*,*,#291,.F.);
#214=ORIENTED_EDGE('',*,*,#298,.T.);
#215=ORIENTED_EDGE('',*,*,#296,.F.);
#216=ORIENTED_EDGE('',*,*,#299,.F.);
#217=ORIENTED_EDGE('',*,*,#297,.F.);
#218=ORIENTED_EDGE('',*,*,#295,.F.);
#219=ORIENTED_EDGE('',*,*,#298,.F.);
#220=ORIENTED_EDGE('',*,*,#290,.F.);
#221=ORIENTED_EDGE('',*,*,#287,.F.);
#222=ORIENTED_EDGE('',*,*,#285,.F.);
#223=ORIENTED_EDGE('',*,*,#289,.F.);
#224=ORIENTED_EDGE('',*,*,#294,.F.);
#225=ORIENTED_EDGE('',*,*,#282,.F.);
#226=ORIENTED_EDGE('',*,*,#280,.F.);
#227=ORIENTED_EDGE('',*,*,#284,.F.);
#228=ORIENTED_EDGE('',*,*,#293,.F.);
#229=ORIENTED_EDGE('',*,*,#277,.F.);
#230=ORIENTED_EDGE('',*,*,#275,.F.);
#231=ORIENTED_EDGE('',*,*,#279,.F.);
#232=ORIENTED_EDGE('',*,*,#292,.F.);
#233=ORIENTED_EDGE('',*,*,#299,.T.);
#234=ORIENTED_EDGE('',*,*,#272,.F.);
#235=ORIENTED_EDGE('',*,*,#270,.F.);
#236=ORIENTED_EDGE('',*,*,#300,.F.);
#237=ORIENTED_EDGE('',*,*,#301,.F.);
#238=ORIENTED_EDGE('',*,*,#300,.T.);
#239=ORIENTED_EDGE('',*,*,#301,.T.);
#240=ORIENTED_EDGE('',*,*,#302,.T.);
#241=ORIENTED_EDGE('',*,*,#302,.F.);
#242=VERTEX_POINT('',#525);
#243=VERTEX_POINT('',#527);
#244=VERTEX_POINT('',#530);
#245=VERTEX_POINT('',#532);
#246=VERTEX_POINT('',#535);
#247=VERTEX_POINT('',#539);
#248=VERTEX_POINT('',#542);
#249=VERTEX_POINT('',#543);
#250=VERTEX_POINT('',#547);
#251=VERTEX_POINT('',#554);
#252=VERTEX_POINT('',#558);
#253=VERTEX_POINT('',#559);
#254=VERTEX_POINT('',#563);
#255=VERTEX_POINT('',#570);
#256=VERTEX_POINT('',#574);
#257=VERTEX_POINT('',#575);
#258=VERTEX_POINT('',#579);
#259=VERTEX_POINT('',#586);
#260=VERTEX_POINT('',#590);
#261=VERTEX_POINT('',#597);
#262=VERTEX_POINT('',#603);
#263=VERTEX_POINT('',#604);
#264=VERTEX_POINT('',#611);
#265=VERTEX_POINT('',#616);
#266=VERTEX_POINT('',#619);
#267=VERTEX_POINT('',#622);
#268=VERTEX_POINT('',#624);
#269=EDGE_CURVE('',#242,#242,#303,.T.);
#270=EDGE_CURVE('',#243,#243,#304,.T.);
#271=EDGE_CURVE('',#244,#244,#305,.T.);
#272=EDGE_CURVE('',#245,#245,#306,.T.);
#273=EDGE_CURVE('',#246,#246,#307,.T.);
#274=EDGE_CURVE('',#247,#247,#308,.T.);
#275=EDGE_CURVE('',#248,#249,#67,.T.);
#276=EDGE_CURVE('',#249,#248,#43,.T.);
#277=EDGE_CURVE('',#249,#250,#44,.T.);
#278=EDGE_CURVE('',#251,#250,#326,.T.);
#279=EDGE_CURVE('',#251,#248,#45,.T.);
#280=EDGE_CURVE('',#252,#253,#68,.T.);
#281=EDGE_CURVE('',#253,#252,#46,.T.);
#282=EDGE_CURVE('',#253,#254,#47,.T.);
#283=EDGE_CURVE('',#255,#254,#327,.T.);
#284=EDGE_CURVE('',#255,#252,#48,.T.);
#285=EDGE_CURVE('',#256,#257,#69,.T.);
#286=EDGE_CURVE('',#257,#256,#49,.T.);
#287=EDGE_CURVE('',#257,#258,#50,.T.);
#288=EDGE_CURVE('',#259,#258,#328,.T.);
#289=EDGE_CURVE('',#259,#256,#51,.T.);
#290=EDGE_CURVE('',#258,#260,#309,.T.);
#291=EDGE_CURVE('',#260,#261,#329,.T.);
#292=EDGE_CURVE('',#261,#251,#310,.T.);
#293=EDGE_CURVE('',#250,#255,#311,.T.);
#294=EDGE_CURVE('',#254,#259,#312,.T.);
#295=EDGE_CURVE('',#262,#263,#70,.T.);
#296=EDGE_CURVE('',#263,#262,#52,.T.);
#297=EDGE_CURVE('',#263,#261,#53,.T.);
#298=EDGE_CURVE('',#260,#262,#54,.T.);
#299=EDGE_CURVE('',#264,#264,#313,.T.);
#300=EDGE_CURVE('',#265,#265,#314,.T.);
#301=EDGE_CURVE('',#266,#266,#315,.T.);
#302=EDGE_CURVE('',#267,#267,#316,.T.);
#303=CIRCLE('',#364,4.05872558851655);
#304=CIRCLE('',#365,4.05872558851655);
#305=CIRCLE('',#367,2.99999999999999);
#306=CIRCLE('',#368,3.);
#307=CIRCLE('',#370,3.14737205583711);
#308=CIRCLE('',#373,1.68);
#309=CIRCLE('',#384,2.88);
#310=CIRCLE('',#385,2.88);
#311=CIRCLE('',#386,2.88);
#312=CIRCLE('',#387,2.88);
#313=CIRCLE('',#392,2.88);
#314=CIRCLE('',#396,4.05872558851655);
#315=CIRCLE('',#398,4.05872558851655);
#316=CIRCLE('',#400,3.40279882889119);
#317=CURVE_STYLE('',#321,POSITIVE_LENGTH_MEASURE(0.18),#331);
#318=CURVE_STYLE('',#322,POSITIVE_LENGTH_MEASURE(0.13),#358);
#319=CURVE_STYLE('',#323,POSITIVE_LENGTH_MEASURE(0.18),#357);
#320=CURVE_STYLE('',#324,POSITIVE_LENGTH_MEASURE(0.18),#357);
#321=DRAUGHTING_PRE_DEFINED_CURVE_FONT('continuous');
#322=DRAUGHTING_PRE_DEFINED_CURVE_FONT('continuous');
#323=DRAUGHTING_PRE_DEFINED_CURVE_FONT('continuous');
#324=DRAUGHTING_PRE_DEFINED_CURVE_FONT('continuous');
#325=B_SPLINE_CURVE_WITH_KNOTS('CUTTING PART LINE',3,(#505,#506,#507,#508,
#509,#510,#511,#512,#513,#514,#515,#516,#517,#518,#519,#520),
 .UNSPECIFIED.,.T.,.F.,(4,3,3,3,3,4),(0.,0.0845066005164542,0.527056301106734,
0.627252723392527,0.716834818724448,1.),.UNSPECIFIED.);
#326=B_SPLINE_CURVE_WITH_KNOTS('',3,(#548,#549,#550,#551,#552,#553),
 .UNSPECIFIED.,.F.,.F.,(4,2,4),(0.,0.5,1.),.UNSPECIFIED.);
#327=B_SPLINE_CURVE_WITH_KNOTS('',3,(#564,#565,#566,#567,#568,#569),
 .UNSPECIFIED.,.F.,.F.,(4,2,4),(0.,0.5,1.),.UNSPECIFIED.);
#328=B_SPLINE_CURVE_WITH_KNOTS('',3,(#580,#581,#582,#583,#584,#585),
 .UNSPECIFIED.,.F.,.F.,(4,2,4),(0.,0.5,1.),.UNSPECIFIED.);
#329=B_SPLINE_CURVE_WITH_KNOTS('',3,(#591,#592,#593,#594,#595,#596),
 .UNSPECIFIED.,.F.,.F.,(4,2,4),(0.,0.5,1.),.UNSPECIFIED.);
#330=DRAUGHTING_PRE_DEFINED_COLOUR('white');
#331=DRAUGHTING_PRE_DEFINED_COLOUR('blue');
#332=PRESENTATION_LAYER_ASSIGNMENT('1','Layer 1',(#502,#503,#504,#325,#361,
#362,#363,#39,#40));
#333=STYLED_ITEM('',(#342),#502);
#334=STYLED_ITEM('',(#343),#503);
#335=STYLED_ITEM('',(#344),#504);
#336=STYLED_ITEM('',(#345),#325);
#337=STYLED_ITEM('',(#346),#361);
#338=STYLED_ITEM('',(#347),#362);
#339=STYLED_ITEM('',(#348),#363);
#340=STYLED_ITEM('',(#349),#39);
#341=STYLED_ITEM('',(#350),#40);
#342=PRESENTATION_STYLE_ASSIGNMENT((#351));
#343=PRESENTATION_STYLE_ASSIGNMENT((#352));
#344=PRESENTATION_STYLE_ASSIGNMENT((#353));
#345=PRESENTATION_STYLE_ASSIGNMENT((#317));
#346=PRESENTATION_STYLE_ASSIGNMENT((#318));
#347=PRESENTATION_STYLE_ASSIGNMENT((#319));
#348=PRESENTATION_STYLE_ASSIGNMENT((#320));
#349=PRESENTATION_STYLE_ASSIGNMENT((#29));
#350=PRESENTATION_STYLE_ASSIGNMENT((#30));
#351=POINT_STYLE('',#354,POSITIVE_LENGTH_MEASURE(3.),#357);
#352=POINT_STYLE('',#355,POSITIVE_LENGTH_MEASURE(3.),#330);
#353=POINT_STYLE('',#356,POSITIVE_LENGTH_MEASURE(3.),#357);
#354=PRE_DEFINED_POINT_MARKER_SYMBOL('plus');
#355=PRE_DEFINED_POINT_MARKER_SYMBOL('plus');
#356=PRE_DEFINED_POINT_MARKER_SYMBOL('plus');
#357=COLOUR_RGB('Medium Maroon',0.6,0.4,0.4);
#358=COLOUR_RGB('Silver Gray',0.6,0.6,0.6);
#359=COLOUR_RGB('Pale Sky',0.882337682154574,0.960769054703594,1.);
#360=AXIS2_PLACEMENT_3D('',#501,#403,#404);
#361=AXIS2_PLACEMENT_3D('PCS',#521,#405,#406);
#362=AXIS2_PLACEMENT_3D('MCS',#522,#407,#408);
#363=AXIS2_PLACEMENT_3D('CIP',#523,#409,#410);
#364=AXIS2_PLACEMENT_3D('',#524,#411,#412);
#365=AXIS2_PLACEMENT_3D('',#526,#413,#414);
#366=AXIS2_PLACEMENT_3D('',#528,#415,#416);
#367=AXIS2_PLACEMENT_3D('',#529,#417,#418);
#368=AXIS2_PLACEMENT_3D('',#531,#419,#420);
#369=AXIS2_PLACEMENT_3D('',#533,#421,#422);
#370=AXIS2_PLACEMENT_3D('',#534,#423,#424);
#371=AXIS2_PLACEMENT_3D('',#536,#425,#426);
#372=AXIS2_PLACEMENT_3D('',#537,#427,#428);
#373=AXIS2_PLACEMENT_3D('',#538,#429,#430);
#374=AXIS2_PLACEMENT_3D('',#540,#431,#432);
#375=AXIS2_PLACEMENT_3D('',#541,#433,#434);
#376=AXIS2_PLACEMENT_3D('',#545,#436,#437);
#377=AXIS2_PLACEMENT_3D('',#556,#440,#441);
#378=AXIS2_PLACEMENT_3D('',#557,#442,#443);
#379=AXIS2_PLACEMENT_3D('',#561,#445,#446);
#380=AXIS2_PLACEMENT_3D('',#572,#449,#450);
#381=AXIS2_PLACEMENT_3D('',#573,#451,#452);
#382=AXIS2_PLACEMENT_3D('',#577,#454,#455);
#383=AXIS2_PLACEMENT_3D('',#588,#458,#459);
#384=AXIS2_PLACEMENT_3D('',#589,#460,#461);
#385=AXIS2_PLACEMENT_3D('',#598,#462,#463);
#386=AXIS2_PLACEMENT_3D('',#599,#464,#465);
#387=AXIS2_PLACEMENT_3D('',#600,#466,#467);
#388=AXIS2_PLACEMENT_3D('',#601,#468,#469);
#389=AXIS2_PLACEMENT_3D('',#602,#470,#471);
#390=AXIS2_PLACEMENT_3D('',#606,#473,#474);
#391=AXIS2_PLACEMENT_3D('',#609,#477,#478);
#392=AXIS2_PLACEMENT_3D('',#610,#479,#480);
#393=AXIS2_PLACEMENT_3D('',#612,#481,#482);
#394=AXIS2_PLACEMENT_3D('',#613,#483,#484);
#395=AXIS2_PLACEMENT_3D('',#614,#485,#486);
#396=AXIS2_PLACEMENT_3D('',#615,#487,#488);
#397=AXIS2_PLACEMENT_3D('',#617,#489,#490);
#398=AXIS2_PLACEMENT_3D('',#618,#491,#492);
#399=AXIS2_PLACEMENT_3D('',#620,#493,#494);
#400=AXIS2_PLACEMENT_3D('',#621,#495,#496);
#401=AXIS2_PLACEMENT_3D('',#623,#497,#498);
#402=AXIS2_PLACEMENT_3D('',#625,#499,#500);
#403=DIRECTION('',(0.,0.,1.));
#404=DIRECTION('',(1.,0.,0.));
#405=DIRECTION('',(0.,0.,1.));
#406=DIRECTION('',(1.,0.,0.));
#407=DIRECTION('',(0.,0.,1.));
#408=DIRECTION('',(1.,0.,0.));
#409=DIRECTION('',(0.,0.,1.));
#410=DIRECTION('',(1.,0.,0.));
#411=DIRECTION('',(0.,0.,-1.));
#412=DIRECTION('',(-1.,0.,0.));
#413=DIRECTION('',(0.,0.,1.));
#414=DIRECTION('',(-1.,0.,0.));
#415=DIRECTION('',(0.,0.,1.));
#416=DIRECTION('',(1.,0.,0.));
#417=DIRECTION('',(-1.40762572548749E-16,0.,1.));
#418=DIRECTION('',(-1.,0.,0.));
#419=DIRECTION('',(0.,0.,-1.));
#420=DIRECTION('',(-1.,0.,0.));
#421=DIRECTION('',(1.40762572548749E-16,0.,-1.));
#422=DIRECTION('',(-1.,0.,0.));
#423=DIRECTION('',(1.40762572548749E-16,0.,-1.));
#424=DIRECTION('',(-1.,0.,0.));
#425=DIRECTION('',(1.40762572548749E-16,0.,-1.));
#426=DIRECTION('',(-1.,0.,-1.67389453941925E-16));
#427=DIRECTION('',(1.40762572548749E-16,0.,-1.));
#428=DIRECTION('',(-1.,0.,0.));
#429=DIRECTION('',(0.,0.,1.));
#430=DIRECTION('',(1.,0.,0.));
#431=DIRECTION('',(2.68699542375736E-16,0.,-1.));
#432=DIRECTION('',(-1.,0.,-2.68699542375736E-16));
#433=DIRECTION('',(8.28344032153663E-16,0.707106781186548,0.707106781186547));
#434=DIRECTION('',(-8.28344032153662E-16,-0.707106781186547,0.707106781186548));
#435=DIRECTION('',(1.,-1.17145536458252E-15,0.));
#436=DIRECTION('',(8.28344032153663E-16,0.707106781186548,0.707106781186547));
#437=DIRECTION('',(8.28330459778925E-16,0.707106781186547,-0.707106781186548));
#438=DIRECTION('',(0.,0.,1.));
#439=DIRECTION('',(0.,0.,-1.));
#440=DIRECTION('',(1.17145536458252E-15,1.,0.));
#441=DIRECTION('',(0.,0.,-1.));
#442=DIRECTION('',(-0.707106781186548,1.65668806430733E-15,0.707106781186547));
#443=DIRECTION('',(0.707106781186547,-1.65668806430732E-15,0.707106781186548));
#444=DIRECTION('',(2.34291072916505E-15,1.,0.));
#445=DIRECTION('',(-0.707106781186548,1.65668806430733E-15,0.707106781186547));
#446=DIRECTION('',(-0.707106781186547,1.65666091955785E-15,-0.707106781186548));
#447=DIRECTION('',(0.,0.,1.));
#448=DIRECTION('',(0.,0.,-1.));
#449=DIRECTION('',(-1.,2.34291072916505E-15,0.));
#450=DIRECTION('',(0.,0.,-1.));
#451=DIRECTION('',(-2.64204134232937E-15,-0.707106781186548,0.707106781186547));
#452=DIRECTION('',(2.64204134232936E-15,0.707106781186547,0.707106781186548));
#453=DIRECTION('',(-1.,3.7364106986726E-15,0.));
#454=DIRECTION('',(-2.64204134232937E-15,-0.707106781186548,0.707106781186547));
#455=DIRECTION('',(-2.64198385391268E-15,-0.707106781186547,-0.707106781186548));
#456=DIRECTION('',(0.,0.,1.));
#457=DIRECTION('',(0.,0.,-1.));
#458=DIRECTION('',(-3.7364106986726E-15,-1.,0.));
#459=DIRECTION('',(0.,0.,-1.));
#460=DIRECTION('',(0.,0.,1.));
#461=DIRECTION('',(-1.,0.,0.));
#462=DIRECTION('',(0.,0.,1.));
#463=DIRECTION('',(-1.,0.,0.));
#464=DIRECTION('',(0.,0.,1.));
#465=DIRECTION('',(-1.,0.,0.));
#466=DIRECTION('',(0.,0.,1.));
#467=DIRECTION('',(-1.,0.,0.));
#468=DIRECTION('',(0.,0.,-1.));
#469=DIRECTION('',(-1.,0.,0.));
#470=DIRECTION('',(0.707106781186548,0.,0.707106781186547));
#471=DIRECTION('',(-0.707106781186547,0.,0.707106781186548));
#472=DIRECTION('',(0.,-1.,0.));
#473=DIRECTION('',(0.707106781186548,0.,0.707106781186547));
#474=DIRECTION('',(0.707106781186547,0.,-0.707106781186548));
#475=DIRECTION('',(0.,0.,1.));
#476=DIRECTION('',(0.,0.,-1.));
#477=DIRECTION('',(1.,0.,0.));
#478=DIRECTION('',(0.,0.,-1.));
#479=DIRECTION('',(0.,0.,-1.));
#480=DIRECTION('',(1.,0.,0.));
#481=DIRECTION('',(0.,0.,1.));
#482=DIRECTION('',(1.,0.,0.));
#483=DIRECTION('',(0.,0.,-1.));
#484=DIRECTION('',(-1.,0.,1.0364808659491E-16));
#485=DIRECTION('',(0.,0.,-1.));
#486=DIRECTION('',(-1.,0.,0.));
#487=DIRECTION('',(0.,0.,-1.));
#488=DIRECTION('',(1.,0.,0.));
#489=DIRECTION('',(0.,0.,1.));
#490=DIRECTION('',(1.,0.,0.));
#491=DIRECTION('',(0.,0.,-1.));
#492=DIRECTION('',(1.,0.,0.));
#493=DIRECTION('',(0.,0.,1.));
#494=DIRECTION('',(1.,0.,0.));
#495=DIRECTION('',(0.,0.,1.));
#496=DIRECTION('',(-1.,0.,0.));
#497=DIRECTION('',(0.,0.,1.));
#498=DIRECTION('',(1.,0.,1.76419317692452E-16));
#499=DIRECTION('',(-3.54014697435582E-16,0.,1.));
#500=DIRECTION('',(1.,0.,3.31662738365373E-16));
#501=CARTESIAN_POINT('',(0.,0.,0.));
#502=CARTESIAN_POINT('',(0.,0.,-23.));
#503=CARTESIAN_POINT('CRP',(-4.05872558851655,0.,-90.));
#504=CARTESIAN_POINT('CIP_DCSYS',(0.,0.,-90.));
#505=CARTESIAN_POINT('',(-4.05872558851655,0.,-72.));
#506=CARTESIAN_POINT('',(-2.70581705901104,0.,-72.));
#507=CARTESIAN_POINT('',(-1.35290852950552,0.,-72.));
#508=CARTESIAN_POINT('',(0.,0.,-72.));
#509=CARTESIAN_POINT('',(0.,0.,-79.085));
#510=CARTESIAN_POINT('',(0.,0.,-86.17));
#511=CARTESIAN_POINT('',(6.66133814775094E-16,0.,-93.255));
#512=CARTESIAN_POINT('',(-1.13426627629705,0.,-92.1207337237029));
#513=CARTESIAN_POINT('',(-2.26853255259411,0.,-90.9864674474058));
#514=CARTESIAN_POINT('',(-3.40279882889117,0.,-89.8522011711088));
#515=CARTESIAN_POINT('',(-3.62144108209964,0.,-88.4348007807392));
#516=CARTESIAN_POINT('',(-3.8400833353081,0.,-87.0174003903696));
#517=CARTESIAN_POINT('',(-4.05872558851655,0.,-85.6));
#518=CARTESIAN_POINT('',(-4.05872558851655,0.,-81.0666666666667));
#519=CARTESIAN_POINT('',(-4.05872558851655,0.,-76.5333333333333));
#520=CARTESIAN_POINT('',(-4.05872558851655,0.,-72.));
#521=CARTESIAN_POINT('',(0.,0.,0.));
#522=CARTESIAN_POINT('',(0.,0.,-23.));
#523=CARTESIAN_POINT('',(0.,0.,-90.));
#524=CARTESIAN_POINT('',(0.,0.,-71.6968911086754));
#525=CARTESIAN_POINT('',(-4.05872558851655,0.,-71.6968911086754));
#526=CARTESIAN_POINT('',(0.,0.,-72.));
#527=CARTESIAN_POINT('',(-4.05872558851655,0.,-72.));
#528=CARTESIAN_POINT('',(0.,0.,20.9080749503476));
#529=CARTESIAN_POINT('',(7.56996315996965E-15,0.,-69.5683804864173));
#530=CARTESIAN_POINT('',(-2.99999999999998,0.,-69.5683804864173));
#531=CARTESIAN_POINT('',(0.,0.,-8.92));
#532=CARTESIAN_POINT('',(-3.,0.,-8.92));
#533=CARTESIAN_POINT('',(7.54951656745106E-15,0.,-69.4231245980915));
#534=CARTESIAN_POINT('',(7.64738257487146E-15,0.,-70.1183804864173));
#535=CARTESIAN_POINT('',(-3.1473720558371,0.,-70.1183804864173));
#536=CARTESIAN_POINT('',(7.61145209937251E-15,0.,-69.8631245980915));
#537=CARTESIAN_POINT('',(7.56996315996965E-15,0.,-69.5683804864173));
#538=CARTESIAN_POINT('',(0.,0.,0.));
#539=CARTESIAN_POINT('',(1.68,0.,0.));
#540=CARTESIAN_POINT('',(3.2,0.,4.29919267801178E-16));
#541=CARTESIAN_POINT('',(0.,0.,-5.55));
#542=CARTESIAN_POINT('',(1.51390224255069,2.45,-8.));
#543=CARTESIAN_POINT('',(-1.51390224255068,2.45,-8.));
#544=CARTESIAN_POINT('',(7.35,2.44999999999999,-8.));
#545=CARTESIAN_POINT('',(7.35,2.44999999999999,-8.));
#546=CARTESIAN_POINT('',(-1.51390224255068,2.45,20.9080749503476));
#547=CARTESIAN_POINT('',(-1.51390224255068,2.45,-1.2));
#548=CARTESIAN_POINT('',(1.51390224255069,2.45,-1.2));
#549=CARTESIAN_POINT('',(1.04292668425381,2.45,-0.952426752120761));
#550=CARTESIAN_POINT('',(0.527487040872748,2.45,-0.769950086520582));
#551=CARTESIAN_POINT('',(-0.527950601698213,2.45,-0.770049935406833));
#552=CARTESIAN_POINT('',(-1.04324275720303,2.45,-0.952592899185566));
#553=CARTESIAN_POINT('',(-1.51390224255069,2.45,-1.2));
#554=CARTESIAN_POINT('',(1.51390224255069,2.45,-1.2));
#555=CARTESIAN_POINT('',(1.51390224255069,2.45,20.9080749503476));
#556=CARTESIAN_POINT('',(7.35,2.44999999999999,10.));
#557=CARTESIAN_POINT('',(0.,0.,-5.55));
#558=CARTESIAN_POINT('',(-2.45,1.51390224255069,-8.));
#559=CARTESIAN_POINT('',(-2.45,-1.51390224255068,-8.));
#560=CARTESIAN_POINT('',(-2.44999999999998,7.35000000000001,-8.));
#561=CARTESIAN_POINT('',(-2.44999999999998,7.35000000000001,-8.));
#562=CARTESIAN_POINT('',(-2.45,-1.51390224255068,20.9080749503476));
#563=CARTESIAN_POINT('',(-2.45,-1.51390224255068,-1.2));
#564=CARTESIAN_POINT('',(-2.45,1.51390224255069,-1.2));
#565=CARTESIAN_POINT('',(-2.45,1.04324275720303,-0.952592899185565));
#566=CARTESIAN_POINT('',(-2.45,0.527950601698221,-0.770049935406833));
#567=CARTESIAN_POINT('',(-2.45,-0.52748704087274,-0.769950086520582));
#568=CARTESIAN_POINT('',(-2.45,-1.0429266842538,-0.952426752120761));
#569=CARTESIAN_POINT('',(-2.45,-1.51390224255068,-1.2));
#570=CARTESIAN_POINT('',(-2.45,1.51390224255069,-1.2));
#571=CARTESIAN_POINT('',(-2.45,1.51390224255069,20.9080749503476));
#572=CARTESIAN_POINT('',(-2.44999999999998,7.35000000000001,10.));
#573=CARTESIAN_POINT('',(0.,0.,-5.55));
#574=CARTESIAN_POINT('',(-1.5139022425507,-2.44999999999999,-8.));
#575=CARTESIAN_POINT('',(1.51390224255068,-2.45000000000001,-8.));
#576=CARTESIAN_POINT('',(-7.35000000000001,-2.44999999999997,-8.));
#577=CARTESIAN_POINT('',(-7.35000000000001,-2.44999999999997,-8.));
#578=CARTESIAN_POINT('',(1.51390224255068,-2.45000000000001,20.9080749503476));
#579=CARTESIAN_POINT('',(1.51390224255068,-2.45000000000001,-1.2));
#580=CARTESIAN_POINT('',(-1.5139022425507,-2.44999999999999,-1.2));
#581=CARTESIAN_POINT('',(-1.04324275720304,-2.45,-0.952592899185566));
#582=CARTESIAN_POINT('',(-0.527950601698224,-2.45,-0.770049935406833));
#583=CARTESIAN_POINT('',(0.527487040872737,-2.45,-0.769950086520582));
#584=CARTESIAN_POINT('',(1.0429266842538,-2.45,-0.95242675212076));
#585=CARTESIAN_POINT('',(1.51390224255068,-2.45000000000001,-1.2));
#586=CARTESIAN_POINT('',(-1.5139022425507,-2.44999999999999,-1.2));
#587=CARTESIAN_POINT('',(-1.5139022425507,-2.44999999999999,20.9080749503476));
#588=CARTESIAN_POINT('',(-7.35000000000001,-2.44999999999997,10.));
#589=CARTESIAN_POINT('',(0.,0.,-1.2));
#590=CARTESIAN_POINT('',(2.45,-1.51390224255069,-1.2));
#591=CARTESIAN_POINT('',(2.45,-1.51390224255069,-1.2));
#592=CARTESIAN_POINT('',(2.45,-1.0429266842538,-0.95242675212076));
#593=CARTESIAN_POINT('',(2.45,-0.527487040872745,-0.769950086520582));
#594=CARTESIAN_POINT('',(2.45,0.527950601698215,-0.770049935406833));
#595=CARTESIAN_POINT('',(2.45,1.04324275720303,-0.952592899185565));
#596=CARTESIAN_POINT('',(2.45,1.51390224255069,-1.2));
#597=CARTESIAN_POINT('',(2.45,1.51390224255069,-1.2));
#598=CARTESIAN_POINT('',(0.,0.,-1.2));
#599=CARTESIAN_POINT('',(0.,0.,-1.2));
#600=CARTESIAN_POINT('',(0.,0.,-1.2));
#601=CARTESIAN_POINT('',(0.,0.,0.));
#602=CARTESIAN_POINT('',(0.,0.,-5.55));
#603=CARTESIAN_POINT('',(2.45,-1.51390224255069,-8.));
#604=CARTESIAN_POINT('',(2.45,1.51390224255069,-8.));
#605=CARTESIAN_POINT('',(2.45,-7.35,-8.));
#606=CARTESIAN_POINT('',(2.45,-7.35,-8.));
#607=CARTESIAN_POINT('',(2.45,1.51390224255069,20.9080749503476));
#608=CARTESIAN_POINT('',(2.45,-1.51390224255069,20.9080749503476));
#609=CARTESIAN_POINT('',(2.45,-7.35,10.));
#610=CARTESIAN_POINT('',(0.,0.,-8.8));
#611=CARTESIAN_POINT('',(2.88,0.,-8.8));
#612=CARTESIAN_POINT('',(0.,0.,20.9080749503476));
#613=CARTESIAN_POINT('',(0.,0.,-10.12));
#614=CARTESIAN_POINT('',(0.,0.,-72.));
#615=CARTESIAN_POINT('',(0.,0.,-72.));
#616=CARTESIAN_POINT('',(4.05872558851655,0.,-72.));
#617=CARTESIAN_POINT('',(0.,0.,-72.));
#618=CARTESIAN_POINT('',(0.,0.,-85.6));
#619=CARTESIAN_POINT('',(4.05872558851655,0.,-85.6));
#620=CARTESIAN_POINT('',(0.,0.,20.9080749503476));
#621=CARTESIAN_POINT('',(2.64954236665536E-14,0.,-89.8522011711088));
#622=CARTESIAN_POINT('',(-3.40279882889116,0.,-89.8522011711088));
#623=CARTESIAN_POINT('',(0.,0.,-92.));
#624=CARTESIAN_POINT('',(2.75335310107039E-14,0.,-93.255));
#625=CARTESIAN_POINT('',(2.62012633811537E-14,0.,-89.0212744114834));
#626=MECHANICAL_DESIGN_GEOMETRIC_PRESENTATION_REPRESENTATION('',(#333,#334,
#335,#336,#337,#338,#339,#340,#341),#627);
#627=(
GEOMETRIC_REPRESENTATION_CONTEXT(3)
GLOBAL_UNCERTAINTY_ASSIGNED_CONTEXT((#628))
GLOBAL_UNIT_ASSIGNED_CONTEXT((#634,#630,#629))
REPRESENTATION_CONTEXT('TOOL','TOP_LEVEL_ASSEMBLY_PART')
);
#628=UNCERTAINTY_MEASURE_WITH_UNIT(LENGTH_MEASURE(0.0508),#634,
'DISTANCE_ACCURACY_VALUE','Maximum Tolerance applied to model');
#629=(
NAMED_UNIT(*)
SI_UNIT($,.STERADIAN.)
SOLID_ANGLE_UNIT()
);
#630=(
CONVERSION_BASED_UNIT('DEGREE',#632)
NAMED_UNIT(#631)
PLANE_ANGLE_UNIT()
);
#631=DIMENSIONAL_EXPONENTS(0.,0.,0.,0.,0.,0.,0.);
#632=PLANE_ANGLE_MEASURE_WITH_UNIT(PLANE_ANGLE_MEASURE(0.0174532925),#633);
#633=(
NAMED_UNIT(*)
PLANE_ANGLE_UNIT()
SI_UNIT($,.RADIAN.)
);
#634=(
LENGTH_UNIT()
NAMED_UNIT(*)
SI_UNIT(.MILLI.,.METRE.)
);
ENDSEC;
END-ISO-10303-21;
