ISO-10303-21;
HEADER;
/* Generated by software containing ST-Developer
 * from STEP Tools, Inc. (www.steptools.com) 
 */
/* OPTION: using custom schema-name function */

FILE_DESCRIPTION(
/* description */ (''),
/* implementation_level */ '2;1');

FILE_NAME(
/* name */ 'm266_20220519_053128_tb_1.stp',
/* time_stamp */ '2022-05-19T05:32:49+02:00',
/* author */ (''),
/* organization */ ('SMS'),
/* preprocessor_version */ 'ST-DEVELOPER v16.7',
/* originating_system */ 'SIEMENS PLM Software NX 12.0',
/* authorisation */ '');

FILE_SCHEMA (('AUTOMOTIVE_DESIGN { 1 0 10303 214 3 1 1 1 }'));
ENDSEC;

DATA;
#10=GEOMETRICALLY_BOUNDED_WIREFRAME_SHAPE_REPRESENTATION(
'M266_20220519_053128_TB_1-None',(#25),#568);
#11=SHAPE_REPRESENTATION_RELATIONSHIP('None',
'relationship between M266_20220519_053128_TB_1-None and M266_20220519
_053128_TB_1-None',#24,#13);
#12=SHAPE_REPRESENTATION_RELATIONSHIP('None',
'relationship between M266_20220519_053128_TB_1-None and M266_20220519
_053128_TB_1-None',#24,#10);
#13=ADVANCED_BREP_SHAPE_REPRESENTATION('M266_20220519_053128_TB_1-None',
(#32),#568);
#14=SHAPE_DEFINITION_REPRESENTATION(#15,#24);
#15=PRODUCT_DEFINITION_SHAPE('','',#16);
#16=PRODUCT_DEFINITION(' ','',#18,#17);
#17=PRODUCT_DEFINITION_CONTEXT('part definition',#23,'design');
#18=PRODUCT_DEFINITION_FORMATION_WITH_SPECIFIED_SOURCE(' ',' ',#20,
 .NOT_KNOWN.);
#19=PRODUCT_RELATED_PRODUCT_CATEGORY('part','',(#20));
#20=PRODUCT('M266_20220519_053128_TB_1','M266_20220519_053128_TB_1',' ',
(#21));
#21=PRODUCT_CONTEXT(' ',#23,'mechanical');
#22=APPLICATION_PROTOCOL_DEFINITION('international standard',
'automotive_design',2010,#23);
#23=APPLICATION_CONTEXT(
'core data for automotive mechanical design processes');
#24=SHAPE_REPRESENTATION('M266_20220519_053128_TB_1-None',(#389),#568);
#25=GEOMETRIC_CURVE_SET('None',(#497,#229,#230,#231,#232,#233,#234,#235,
#236,#237,#238,#239,#240,#241,#242,#243,#244,#245,#246,#247,#248,#249,#250,
#251,#252,#253,#254,#255,#256));
#26=SURFACE_STYLE_USAGE(.BOTH.,#27);
#27=SURFACE_SIDE_STYLE('',(#28));
#28=SURFACE_STYLE_FILL_AREA(#29);
#29=FILL_AREA_STYLE('',(#30));
#30=FILL_AREA_STYLE_COLOUR('',#31);
#31=COLOUR_RGB('Light Gray',0.8,0.8,0.8);
#32=MANIFOLD_SOLID_BREP('CUTTING_PART',#33);
#33=CLOSED_SHELL('',(#49,#50,#51,#52,#53,#54,#55,#56,#57,#58,#59,#60,#61));
#34=TOROIDAL_SURFACE('',#406,10.6,1.);
#35=TOROIDAL_SURFACE('',#407,10.6,1.);
#36=CONICAL_SURFACE('',#400,9.6,30.0000000000002);
#37=CONICAL_SURFACE('',#402,10.,30.0000000000002);
#38=CONICAL_SURFACE('',#410,9.,45.0000000000001);
#39=PLANE('',#396);
#40=PLANE('',#409);
#41=PLANE('',#411);
#42=PLANE('',#412);
#43=PLANE('',#413);
#44=FACE_OUTER_BOUND('',#87,.T.);
#45=FACE_OUTER_BOUND('',#100,.T.);
#46=FACE_OUTER_BOUND('',#103,.T.);
#47=FACE_OUTER_BOUND('',#104,.T.);
#48=FACE_OUTER_BOUND('',#105,.T.);
#49=ADVANCED_FACE('',(#67,#68,#69),#62,.T.);
#50=ADVANCED_FACE('',(#44),#39,.F.);
#51=ADVANCED_FACE('',(#70,#71),#63,.T.);
#52=ADVANCED_FACE('',(#72,#73),#36,.T.);
#53=ADVANCED_FACE('',(#74,#75),#37,.T.);
#54=ADVANCED_FACE('',(#76,#77),#64,.T.);
#55=ADVANCED_FACE('',(#78,#79),#34,.F.);
#56=ADVANCED_FACE('',(#80,#81),#35,.F.);
#57=ADVANCED_FACE('',(#45),#40,.F.);
#58=ADVANCED_FACE('',(#82,#83),#38,.T.);
#59=ADVANCED_FACE('',(#46),#41,.T.);
#60=ADVANCED_FACE('',(#47),#42,.T.);
#61=ADVANCED_FACE('',(#48),#43,.T.);
#62=CYLINDRICAL_SURFACE('',#394,10.);
#63=CYLINDRICAL_SURFACE('',#398,10.);
#64=CYLINDRICAL_SURFACE('',#405,9.6);
#65=ELLIPSE('',#392,14.1421356237309,10.);
#66=ELLIPSE('',#393,14.142135623731,10.);
#67=FACE_BOUND('',#84,.T.);
#68=FACE_BOUND('',#85,.T.);
#69=FACE_BOUND('',#86,.T.);
#70=FACE_BOUND('',#88,.T.);
#71=FACE_BOUND('',#89,.T.);
#72=FACE_BOUND('',#90,.T.);
#73=FACE_BOUND('',#91,.T.);
#74=FACE_BOUND('',#92,.T.);
#75=FACE_BOUND('',#93,.T.);
#76=FACE_BOUND('',#94,.T.);
#77=FACE_BOUND('',#95,.T.);
#78=FACE_BOUND('',#96,.T.);
#79=FACE_BOUND('',#97,.T.);
#80=FACE_BOUND('',#98,.T.);
#81=FACE_BOUND('',#99,.T.);
#82=FACE_BOUND('',#101,.T.);
#83=FACE_BOUND('',#102,.T.);
#84=EDGE_LOOP('',(#106));
#85=EDGE_LOOP('',(#107));
#86=EDGE_LOOP('',(#108,#109,#110,#111));
#87=EDGE_LOOP('',(#112));
#88=EDGE_LOOP('',(#113));
#89=EDGE_LOOP('',(#114));
#90=EDGE_LOOP('',(#115));
#91=EDGE_LOOP('',(#116));
#92=EDGE_LOOP('',(#117));
#93=EDGE_LOOP('',(#118));
#94=EDGE_LOOP('',(#119));
#95=EDGE_LOOP('',(#120));
#96=EDGE_LOOP('',(#121));
#97=EDGE_LOOP('',(#122));
#98=EDGE_LOOP('',(#123));
#99=EDGE_LOOP('',(#124));
#100=EDGE_LOOP('',(#125));
#101=EDGE_LOOP('',(#126));
#102=EDGE_LOOP('',(#127));
#103=EDGE_LOOP('',(#128,#129));
#104=EDGE_LOOP('',(#130,#131,#132,#133));
#105=EDGE_LOOP('',(#134,#135));
#106=ORIENTED_EDGE('',*,*,#149,.T.);
#107=ORIENTED_EDGE('',*,*,#150,.T.);
#108=ORIENTED_EDGE('',*,*,#151,.F.);
#109=ORIENTED_EDGE('',*,*,#152,.F.);
#110=ORIENTED_EDGE('',*,*,#153,.F.);
#111=ORIENTED_EDGE('',*,*,#154,.F.);
#112=ORIENTED_EDGE('',*,*,#155,.F.);
#113=ORIENTED_EDGE('',*,*,#156,.F.);
#114=ORIENTED_EDGE('',*,*,#155,.T.);
#115=ORIENTED_EDGE('',*,*,#157,.T.);
#116=ORIENTED_EDGE('',*,*,#149,.F.);
#117=ORIENTED_EDGE('',*,*,#158,.T.);
#118=ORIENTED_EDGE('',*,*,#156,.T.);
#119=ORIENTED_EDGE('',*,*,#159,.T.);
#120=ORIENTED_EDGE('',*,*,#160,.T.);
#121=ORIENTED_EDGE('',*,*,#160,.F.);
#122=ORIENTED_EDGE('',*,*,#157,.F.);
#123=ORIENTED_EDGE('',*,*,#158,.F.);
#124=ORIENTED_EDGE('',*,*,#159,.F.);
#125=ORIENTED_EDGE('',*,*,#161,.T.);
#126=ORIENTED_EDGE('',*,*,#150,.F.);
#127=ORIENTED_EDGE('',*,*,#161,.F.);
#128=ORIENTED_EDGE('',*,*,#151,.T.);
#129=ORIENTED_EDGE('',*,*,#162,.F.);
#130=ORIENTED_EDGE('',*,*,#152,.T.);
#131=ORIENTED_EDGE('',*,*,#162,.T.);
#132=ORIENTED_EDGE('',*,*,#154,.T.);
#133=ORIENTED_EDGE('',*,*,#163,.F.);
#134=ORIENTED_EDGE('',*,*,#153,.T.);
#135=ORIENTED_EDGE('',*,*,#163,.T.);
#136=VERTEX_POINT('',#527);
#137=VERTEX_POINT('',#529);
#138=VERTEX_POINT('',#531);
#139=VERTEX_POINT('',#532);
#140=VERTEX_POINT('',#534);
#141=VERTEX_POINT('',#536);
#142=VERTEX_POINT('',#540);
#143=VERTEX_POINT('',#543);
#144=VERTEX_POINT('',#546);
#145=VERTEX_POINT('',#549);
#146=VERTEX_POINT('',#552);
#147=VERTEX_POINT('',#554);
#148=VERTEX_POINT('',#559);
#149=EDGE_CURVE('',#136,#136,#164,.T.);
#150=EDGE_CURVE('',#137,#137,#165,.T.);
#151=EDGE_CURVE('',#138,#139,#65,.T.);
#152=EDGE_CURVE('',#140,#138,#285,.T.);
#153=EDGE_CURVE('',#141,#140,#66,.T.);
#154=EDGE_CURVE('',#139,#141,#286,.T.);
#155=EDGE_CURVE('',#142,#142,#166,.T.);
#156=EDGE_CURVE('',#143,#143,#167,.T.);
#157=EDGE_CURVE('',#144,#144,#168,.T.);
#158=EDGE_CURVE('',#145,#145,#169,.T.);
#159=EDGE_CURVE('',#146,#146,#170,.T.);
#160=EDGE_CURVE('',#147,#147,#171,.T.);
#161=EDGE_CURVE('',#148,#148,#172,.T.);
#162=EDGE_CURVE('',#138,#139,#287,.T.);
#163=EDGE_CURVE('',#140,#141,#288,.T.);
#164=CIRCLE('',#390,10.);
#165=CIRCLE('',#391,10.);
#166=CIRCLE('',#395,10.);
#167=CIRCLE('',#397,10.);
#168=CIRCLE('',#399,9.73397459621556);
#169=CIRCLE('',#401,9.73397459621557);
#170=CIRCLE('',#403,9.6);
#171=CIRCLE('',#404,9.6);
#172=CIRCLE('',#408,9.);
#173=CURVE_STYLE('',#201,POSITIVE_LENGTH_MEASURE(0.18),#388);
#174=CURVE_STYLE('',#202,POSITIVE_LENGTH_MEASURE(0.18),#388);
#175=CURVE_STYLE('',#203,POSITIVE_LENGTH_MEASURE(0.18),#388);
#176=CURVE_STYLE('',#204,POSITIVE_LENGTH_MEASURE(0.18),#388);
#177=CURVE_STYLE('',#205,POSITIVE_LENGTH_MEASURE(0.18),#388);
#178=CURVE_STYLE('',#206,POSITIVE_LENGTH_MEASURE(0.18),#388);
#179=CURVE_STYLE('',#207,POSITIVE_LENGTH_MEASURE(0.18),#388);
#180=CURVE_STYLE('',#208,POSITIVE_LENGTH_MEASURE(0.18),#388);
#181=CURVE_STYLE('',#209,POSITIVE_LENGTH_MEASURE(0.18),#388);
#182=CURVE_STYLE('',#210,POSITIVE_LENGTH_MEASURE(0.18),#388);
#183=CURVE_STYLE('',#211,POSITIVE_LENGTH_MEASURE(0.18),#388);
#184=CURVE_STYLE('',#212,POSITIVE_LENGTH_MEASURE(0.18),#388);
#185=CURVE_STYLE('',#213,POSITIVE_LENGTH_MEASURE(0.18),#388);
#186=CURVE_STYLE('',#214,POSITIVE_LENGTH_MEASURE(0.18),#388);
#187=CURVE_STYLE('',#215,POSITIVE_LENGTH_MEASURE(0.18),#388);
#188=CURVE_STYLE('',#216,POSITIVE_LENGTH_MEASURE(0.18),#388);
#189=CURVE_STYLE('',#217,POSITIVE_LENGTH_MEASURE(0.18),#388);
#190=CURVE_STYLE('',#218,POSITIVE_LENGTH_MEASURE(0.18),#388);
#191=CURVE_STYLE('',#219,POSITIVE_LENGTH_MEASURE(0.18),#388);
#192=CURVE_STYLE('',#220,POSITIVE_LENGTH_MEASURE(0.18),#388);
#193=CURVE_STYLE('',#221,POSITIVE_LENGTH_MEASURE(0.18),#388);
#194=CURVE_STYLE('',#222,POSITIVE_LENGTH_MEASURE(0.18),#388);
#195=CURVE_STYLE('',#223,POSITIVE_LENGTH_MEASURE(0.18),#388);
#196=CURVE_STYLE('',#224,POSITIVE_LENGTH_MEASURE(0.18),#388);
#197=CURVE_STYLE('',#225,POSITIVE_LENGTH_MEASURE(0.18),#388);
#198=CURVE_STYLE('',#226,POSITIVE_LENGTH_MEASURE(0.18),#388);
#199=CURVE_STYLE('',#227,POSITIVE_LENGTH_MEASURE(0.18),#388);
#200=CURVE_STYLE('',#228,POSITIVE_LENGTH_MEASURE(0.18),#388);
#201=DRAUGHTING_PRE_DEFINED_CURVE_FONT('continuous');
#202=DRAUGHTING_PRE_DEFINED_CURVE_FONT('continuous');
#203=DRAUGHTING_PRE_DEFINED_CURVE_FONT('continuous');
#204=DRAUGHTING_PRE_DEFINED_CURVE_FONT('continuous');
#205=DRAUGHTING_PRE_DEFINED_CURVE_FONT('continuous');
#206=DRAUGHTING_PRE_DEFINED_CURVE_FONT('continuous');
#207=DRAUGHTING_PRE_DEFINED_CURVE_FONT('continuous');
#208=DRAUGHTING_PRE_DEFINED_CURVE_FONT('continuous');
#209=DRAUGHTING_PRE_DEFINED_CURVE_FONT('continuous');
#210=DRAUGHTING_PRE_DEFINED_CURVE_FONT('continuous');
#211=DRAUGHTING_PRE_DEFINED_CURVE_FONT('continuous');
#212=DRAUGHTING_PRE_DEFINED_CURVE_FONT('continuous');
#213=DRAUGHTING_PRE_DEFINED_CURVE_FONT('continuous');
#214=DRAUGHTING_PRE_DEFINED_CURVE_FONT('continuous');
#215=DRAUGHTING_PRE_DEFINED_CURVE_FONT('continuous');
#216=DRAUGHTING_PRE_DEFINED_CURVE_FONT('continuous');
#217=DRAUGHTING_PRE_DEFINED_CURVE_FONT('continuous');
#218=DRAUGHTING_PRE_DEFINED_CURVE_FONT('continuous');
#219=DRAUGHTING_PRE_DEFINED_CURVE_FONT('continuous');
#220=DRAUGHTING_PRE_DEFINED_CURVE_FONT('continuous');
#221=DRAUGHTING_PRE_DEFINED_CURVE_FONT('continuous');
#222=DRAUGHTING_PRE_DEFINED_CURVE_FONT('chain double dash');
#223=DRAUGHTING_PRE_DEFINED_CURVE_FONT('continuous');
#224=DRAUGHTING_PRE_DEFINED_CURVE_FONT('continuous');
#225=DRAUGHTING_PRE_DEFINED_CURVE_FONT('continuous');
#226=DRAUGHTING_PRE_DEFINED_CURVE_FONT('continuous');
#227=DRAUGHTING_PRE_DEFINED_CURVE_FONT('continuous');
#228=DRAUGHTING_PRE_DEFINED_CURVE_FONT('continuous');
#229=TRIMMED_CURVE('Line5_0',#257,(PARAMETER_VALUE(0.)),(
PARAMETER_VALUE(1.)),.T.,.PARAMETER.);
#230=TRIMMED_CURVE('Line6_0',#258,(PARAMETER_VALUE(0.)),(
PARAMETER_VALUE(1.)),.T.,.PARAMETER.);
#231=TRIMMED_CURVE('Line7_0',#259,(PARAMETER_VALUE(0.)),(
PARAMETER_VALUE(1.)),.T.,.PARAMETER.);
#232=TRIMMED_CURVE('Line8_0',#260,(PARAMETER_VALUE(0.)),(
PARAMETER_VALUE(1.)),.T.,.PARAMETER.);
#233=TRIMMED_CURVE('Line9_0',#261,(PARAMETER_VALUE(0.)),(
PARAMETER_VALUE(1.)),.T.,.PARAMETER.);
#234=TRIMMED_CURVE('Line10_0',#262,(PARAMETER_VALUE(0.)),(
PARAMETER_VALUE(1.)),.T.,.PARAMETER.);
#235=TRIMMED_CURVE('Line10_1',#263,(PARAMETER_VALUE(0.)),(
PARAMETER_VALUE(1.)),.T.,.PARAMETER.);
#236=TRIMMED_CURVE('Line11_1',#264,(PARAMETER_VALUE(0.)),(
PARAMETER_VALUE(1.)),.T.,.PARAMETER.);
#237=TRIMMED_CURVE('Line12_1',#265,(PARAMETER_VALUE(0.)),(
PARAMETER_VALUE(1.)),.T.,.PARAMETER.);
#238=TRIMMED_CURVE('Line13_1',#266,(PARAMETER_VALUE(0.)),(
PARAMETER_VALUE(1.)),.T.,.PARAMETER.);
#239=TRIMMED_CURVE('Line1_2',#267,(PARAMETER_VALUE(0.)),(
PARAMETER_VALUE(1.)),.T.,.PARAMETER.);
#240=TRIMMED_CURVE('Line2_2',#268,(PARAMETER_VALUE(0.)),(
PARAMETER_VALUE(1.)),.T.,.PARAMETER.);
#241=TRIMMED_CURVE('Line3_2',#269,(PARAMETER_VALUE(0.)),(
PARAMETER_VALUE(1.)),.T.,.PARAMETER.);
#242=TRIMMED_CURVE('Line4_2',#270,(PARAMETER_VALUE(0.)),(
PARAMETER_VALUE(1.)),.T.,.PARAMETER.);
#243=TRIMMED_CURVE('Line10_3',#271,(PARAMETER_VALUE(0.)),(
PARAMETER_VALUE(1.)),.T.,.PARAMETER.);
#244=TRIMMED_CURVE('Line11_3',#272,(PARAMETER_VALUE(0.)),(
PARAMETER_VALUE(1.)),.T.,.PARAMETER.);
#245=TRIMMED_CURVE('Line12_3',#273,(PARAMETER_VALUE(0.)),(
PARAMETER_VALUE(1.)),.T.,.PARAMETER.);
#246=TRIMMED_CURVE('Line13_3',#274,(PARAMETER_VALUE(0.)),(
PARAMETER_VALUE(1.)),.T.,.PARAMETER.);
#247=TRIMMED_CURVE('Line14_0',#275,(PARAMETER_VALUE(0.)),(
PARAMETER_VALUE(1.)),.T.,.PARAMETER.);
#248=TRIMMED_CURVE('Line15_0',#276,(PARAMETER_VALUE(0.)),(
PARAMETER_VALUE(1.)),.T.,.PARAMETER.);
#249=TRIMMED_CURVE('Line16_0',#277,(PARAMETER_VALUE(0.)),(
PARAMETER_VALUE(1.)),.T.,.PARAMETER.);
#250=TRIMMED_CURVE('Line17_0',#278,(PARAMETER_VALUE(0.)),(
PARAMETER_VALUE(1.)),.T.,.PARAMETER.);
#251=TRIMMED_CURVE('Line18_0',#279,(PARAMETER_VALUE(0.)),(
PARAMETER_VALUE(1.)),.T.,.PARAMETER.);
#252=TRIMMED_CURVE('Line19_0',#280,(PARAMETER_VALUE(0.)),(
PARAMETER_VALUE(1.)),.T.,.PARAMETER.);
#253=TRIMMED_CURVE('Line20_0',#281,(PARAMETER_VALUE(0.)),(
PARAMETER_VALUE(1.)),.T.,.PARAMETER.);
#254=TRIMMED_CURVE('Line21_0',#282,(PARAMETER_VALUE(0.)),(
PARAMETER_VALUE(1.)),.T.,.PARAMETER.);
#255=TRIMMED_CURVE('Line22_0',#283,(PARAMETER_VALUE(0.)),(
PARAMETER_VALUE(1.)),.T.,.PARAMETER.);
#256=TRIMMED_CURVE('Line23_0',#284,(PARAMETER_VALUE(0.)),(
PARAMETER_VALUE(1.)),.T.,.PARAMETER.);
#257=LINE('Line5_0',#498,#289);
#258=LINE('Line6_0',#499,#290);
#259=LINE('Line7_0',#500,#291);
#260=LINE('Line8_0',#501,#292);
#261=LINE('Line9_0',#502,#293);
#262=LINE('Line10_0',#503,#294);
#263=LINE('Line10_1',#504,#295);
#264=LINE('Line11_1',#505,#296);
#265=LINE('Line12_1',#506,#297);
#266=LINE('Line13_1',#507,#298);
#267=LINE('Line1_2',#508,#299);
#268=LINE('Line2_2',#509,#300);
#269=LINE('Line3_2',#510,#301);
#270=LINE('Line4_2',#511,#302);
#271=LINE('Line10_3',#512,#303);
#272=LINE('Line11_3',#513,#304);
#273=LINE('Line12_3',#514,#305);
#274=LINE('Line13_3',#515,#306);
#275=LINE('Line14_0',#516,#307);
#276=LINE('Line15_0',#517,#308);
#277=LINE('Line16_0',#518,#309);
#278=LINE('Line17_0',#519,#310);
#279=LINE('Line18_0',#520,#311);
#280=LINE('Line19_0',#521,#312);
#281=LINE('Line20_0',#522,#313);
#282=LINE('Line21_0',#523,#314);
#283=LINE('Line22_0',#524,#315);
#284=LINE('Line23_0',#525,#316);
#285=LINE('',#533,#317);
#286=LINE('',#537,#318);
#287=LINE('',#562,#319);
#288=LINE('',#564,#320);
#289=VECTOR('',#416,10.);
#290=VECTOR('',#417,20.9630905932978);
#291=VECTOR('',#418,10.);
#292=VECTOR('',#419,0.799999999999997);
#293=VECTOR('',#420,19.5774499472427);
#294=VECTOR('',#421,0.799999999999997);
#295=VECTOR('',#422,53.0369094067022);
#296=VECTOR('',#423,10.);
#297=VECTOR('',#424,53.0369094067022);
#298=VECTOR('',#425,10.);
#299=VECTOR('',#426,40.);
#300=VECTOR('',#427,10.);
#301=VECTOR('',#428,40.);
#302=VECTOR('',#429,10.);
#303=VECTOR('',#430,53.0369094067022);
#304=VECTOR('',#431,10.);
#305=VECTOR('',#432,53.0369094067022);
#306=VECTOR('',#433,10.);
#307=VECTOR('',#434,11.);
#308=VECTOR('',#435,2.54558441227158);
#309=VECTOR('',#436,2.54558441227158);
#310=VECTOR('',#437,5.);
#311=VECTOR('',#438,2.82842712474619);
#312=VECTOR('',#439,18.6);
#313=VECTOR('',#440,2.82842712474619);
#314=VECTOR('',#441,53.0369094067022);
#315=VECTOR('',#442,10.);
#316=VECTOR('',#443,10.);
#317=VECTOR('',#450,1.);
#318=VECTOR('',#453,1.);
#319=VECTOR('',#488,1.);
#320=VECTOR('',#491,1.);
#321=INVISIBILITY((#322,#323,#324));
#322=PRESENTATION_LAYER_ASSIGNMENT('162','Layer 162',(#497,#235,#236,#237,
#238,#243,#244,#245,#246,#247,#248,#249,#250,#251,#252,#253,#254,#255,#256));
#323=PRESENTATION_LAYER_ASSIGNMENT('166','Layer 166',(#229,#230,#231,#232,
#233,#234));
#324=PRESENTATION_LAYER_ASSIGNMENT('170','Layer 170',(#239,#240,#241,#242));
#325=PRESENTATION_LAYER_ASSIGNMENT('1','Layer 1',(#32));
#326=STYLED_ITEM('',(#356),#497);
#327=STYLED_ITEM('',(#357),#229);
#328=STYLED_ITEM('',(#358),#230);
#329=STYLED_ITEM('',(#359),#231);
#330=STYLED_ITEM('',(#360),#232);
#331=STYLED_ITEM('',(#361),#233);
#332=STYLED_ITEM('',(#362),#234);
#333=STYLED_ITEM('',(#363),#235);
#334=STYLED_ITEM('',(#364),#236);
#335=STYLED_ITEM('',(#365),#237);
#336=STYLED_ITEM('',(#366),#238);
#337=STYLED_ITEM('',(#367),#239);
#338=STYLED_ITEM('',(#368),#240);
#339=STYLED_ITEM('',(#369),#241);
#340=STYLED_ITEM('',(#370),#242);
#341=STYLED_ITEM('',(#371),#243);
#342=STYLED_ITEM('',(#372),#244);
#343=STYLED_ITEM('',(#373),#245);
#344=STYLED_ITEM('',(#374),#246);
#345=STYLED_ITEM('',(#375),#247);
#346=STYLED_ITEM('',(#376),#248);
#347=STYLED_ITEM('',(#377),#249);
#348=STYLED_ITEM('',(#378),#250);
#349=STYLED_ITEM('',(#379),#251);
#350=STYLED_ITEM('',(#380),#252);
#351=STYLED_ITEM('',(#381),#253);
#352=STYLED_ITEM('',(#382),#254);
#353=STYLED_ITEM('',(#383),#255);
#354=STYLED_ITEM('',(#384),#256);
#355=STYLED_ITEM('',(#385),#32);
#356=PRESENTATION_STYLE_ASSIGNMENT((#386));
#357=PRESENTATION_STYLE_ASSIGNMENT((#173));
#358=PRESENTATION_STYLE_ASSIGNMENT((#174));
#359=PRESENTATION_STYLE_ASSIGNMENT((#175));
#360=PRESENTATION_STYLE_ASSIGNMENT((#176));
#361=PRESENTATION_STYLE_ASSIGNMENT((#177));
#362=PRESENTATION_STYLE_ASSIGNMENT((#178));
#363=PRESENTATION_STYLE_ASSIGNMENT((#179));
#364=PRESENTATION_STYLE_ASSIGNMENT((#180));
#365=PRESENTATION_STYLE_ASSIGNMENT((#181));
#366=PRESENTATION_STYLE_ASSIGNMENT((#182));
#367=PRESENTATION_STYLE_ASSIGNMENT((#183));
#368=PRESENTATION_STYLE_ASSIGNMENT((#184));
#369=PRESENTATION_STYLE_ASSIGNMENT((#185));
#370=PRESENTATION_STYLE_ASSIGNMENT((#186));
#371=PRESENTATION_STYLE_ASSIGNMENT((#187));
#372=PRESENTATION_STYLE_ASSIGNMENT((#188));
#373=PRESENTATION_STYLE_ASSIGNMENT((#189));
#374=PRESENTATION_STYLE_ASSIGNMENT((#190));
#375=PRESENTATION_STYLE_ASSIGNMENT((#191));
#376=PRESENTATION_STYLE_ASSIGNMENT((#192));
#377=PRESENTATION_STYLE_ASSIGNMENT((#193));
#378=PRESENTATION_STYLE_ASSIGNMENT((#194));
#379=PRESENTATION_STYLE_ASSIGNMENT((#195));
#380=PRESENTATION_STYLE_ASSIGNMENT((#196));
#381=PRESENTATION_STYLE_ASSIGNMENT((#197));
#382=PRESENTATION_STYLE_ASSIGNMENT((#198));
#383=PRESENTATION_STYLE_ASSIGNMENT((#199));
#384=PRESENTATION_STYLE_ASSIGNMENT((#200));
#385=PRESENTATION_STYLE_ASSIGNMENT((#26));
#386=POINT_STYLE('',#387,POSITIVE_LENGTH_MEASURE(3.),#388);
#387=PRE_DEFINED_POINT_MARKER_SYMBOL('plus');
#388=DRAUGHTING_PRE_DEFINED_COLOUR('white');
#389=AXIS2_PLACEMENT_3D('',#496,#414,#415);
#390=AXIS2_PLACEMENT_3D('',#526,#444,#445);
#391=AXIS2_PLACEMENT_3D('',#528,#446,#447);
#392=AXIS2_PLACEMENT_3D('',#530,#448,#449);
#393=AXIS2_PLACEMENT_3D('',#535,#451,#452);
#394=AXIS2_PLACEMENT_3D('',#538,#454,#455);
#395=AXIS2_PLACEMENT_3D('',#539,#456,#457);
#396=AXIS2_PLACEMENT_3D('',#541,#458,#459);
#397=AXIS2_PLACEMENT_3D('',#542,#460,#461);
#398=AXIS2_PLACEMENT_3D('',#544,#462,#463);
#399=AXIS2_PLACEMENT_3D('',#545,#464,#465);
#400=AXIS2_PLACEMENT_3D('',#547,#466,#467);
#401=AXIS2_PLACEMENT_3D('',#548,#468,#469);
#402=AXIS2_PLACEMENT_3D('',#550,#470,#471);
#403=AXIS2_PLACEMENT_3D('',#551,#472,#473);
#404=AXIS2_PLACEMENT_3D('',#553,#474,#475);
#405=AXIS2_PLACEMENT_3D('',#555,#476,#477);
#406=AXIS2_PLACEMENT_3D('',#556,#478,#479);
#407=AXIS2_PLACEMENT_3D('',#557,#480,#481);
#408=AXIS2_PLACEMENT_3D('',#558,#482,#483);
#409=AXIS2_PLACEMENT_3D('',#560,#484,#485);
#410=AXIS2_PLACEMENT_3D('',#561,#486,#487);
#411=AXIS2_PLACEMENT_3D('',#563,#489,#490);
#412=AXIS2_PLACEMENT_3D('',#565,#492,#493);
#413=AXIS2_PLACEMENT_3D('',#566,#494,#495);
#414=DIRECTION('',(0.,0.,1.));
#415=DIRECTION('',(1.,0.,0.));
#416=DIRECTION('',(0.,-1.,0.));
#417=DIRECTION('',(0.,1.92953469193067E-18,-1.));
#418=DIRECTION('',(0.,1.,-1.4210854715202E-15));
#419=DIRECTION('',(0.,-0.500000000000002,0.866025403784437));
#420=DIRECTION('',(0.,0.,1.));
#421=DIRECTION('',(0.,0.500000000000002,0.866025403784437));
#422=DIRECTION('',(0.,-1.00478526705542E-16,1.));
#423=DIRECTION('',(0.,-1.,0.));
#424=DIRECTION('',(0.,0.,-1.));
#425=DIRECTION('',(0.,1.,0.));
#426=DIRECTION('',(0.,0.,-1.));
#427=DIRECTION('',(0.,1.,0.));
#428=DIRECTION('',(0.,-1.33226762955019E-16,1.));
#429=DIRECTION('',(0.,-1.,0.));
#430=DIRECTION('',(0.,-1.00478526705542E-16,1.));
#431=DIRECTION('',(0.,-1.,0.));
#432=DIRECTION('',(0.,0.,-1.));
#433=DIRECTION('',(0.,1.,0.));
#434=DIRECTION('',(0.,1.61486985400023E-16,-1.));
#435=DIRECTION('',(0.,0.707106781186547,-0.707106781186547));
#436=DIRECTION('',(0.,0.707106781186547,0.707106781186547));
#437=DIRECTION('',(0.,-1.,0.));
#438=DIRECTION('',(0.,-0.707106781186547,-0.707106781186548));
#439=DIRECTION('',(0.,9.55030558817338E-17,-1.));
#440=DIRECTION('',(0.,-0.707106781186547,0.707106781186547));
#441=DIRECTION('',(0.,-1.00478526705542E-16,-1.));
#442=DIRECTION('',(0.,-1.,0.));
#443=DIRECTION('',(0.,-1.,-4.44089209850062E-17));
#444=DIRECTION('',(0.,0.,-1.));
#445=DIRECTION('',(-1.,0.,0.));
#446=DIRECTION('',(0.,0.,1.));
#447=DIRECTION('',(1.,0.,0.));
#448=DIRECTION('',(0.,0.707106781186547,0.707106781186548));
#449=DIRECTION('',(0.,0.707106781186548,-0.707106781186547));
#450=DIRECTION('',(0.,0.,-1.));
#451=DIRECTION('',(0.,0.707106781186548,-0.707106781186547));
#452=DIRECTION('',(0.,-0.707106781186547,-0.707106781186548));
#453=DIRECTION('',(0.,0.,1.));
#454=DIRECTION('',(0.,0.,-1.));
#455=DIRECTION('',(-1.,0.,0.));
#456=DIRECTION('',(0.,0.,-1.));
#457=DIRECTION('',(-1.,0.,0.));
#458=DIRECTION('',(0.,0.,-1.));
#459=DIRECTION('',(-1.,0.,0.));
#460=DIRECTION('',(0.,0.,-1.));
#461=DIRECTION('',(-1.,0.,0.));
#462=DIRECTION('',(0.,0.,-1.));
#463=DIRECTION('',(-1.,0.,0.));
#464=DIRECTION('',(0.,0.,-1.));
#465=DIRECTION('',(-1.,0.,0.));
#466=DIRECTION('',(0.,0.,-1.));
#467=DIRECTION('',(-1.,0.,-9.4575561414937E-17));
#468=DIRECTION('',(0.,0.,1.));
#469=DIRECTION('',(1.,0.,0.));
#470=DIRECTION('',(0.,0.,1.));
#471=DIRECTION('',(1.,0.,1.18138941410222E-16));
#472=DIRECTION('',(0.,0.,-1.));
#473=DIRECTION('',(-1.,0.,0.));
#474=DIRECTION('',(0.,0.,1.));
#475=DIRECTION('',(-1.,0.,0.));
#476=DIRECTION('',(0.,0.,-1.));
#477=DIRECTION('',(-1.,0.,0.));
#478=DIRECTION('',(0.,0.,-1.));
#479=DIRECTION('',(-1.,0.,0.));
#480=DIRECTION('',(0.,0.,-1.));
#481=DIRECTION('',(-1.,0.,0.));
#482=DIRECTION('',(0.,0.,-1.));
#483=DIRECTION('',(1.,0.,0.));
#484=DIRECTION('',(0.,0.,1.));
#485=DIRECTION('',(1.,0.,0.));
#486=DIRECTION('',(0.,0.,1.));
#487=DIRECTION('',(1.,0.,0.));
#488=DIRECTION('',(-1.,0.,0.));
#489=DIRECTION('',(0.,0.707106781186547,0.707106781186548));
#490=DIRECTION('',(0.,-0.707106781186548,0.707106781186547));
#491=DIRECTION('',(-1.,0.,0.));
#492=DIRECTION('',(0.,1.,1.5770213417971E-16));
#493=DIRECTION('',(0.,-1.57859836313889E-16,1.));
#494=DIRECTION('',(0.,0.707106781186548,-0.707106781186547));
#495=DIRECTION('',(0.,0.707106781186547,0.707106781186548));
#496=CARTESIAN_POINT('',(0.,0.,0.));
#497=CARTESIAN_POINT('Point1_0',(0.,10.,53.0369094067022));
#498=CARTESIAN_POINT('',(0.,10.,74.));
#499=CARTESIAN_POINT('',(0.,0.,74.));
#500=CARTESIAN_POINT('',(0.,4.04490105498537E-17,53.0369094067022));
#501=CARTESIAN_POINT('',(0.,10.,53.0369094067022));
#502=CARTESIAN_POINT('',(0.,9.6,53.7297297297297));
#503=CARTESIAN_POINT('',(0.,9.6,73.3071796769725));
#504=CARTESIAN_POINT('',(0.,10.,0.));
#505=CARTESIAN_POINT('',(0.,10.,53.0369094067022));
#506=CARTESIAN_POINT('',(0.,0.,53.0369094067022));
#507=CARTESIAN_POINT('',(0.,0.,0.));
#508=CARTESIAN_POINT('',(0.,0.,114.));
#509=CARTESIAN_POINT('',(0.,0.,74.));
#510=CARTESIAN_POINT('',(0.,10.,74.));
#511=CARTESIAN_POINT('',(0.,10.,114.));
#512=CARTESIAN_POINT('',(0.,10.,0.));
#513=CARTESIAN_POINT('',(0.,10.,53.0369094067022));
#514=CARTESIAN_POINT('',(0.,0.,53.0369094067022));
#515=CARTESIAN_POINT('',(0.,0.,0.));
#516=CARTESIAN_POINT('',(0.,8.19999999999999,30.5));
#517=CARTESIAN_POINT('',(0.,8.2,19.5));
#518=CARTESIAN_POINT('',(0.,8.19999999999999,30.5));
#519=CARTESIAN_POINT('',(0.,13.2,25.));
#520=CARTESIAN_POINT('',(0.,12.,34.3));
#521=CARTESIAN_POINT('',(0.,12.,34.3));
#522=CARTESIAN_POINT('',(0.,12.,15.7));
#523=CARTESIAN_POINT('',(0.,-10.,53.0369094067022));
#524=CARTESIAN_POINT('',(0.,0.,53.0369094067022));
#525=CARTESIAN_POINT('',(0.,0.,0.));
#526=CARTESIAN_POINT('',(0.,0.,53.0369094067022));
#527=CARTESIAN_POINT('',(-10.,0.,53.0369094067022));
#528=CARTESIAN_POINT('',(0.,0.,0.999999999999997));
#529=CARTESIAN_POINT('',(10.,0.,0.999999999999997));
#530=CARTESIAN_POINT('',(0.,0.,27.7));
#531=CARTESIAN_POINT('',(5.72363520850167,8.2,19.5));
#532=CARTESIAN_POINT('',(-5.72363520850167,8.2,19.5));
#533=CARTESIAN_POINT('',(5.72363520850167,8.2,-20.9080749503476));
#534=CARTESIAN_POINT('',(5.72363520850169,8.19999999999999,30.5));
#535=CARTESIAN_POINT('',(0.,0.,22.3));
#536=CARTESIAN_POINT('',(-5.72363520850169,8.19999999999999,30.5));
#537=CARTESIAN_POINT('',(-5.72363520850167,8.2,-20.9080749503476));
#538=CARTESIAN_POINT('',(0.,0.,-20.9080749503476));
#539=CARTESIAN_POINT('',(0.,0.,114.));
#540=CARTESIAN_POINT('',(-10.,0.,114.));
#541=CARTESIAN_POINT('',(0.,0.,114.));
#542=CARTESIAN_POINT('',(0.,0.,74.));
#543=CARTESIAN_POINT('',(-10.,0.,74.));
#544=CARTESIAN_POINT('',(0.,0.,0.));
#545=CARTESIAN_POINT('',(0.,0.,53.4976789221608));
#546=CARTESIAN_POINT('',(-9.73397459621556,0.,53.4976789221608));
#547=CARTESIAN_POINT('',(0.,0.,53.7297297297297));
#548=CARTESIAN_POINT('',(0.,0.,73.5392304845413));
#549=CARTESIAN_POINT('',(9.73397459621557,0.,73.5392304845413));
#550=CARTESIAN_POINT('',(0.,0.,74.));
#551=CARTESIAN_POINT('',(0.,0.,73.0392304845413));
#552=CARTESIAN_POINT('',(-9.6,0.,73.0392304845413));
#553=CARTESIAN_POINT('',(0.,0.,53.9976789221609));
#554=CARTESIAN_POINT('',(-9.6,0.,53.9976789221609));
#555=CARTESIAN_POINT('',(0.,0.,0.));
#556=CARTESIAN_POINT('',(0.,0.,53.9976789221609));
#557=CARTESIAN_POINT('',(0.,0.,73.0392304845413));
#558=CARTESIAN_POINT('',(0.,0.,0.));
#559=CARTESIAN_POINT('',(9.,0.,0.));
#560=CARTESIAN_POINT('',(0.,10.,0.));
#561=CARTESIAN_POINT('',(0.,0.,0.));
#562=CARTESIAN_POINT('',(-10.,8.2,19.5));
#563=CARTESIAN_POINT('',(-10.,10.,17.7));
#564=CARTESIAN_POINT('',(-10.,8.19999999999999,30.5));
#565=CARTESIAN_POINT('',(-10.,8.2,19.5));
#566=CARTESIAN_POINT('',(-10.,10.,32.3));
#567=MECHANICAL_DESIGN_GEOMETRIC_PRESENTATION_REPRESENTATION('',(#326,#327,
#328,#329,#330,#331,#332,#333,#334,#335,#336,#337,#338,#339,#340,#341,#342,
#343,#344,#345,#346,#347,#348,#349,#350,#351,#352,#353,#354,#355),#568);
#568=(
GEOMETRIC_REPRESENTATION_CONTEXT(3)
GLOBAL_UNCERTAINTY_ASSIGNED_CONTEXT((#569))
GLOBAL_UNIT_ASSIGNED_CONTEXT((#575,#571,#570))
REPRESENTATION_CONTEXT('m266_20220519_053128_tb_1',
'TOP_LEVEL_ASSEMBLY_PART')
);
#569=UNCERTAINTY_MEASURE_WITH_UNIT(LENGTH_MEASURE(2.E-5),#575,
'DISTANCE_ACCURACY_VALUE','Maximum Tolerance applied to model');
#570=(
NAMED_UNIT(*)
SI_UNIT($,.STERADIAN.)
SOLID_ANGLE_UNIT()
);
#571=(
CONVERSION_BASED_UNIT('DEGREE',#573)
NAMED_UNIT(#572)
PLANE_ANGLE_UNIT()
);
#572=DIMENSIONAL_EXPONENTS(0.,0.,0.,0.,0.,0.,0.);
#573=PLANE_ANGLE_MEASURE_WITH_UNIT(PLANE_ANGLE_MEASURE(0.0174532925),#574);
#574=(
NAMED_UNIT(*)
PLANE_ANGLE_UNIT()
SI_UNIT($,.RADIAN.)
);
#575=(
LENGTH_UNIT()
NAMED_UNIT(*)
SI_UNIT(.MILLI.,.METRE.)
);
ENDSEC;
END-ISO-10303-21;
