ISO-10303-21;
HEADER;
/* Generated by software containing ST-Developer
 * from STEP Tools, Inc. (www.steptools.com) 
 */
/* OPTION: using custom schema-name function */

FILE_DESCRIPTION(
/* description */ (''),
/* implementation_level */ '2;1');

FILE_NAME(
/* name */ 'm266_20220519_052632_tb_1.stp',
/* time_stamp */ '2022-05-19T05:27:22+02:00',
/* author */ (''),
/* organization */ ('SMS'),
/* preprocessor_version */ 'ST-DEVELOPER v16.7',
/* originating_system */ 'SIEMENS PLM Software NX 12.0',
/* authorisation */ '');

FILE_SCHEMA (('AUTOMOTIVE_DESIGN { 1 0 10303 214 3 1 1 1 }'));
ENDSEC;

DATA;
#10=GEOMETRICALLY_BOUNDED_WIREFRAME_SHAPE_REPRESENTATION(
'M266_20220519_052632_TB_1-None',(#25),#339);
#11=SHAPE_REPRESENTATION_RELATIONSHIP('None',
'relationship between M266_20220519_052632_TB_1-None and M266_20220519
_052632_TB_1-None',#24,#13);
#12=SHAPE_REPRESENTATION_RELATIONSHIP('None',
'relationship between M266_20220519_052632_TB_1-None and M266_20220519
_052632_TB_1-None',#24,#10);
#13=ADVANCED_BREP_SHAPE_REPRESENTATION('M266_20220519_052632_TB_1-None',
(#32),#339);
#14=SHAPE_DEFINITION_REPRESENTATION(#15,#24);
#15=PRODUCT_DEFINITION_SHAPE('','',#16);
#16=PRODUCT_DEFINITION(' ','',#18,#17);
#17=PRODUCT_DEFINITION_CONTEXT('part definition',#23,'design');
#18=PRODUCT_DEFINITION_FORMATION_WITH_SPECIFIED_SOURCE(' ',' ',#20,
 .NOT_KNOWN.);
#19=PRODUCT_RELATED_PRODUCT_CATEGORY('part','',(#20));
#20=PRODUCT('M266_20220519_052632_TB_1','M266_20220519_052632_TB_1',' ',
(#21));
#21=PRODUCT_CONTEXT(' ',#23,'mechanical');
#22=APPLICATION_PROTOCOL_DEFINITION('international standard',
'automotive_design',2010,#23);
#23=APPLICATION_CONTEXT(
'core data for automotive mechanical design processes');
#24=SHAPE_REPRESENTATION('M266_20220519_052632_TB_1-None',(#230),#339);
#25=GEOMETRIC_CURVE_SET('None',(#188,#189,#190,#191,#192,#193,#194,#195,
#196,#197,#198,#199,#200,#201));
#26=SURFACE_STYLE_USAGE(.BOTH.,#27);
#27=SURFACE_SIDE_STYLE('',(#28));
#28=SURFACE_STYLE_FILL_AREA(#29);
#29=FILL_AREA_STYLE('',(#30));
#30=FILL_AREA_STYLE_COLOUR('',#31);
#31=COLOUR_RGB('Light Gray',0.8,0.8,0.8);
#32=MANIFOLD_SOLID_BREP('CUTTING_PART',#33);
#33=CLOSED_SHELL('',(#55,#56,#57,#58,#59,#60,#61,#62,#63));
#34=TOROIDAL_SURFACE('',#241,3.4,1.);
#35=TOROIDAL_SURFACE('',#242,3.4,1.);
#36=CONICAL_SURFACE('',#237,2.4,30.);
#37=CONICAL_SURFACE('',#247,2.6,45.);
#38=CYLINDRICAL_SURFACE('',#234,2.5);
#39=CYLINDRICAL_SURFACE('',#240,2.4);
#40=CYLINDRICAL_SURFACE('',#246,3.);
#41=FACE_BOUND('',#69,.T.);
#42=FACE_BOUND('',#70,.T.);
#43=FACE_BOUND('',#71,.T.);
#44=FACE_BOUND('',#72,.T.);
#45=FACE_BOUND('',#73,.T.);
#46=FACE_BOUND('',#74,.T.);
#47=FACE_BOUND('',#75,.T.);
#48=FACE_BOUND('',#76,.T.);
#49=FACE_BOUND('',#77,.T.);
#50=FACE_BOUND('',#78,.T.);
#51=FACE_BOUND('',#80,.T.);
#52=FACE_BOUND('',#81,.T.);
#53=FACE_BOUND('',#82,.T.);
#54=FACE_BOUND('',#83,.T.);
#55=ADVANCED_FACE('',(#66),#64,.F.);
#56=ADVANCED_FACE('',(#41,#42),#38,.T.);
#57=ADVANCED_FACE('',(#43,#44),#36,.T.);
#58=ADVANCED_FACE('',(#45,#46),#39,.T.);
#59=ADVANCED_FACE('',(#47,#48),#34,.F.);
#60=ADVANCED_FACE('',(#49,#50),#35,.F.);
#61=ADVANCED_FACE('',(#67),#65,.F.);
#62=ADVANCED_FACE('',(#51,#52),#40,.T.);
#63=ADVANCED_FACE('',(#53,#54),#37,.T.);
#64=PLANE('',#232);
#65=PLANE('',#244);
#66=FACE_OUTER_BOUND('',#68,.T.);
#67=FACE_OUTER_BOUND('',#79,.T.);
#68=EDGE_LOOP('',(#84));
#69=EDGE_LOOP('',(#85));
#70=EDGE_LOOP('',(#86));
#71=EDGE_LOOP('',(#87));
#72=EDGE_LOOP('',(#88));
#73=EDGE_LOOP('',(#89));
#74=EDGE_LOOP('',(#90));
#75=EDGE_LOOP('',(#91));
#76=EDGE_LOOP('',(#92));
#77=EDGE_LOOP('',(#93));
#78=EDGE_LOOP('',(#94));
#79=EDGE_LOOP('',(#95));
#80=EDGE_LOOP('',(#96));
#81=EDGE_LOOP('',(#97));
#82=EDGE_LOOP('',(#98));
#83=EDGE_LOOP('',(#99));
#84=ORIENTED_EDGE('',*,*,#108,.F.);
#85=ORIENTED_EDGE('',*,*,#109,.F.);
#86=ORIENTED_EDGE('',*,*,#108,.T.);
#87=ORIENTED_EDGE('',*,*,#110,.T.);
#88=ORIENTED_EDGE('',*,*,#111,.F.);
#89=ORIENTED_EDGE('',*,*,#112,.T.);
#90=ORIENTED_EDGE('',*,*,#113,.T.);
#91=ORIENTED_EDGE('',*,*,#113,.F.);
#92=ORIENTED_EDGE('',*,*,#110,.F.);
#93=ORIENTED_EDGE('',*,*,#109,.T.);
#94=ORIENTED_EDGE('',*,*,#112,.F.);
#95=ORIENTED_EDGE('',*,*,#114,.T.);
#96=ORIENTED_EDGE('',*,*,#115,.T.);
#97=ORIENTED_EDGE('',*,*,#111,.T.);
#98=ORIENTED_EDGE('',*,*,#115,.F.);
#99=ORIENTED_EDGE('',*,*,#114,.F.);
#100=VERTEX_POINT('',#314);
#101=VERTEX_POINT('',#317);
#102=VERTEX_POINT('',#320);
#103=VERTEX_POINT('',#322);
#104=VERTEX_POINT('',#325);
#105=VERTEX_POINT('',#327);
#106=VERTEX_POINT('',#332);
#107=VERTEX_POINT('',#335);
#108=EDGE_CURVE('',#100,#100,#116,.T.);
#109=EDGE_CURVE('',#101,#101,#117,.T.);
#110=EDGE_CURVE('',#102,#102,#118,.T.);
#111=EDGE_CURVE('',#103,#103,#119,.T.);
#112=EDGE_CURVE('',#104,#104,#120,.T.);
#113=EDGE_CURVE('',#105,#105,#121,.T.);
#114=EDGE_CURVE('',#106,#106,#122,.T.);
#115=EDGE_CURVE('',#107,#107,#123,.T.);
#116=CIRCLE('',#231,2.5);
#117=CIRCLE('',#233,2.5);
#118=CIRCLE('',#235,2.53397459621556);
#119=CIRCLE('',#236,3.);
#120=CIRCLE('',#238,2.4);
#121=CIRCLE('',#239,2.4);
#122=CIRCLE('',#243,2.6);
#123=CIRCLE('',#245,3.);
#124=INVISIBILITY((#125,#126,#127));
#125=PRESENTATION_LAYER_ASSIGNMENT('166','Layer 166',(#188,#189,#190,#191,
#192,#193));
#126=PRESENTATION_LAYER_ASSIGNMENT('162','Layer 162',(#194,#195,#196,#197));
#127=PRESENTATION_LAYER_ASSIGNMENT('170','Layer 170',(#198,#199,#200,#201));
#128=PRESENTATION_LAYER_ASSIGNMENT('1','Layer 1',(#32));
#129=STYLED_ITEM('',(#144),#188);
#130=STYLED_ITEM('',(#145),#189);
#131=STYLED_ITEM('',(#146),#190);
#132=STYLED_ITEM('',(#147),#191);
#133=STYLED_ITEM('',(#148),#192);
#134=STYLED_ITEM('',(#149),#193);
#135=STYLED_ITEM('',(#150),#194);
#136=STYLED_ITEM('',(#151),#195);
#137=STYLED_ITEM('',(#152),#196);
#138=STYLED_ITEM('',(#153),#197);
#139=STYLED_ITEM('',(#154),#198);
#140=STYLED_ITEM('',(#155),#199);
#141=STYLED_ITEM('',(#156),#200);
#142=STYLED_ITEM('',(#157),#201);
#143=STYLED_ITEM('',(#158),#32);
#144=PRESENTATION_STYLE_ASSIGNMENT((#159));
#145=PRESENTATION_STYLE_ASSIGNMENT((#160));
#146=PRESENTATION_STYLE_ASSIGNMENT((#161));
#147=PRESENTATION_STYLE_ASSIGNMENT((#162));
#148=PRESENTATION_STYLE_ASSIGNMENT((#163));
#149=PRESENTATION_STYLE_ASSIGNMENT((#164));
#150=PRESENTATION_STYLE_ASSIGNMENT((#165));
#151=PRESENTATION_STYLE_ASSIGNMENT((#166));
#152=PRESENTATION_STYLE_ASSIGNMENT((#167));
#153=PRESENTATION_STYLE_ASSIGNMENT((#168));
#154=PRESENTATION_STYLE_ASSIGNMENT((#169));
#155=PRESENTATION_STYLE_ASSIGNMENT((#170));
#156=PRESENTATION_STYLE_ASSIGNMENT((#171));
#157=PRESENTATION_STYLE_ASSIGNMENT((#172));
#158=PRESENTATION_STYLE_ASSIGNMENT((#26));
#159=CURVE_STYLE('',#174,POSITIVE_LENGTH_MEASURE(0.18),#173);
#160=CURVE_STYLE('',#175,POSITIVE_LENGTH_MEASURE(0.18),#173);
#161=CURVE_STYLE('',#176,POSITIVE_LENGTH_MEASURE(0.18),#173);
#162=CURVE_STYLE('',#177,POSITIVE_LENGTH_MEASURE(0.18),#173);
#163=CURVE_STYLE('',#178,POSITIVE_LENGTH_MEASURE(0.18),#173);
#164=CURVE_STYLE('',#179,POSITIVE_LENGTH_MEASURE(0.18),#173);
#165=CURVE_STYLE('',#180,POSITIVE_LENGTH_MEASURE(0.18),#173);
#166=CURVE_STYLE('',#181,POSITIVE_LENGTH_MEASURE(0.18),#173);
#167=CURVE_STYLE('',#182,POSITIVE_LENGTH_MEASURE(0.18),#173);
#168=CURVE_STYLE('',#183,POSITIVE_LENGTH_MEASURE(0.18),#173);
#169=CURVE_STYLE('',#184,POSITIVE_LENGTH_MEASURE(0.18),#173);
#170=CURVE_STYLE('',#185,POSITIVE_LENGTH_MEASURE(0.18),#173);
#171=CURVE_STYLE('',#186,POSITIVE_LENGTH_MEASURE(0.18),#173);
#172=CURVE_STYLE('',#187,POSITIVE_LENGTH_MEASURE(0.18),#173);
#173=DRAUGHTING_PRE_DEFINED_COLOUR('white');
#174=DRAUGHTING_PRE_DEFINED_CURVE_FONT('continuous');
#175=DRAUGHTING_PRE_DEFINED_CURVE_FONT('continuous');
#176=DRAUGHTING_PRE_DEFINED_CURVE_FONT('continuous');
#177=DRAUGHTING_PRE_DEFINED_CURVE_FONT('continuous');
#178=DRAUGHTING_PRE_DEFINED_CURVE_FONT('continuous');
#179=DRAUGHTING_PRE_DEFINED_CURVE_FONT('continuous');
#180=DRAUGHTING_PRE_DEFINED_CURVE_FONT('continuous');
#181=DRAUGHTING_PRE_DEFINED_CURVE_FONT('continuous');
#182=DRAUGHTING_PRE_DEFINED_CURVE_FONT('continuous');
#183=DRAUGHTING_PRE_DEFINED_CURVE_FONT('continuous');
#184=DRAUGHTING_PRE_DEFINED_CURVE_FONT('continuous');
#185=DRAUGHTING_PRE_DEFINED_CURVE_FONT('continuous');
#186=DRAUGHTING_PRE_DEFINED_CURVE_FONT('continuous');
#187=DRAUGHTING_PRE_DEFINED_CURVE_FONT('continuous');
#188=TRIMMED_CURVE('Line5_0',#202,(PARAMETER_VALUE(0.)),(
PARAMETER_VALUE(1.)),.T.,.PARAMETER.);
#189=TRIMMED_CURVE('Line6_0',#203,(PARAMETER_VALUE(0.)),(
PARAMETER_VALUE(1.)),.T.,.PARAMETER.);
#190=TRIMMED_CURVE('Line7_0',#204,(PARAMETER_VALUE(0.)),(
PARAMETER_VALUE(1.)),.T.,.PARAMETER.);
#191=TRIMMED_CURVE('Line8_0',#205,(PARAMETER_VALUE(0.)),(
PARAMETER_VALUE(1.)),.T.,.PARAMETER.);
#192=TRIMMED_CURVE('Line9_0',#206,(PARAMETER_VALUE(0.)),(
PARAMETER_VALUE(1.)),.T.,.PARAMETER.);
#193=TRIMMED_CURVE('Line10_0',#207,(PARAMETER_VALUE(0.)),(
PARAMETER_VALUE(1.)),.T.,.PARAMETER.);
#194=TRIMMED_CURVE('Line10_1',#208,(PARAMETER_VALUE(0.)),(
PARAMETER_VALUE(1.)),.T.,.PARAMETER.);
#195=TRIMMED_CURVE('Line11_1',#209,(PARAMETER_VALUE(0.)),(
PARAMETER_VALUE(1.)),.T.,.PARAMETER.);
#196=TRIMMED_CURVE('Line12_1',#210,(PARAMETER_VALUE(0.)),(
PARAMETER_VALUE(1.)),.T.,.PARAMETER.);
#197=TRIMMED_CURVE('Line13_1',#211,(PARAMETER_VALUE(0.)),(
PARAMETER_VALUE(1.)),.T.,.PARAMETER.);
#198=TRIMMED_CURVE('Line1_2',#212,(PARAMETER_VALUE(0.)),(
PARAMETER_VALUE(1.)),.T.,.PARAMETER.);
#199=TRIMMED_CURVE('Line2_2',#213,(PARAMETER_VALUE(0.)),(
PARAMETER_VALUE(1.)),.T.,.PARAMETER.);
#200=TRIMMED_CURVE('Line3_2',#214,(PARAMETER_VALUE(0.)),(
PARAMETER_VALUE(1.)),.T.,.PARAMETER.);
#201=TRIMMED_CURVE('Line4_2',#215,(PARAMETER_VALUE(0.)),(
PARAMETER_VALUE(1.)),.T.,.PARAMETER.);
#202=LINE('Line5_0',#299,#216);
#203=LINE('Line6_0',#300,#217);
#204=LINE('Line7_0',#301,#218);
#205=LINE('Line8_0',#302,#219);
#206=LINE('Line9_0',#303,#220);
#207=LINE('Line10_0',#304,#221);
#208=LINE('Line10_1',#305,#222);
#209=LINE('Line11_1',#306,#223);
#210=LINE('Line12_1',#307,#224);
#211=LINE('Line13_1',#308,#225);
#212=LINE('Line1_2',#309,#226);
#213=LINE('Line2_2',#310,#227);
#214=LINE('Line3_2',#311,#228);
#215=LINE('Line4_2',#312,#229);
#216=VECTOR('',#250,2.5);
#217=VECTOR('',#251,8.80950075481158);
#218=VECTOR('',#252,3.);
#219=VECTOR('',#253,1.2);
#220=VECTOR('',#254,7.59706518951338);
#221=VECTOR('',#255,0.200000000000007);
#222=VECTOR('',#256,42.1904992451884);
#223=VECTOR('',#257,3.);
#224=VECTOR('',#258,42.1904992451884);
#225=VECTOR('',#259,3.00000000000001);
#226=VECTOR('',#260,15.);
#227=VECTOR('',#261,2.5);
#228=VECTOR('',#262,15.);
#229=VECTOR('',#263,2.5);
#230=AXIS2_PLACEMENT_3D('',#298,#248,#249);
#231=AXIS2_PLACEMENT_3D('',#313,#264,#265);
#232=AXIS2_PLACEMENT_3D('',#315,#266,#267);
#233=AXIS2_PLACEMENT_3D('',#316,#268,#269);
#234=AXIS2_PLACEMENT_3D('',#318,#270,#271);
#235=AXIS2_PLACEMENT_3D('',#319,#272,#273);
#236=AXIS2_PLACEMENT_3D('',#321,#274,#275);
#237=AXIS2_PLACEMENT_3D('',#323,#276,#277);
#238=AXIS2_PLACEMENT_3D('',#324,#278,#279);
#239=AXIS2_PLACEMENT_3D('',#326,#280,#281);
#240=AXIS2_PLACEMENT_3D('',#328,#282,#283);
#241=AXIS2_PLACEMENT_3D('',#329,#284,#285);
#242=AXIS2_PLACEMENT_3D('',#330,#286,#287);
#243=AXIS2_PLACEMENT_3D('',#331,#288,#289);
#244=AXIS2_PLACEMENT_3D('',#333,#290,#291);
#245=AXIS2_PLACEMENT_3D('',#334,#292,#293);
#246=AXIS2_PLACEMENT_3D('',#336,#294,#295);
#247=AXIS2_PLACEMENT_3D('',#337,#296,#297);
#248=DIRECTION('',(0.,0.,1.));
#249=DIRECTION('',(1.,0.,0.));
#250=DIRECTION('',(0.,-1.,0.));
#251=DIRECTION('',(0.,5.50017797700137E-17,-1.));
#252=DIRECTION('',(0.,1.,-4.736951571734E-15));
#253=DIRECTION('',(0.,-0.500000000000002,0.866025403784437));
#254=DIRECTION('',(0.,-4.67642910805148E-16,1.));
#255=DIRECTION('',(0.,0.499999999999999,0.866025403784439));
#256=DIRECTION('',(0.,-1.26309728814325E-16,1.));
#257=DIRECTION('',(0.,-1.,0.));
#258=DIRECTION('',(0.,0.,-1.));
#259=DIRECTION('',(0.,1.,0.));
#260=DIRECTION('',(0.,-1.05181454029468E-31,-1.));
#261=DIRECTION('',(0.,1.,2.8421709430404E-15));
#262=DIRECTION('',(0.,-1.1842378929335E-16,1.));
#263=DIRECTION('',(0.,-1.,0.));
#264=DIRECTION('',(0.,0.,-1.));
#265=DIRECTION('',(-1.,0.,0.));
#266=DIRECTION('',(0.,0.,-1.));
#267=DIRECTION('',(-1.,0.,0.));
#268=DIRECTION('',(0.,0.,-1.));
#269=DIRECTION('',(-1.,0.,0.));
#270=DIRECTION('',(0.,0.,-1.));
#271=DIRECTION('',(-1.,0.,0.));
#272=DIRECTION('',(0.,0.,-1.));
#273=DIRECTION('',(-1.,0.,0.));
#274=DIRECTION('',(0.,0.,-1.));
#275=DIRECTION('',(-1.,0.,0.));
#276=DIRECTION('',(0.,0.,-1.));
#277=DIRECTION('',(-1.,0.,-3.59062907220711E-17));
#278=DIRECTION('',(0.,0.,-1.));
#279=DIRECTION('',(1.,0.,0.));
#280=DIRECTION('',(0.,0.,1.));
#281=DIRECTION('',(-1.,0.,0.));
#282=DIRECTION('',(0.,0.,-1.));
#283=DIRECTION('',(-1.,0.,0.));
#284=DIRECTION('',(0.,0.,-1.));
#285=DIRECTION('',(-1.,0.,0.));
#286=DIRECTION('',(0.,0.,1.));
#287=DIRECTION('',(1.,0.,0.));
#288=DIRECTION('',(0.,0.,-1.));
#289=DIRECTION('',(1.,0.,0.));
#290=DIRECTION('',(0.,0.,1.));
#291=DIRECTION('',(1.,0.,0.));
#292=DIRECTION('',(0.,0.,1.));
#293=DIRECTION('',(1.,0.,0.));
#294=DIRECTION('',(0.,0.,-1.));
#295=DIRECTION('',(-1.,0.,0.));
#296=DIRECTION('',(0.,0.,1.));
#297=DIRECTION('',(1.,0.,0.));
#298=CARTESIAN_POINT('',(0.,0.,0.));
#299=CARTESIAN_POINT('',(0.,2.5,51.));
#300=CARTESIAN_POINT('',(0.,0.,51.));
#301=CARTESIAN_POINT('',(0.,4.84538220399916E-16,42.1904992451884));
#302=CARTESIAN_POINT('',(0.,3.,42.1904992451884));
#303=CARTESIAN_POINT('',(0.,2.4,43.2297297297297));
#304=CARTESIAN_POINT('',(0.,2.4,50.8267949192431));
#305=CARTESIAN_POINT('',(0.,3.00000000000001,0.));
#306=CARTESIAN_POINT('',(0.,3.,42.1904992451884));
#307=CARTESIAN_POINT('',(0.,0.,42.1904992451884));
#308=CARTESIAN_POINT('',(0.,0.,0.));
#309=CARTESIAN_POINT('',(0.,0.,66.));
#310=CARTESIAN_POINT('',(0.,-1.57772181044202E-30,51.));
#311=CARTESIAN_POINT('',(0.,2.5,51.));
#312=CARTESIAN_POINT('',(0.,2.5,66.));
#313=CARTESIAN_POINT('',(0.,0.,66.));
#314=CARTESIAN_POINT('',(-2.5,0.,66.));
#315=CARTESIAN_POINT('',(0.,0.,66.));
#316=CARTESIAN_POINT('',(0.,0.,51.));
#317=CARTESIAN_POINT('',(-2.5,0.,51.));
#318=CARTESIAN_POINT('',(0.,0.,0.));
#319=CARTESIAN_POINT('',(0.,0.,42.9976789221609));
#320=CARTESIAN_POINT('',(-2.53397459621556,0.,42.9976789221609));
#321=CARTESIAN_POINT('',(0.,0.,42.1904992451884));
#322=CARTESIAN_POINT('',(-3.,0.,42.1904992451884));
#323=CARTESIAN_POINT('',(0.,0.,43.2297297297297));
#324=CARTESIAN_POINT('',(0.,0.,50.5641101056459));
#325=CARTESIAN_POINT('',(2.4,0.,50.5641101056459));
#326=CARTESIAN_POINT('',(0.,0.,43.4976789221609));
#327=CARTESIAN_POINT('',(-2.4,0.,43.4976789221609));
#328=CARTESIAN_POINT('',(0.,0.,0.));
#329=CARTESIAN_POINT('',(0.,0.,43.4976789221609));
#330=CARTESIAN_POINT('',(0.,0.,50.5641101056459));
#331=CARTESIAN_POINT('',(0.,0.,0.));
#332=CARTESIAN_POINT('',(2.6,0.,0.));
#333=CARTESIAN_POINT('',(0.,3.00000000000001,0.));
#334=CARTESIAN_POINT('',(0.,0.,0.400000000000001));
#335=CARTESIAN_POINT('',(3.,0.,0.400000000000001));
#336=CARTESIAN_POINT('',(0.,0.,-20.9080749503476));
#337=CARTESIAN_POINT('',(0.,0.,0.));
#338=MECHANICAL_DESIGN_GEOMETRIC_PRESENTATION_REPRESENTATION('',(#129,#130,
#131,#132,#133,#134,#135,#136,#137,#138,#139,#140,#141,#142,#143),#339);
#339=(
GEOMETRIC_REPRESENTATION_CONTEXT(3)
GLOBAL_UNCERTAINTY_ASSIGNED_CONTEXT((#340))
GLOBAL_UNIT_ASSIGNED_CONTEXT((#346,#342,#341))
REPRESENTATION_CONTEXT('m266_20220519_052632_tb_1',
'TOP_LEVEL_ASSEMBLY_PART')
);
#340=UNCERTAINTY_MEASURE_WITH_UNIT(LENGTH_MEASURE(2.E-5),#346,
'DISTANCE_ACCURACY_VALUE','Maximum Tolerance applied to model');
#341=(
NAMED_UNIT(*)
SI_UNIT($,.STERADIAN.)
SOLID_ANGLE_UNIT()
);
#342=(
CONVERSION_BASED_UNIT('DEGREE',#344)
NAMED_UNIT(#343)
PLANE_ANGLE_UNIT()
);
#343=DIMENSIONAL_EXPONENTS(0.,0.,0.,0.,0.,0.,0.);
#344=PLANE_ANGLE_MEASURE_WITH_UNIT(PLANE_ANGLE_MEASURE(0.0174532925),#345);
#345=(
NAMED_UNIT(*)
PLANE_ANGLE_UNIT()
SI_UNIT($,.RADIAN.)
);
#346=(
LENGTH_UNIT()
NAMED_UNIT(*)
SI_UNIT(.MILLI.,.METRE.)
);
ENDSEC;
END-ISO-10303-21;
