ISO-10303-21;
HEADER;
/* Generated by software containing ST-Developer
 * from STEP Tools, Inc. (www.steptools.com) 
 */
/* OPTION: using custom schema-name function */

FILE_DESCRIPTION(
/* description */ (''),
/* implementation_level */ '2;1');

FILE_NAME(
/* name */ 'm266_20220519_052410_tb_1.stp',
/* time_stamp */ '2022-05-19T05:25:08+02:00',
/* author */ (''),
/* organization */ ('SMS'),
/* preprocessor_version */ 'ST-DEVELOPER v16.7',
/* originating_system */ 'SIEMENS PLM Software NX 12.0',
/* authorisation */ '');

FILE_SCHEMA (('AUTOMOTIVE_DESIGN { 1 0 10303 214 3 1 1 1 }'));
ENDSEC;

DATA;
#10=GEOMETRICALLY_BOUNDED_WIREFRAME_SHAPE_REPRESENTATION(
'M266_20220519_052410_TB_1-None',(#25),#448);
#11=SHAPE_REPRESENTATION_RELATIONSHIP('None',
'relationship between M266_20220519_052410_TB_1-None and M266_20220519
_052410_TB_1-None',#24,#13);
#12=SHAPE_REPRESENTATION_RELATIONSHIP('None',
'relationship between M266_20220519_052410_TB_1-None and M266_20220519
_052410_TB_1-None',#24,#10);
#13=ADVANCED_BREP_SHAPE_REPRESENTATION('M266_20220519_052410_TB_1-None',
(#32),#448);
#14=SHAPE_DEFINITION_REPRESENTATION(#15,#24);
#15=PRODUCT_DEFINITION_SHAPE('','',#16);
#16=PRODUCT_DEFINITION(' ','',#18,#17);
#17=PRODUCT_DEFINITION_CONTEXT('part definition',#23,'design');
#18=PRODUCT_DEFINITION_FORMATION_WITH_SPECIFIED_SOURCE(' ',' ',#20,
 .NOT_KNOWN.);
#19=PRODUCT_RELATED_PRODUCT_CATEGORY('part','',(#20));
#20=PRODUCT('M266_20220519_052410_TB_1','M266_20220519_052410_TB_1',' ',
(#21));
#21=PRODUCT_CONTEXT(' ',#23,'mechanical');
#22=APPLICATION_PROTOCOL_DEFINITION('international standard',
'automotive_design',2010,#23);
#23=APPLICATION_CONTEXT(
'core data for automotive mechanical design processes');
#24=SHAPE_REPRESENTATION('M266_20220519_052410_TB_1-None',(#323),#448);
#25=GEOMETRIC_CURVE_SET('None',(#395,#163,#164,#165,#166,#167,#168,#169,
#170,#171,#172,#173,#174,#175,#176,#177,#178,#179,#180,#181,#182,#183,#184,
#185,#186,#187,#188,#189,#190));
#26=SURFACE_STYLE_USAGE(.BOTH.,#27);
#27=SURFACE_SIDE_STYLE('',(#28));
#28=SURFACE_STYLE_FILL_AREA(#29);
#29=FILL_AREA_STYLE('',(#30));
#30=FILL_AREA_STYLE_COLOUR('',#31);
#31=COLOUR_RGB('Light Gray',0.8,0.8,0.8);
#32=MANIFOLD_SOLID_BREP('CUTTING_PART',#33);
#33=CLOSED_SHELL('',(#45,#46,#47,#48,#49,#50,#51));
#34=CONICAL_SURFACE('',#332,7.2,45.0000000000001);
#35=PLANE('',#329);
#36=PLANE('',#331);
#37=PLANE('',#333);
#38=PLANE('',#334);
#39=PLANE('',#335);
#40=FACE_OUTER_BOUND('',#63,.T.);
#41=FACE_OUTER_BOUND('',#64,.T.);
#42=FACE_OUTER_BOUND('',#67,.T.);
#43=FACE_OUTER_BOUND('',#68,.T.);
#44=FACE_OUTER_BOUND('',#69,.T.);
#45=ADVANCED_FACE('',(#55,#56,#57),#52,.T.);
#46=ADVANCED_FACE('',(#40),#35,.F.);
#47=ADVANCED_FACE('',(#41),#36,.F.);
#48=ADVANCED_FACE('',(#58,#59),#34,.T.);
#49=ADVANCED_FACE('',(#42),#37,.T.);
#50=ADVANCED_FACE('',(#43),#38,.T.);
#51=ADVANCED_FACE('',(#44),#39,.T.);
#52=CYLINDRICAL_SURFACE('',#328,8.);
#53=ELLIPSE('',#326,11.3137084989848,8.);
#54=ELLIPSE('',#327,11.3137084989848,8.);
#55=FACE_BOUND('',#60,.T.);
#56=FACE_BOUND('',#61,.T.);
#57=FACE_BOUND('',#62,.T.);
#58=FACE_BOUND('',#65,.T.);
#59=FACE_BOUND('',#66,.T.);
#60=EDGE_LOOP('',(#70));
#61=EDGE_LOOP('',(#71));
#62=EDGE_LOOP('',(#72,#73,#74,#75));
#63=EDGE_LOOP('',(#76));
#64=EDGE_LOOP('',(#77));
#65=EDGE_LOOP('',(#78));
#66=EDGE_LOOP('',(#79));
#67=EDGE_LOOP('',(#80,#81));
#68=EDGE_LOOP('',(#82,#83,#84,#85));
#69=EDGE_LOOP('',(#86,#87));
#70=ORIENTED_EDGE('',*,*,#95,.T.);
#71=ORIENTED_EDGE('',*,*,#96,.T.);
#72=ORIENTED_EDGE('',*,*,#97,.F.);
#73=ORIENTED_EDGE('',*,*,#98,.F.);
#74=ORIENTED_EDGE('',*,*,#99,.F.);
#75=ORIENTED_EDGE('',*,*,#100,.F.);
#76=ORIENTED_EDGE('',*,*,#96,.F.);
#77=ORIENTED_EDGE('',*,*,#101,.T.);
#78=ORIENTED_EDGE('',*,*,#95,.F.);
#79=ORIENTED_EDGE('',*,*,#101,.F.);
#80=ORIENTED_EDGE('',*,*,#97,.T.);
#81=ORIENTED_EDGE('',*,*,#102,.F.);
#82=ORIENTED_EDGE('',*,*,#98,.T.);
#83=ORIENTED_EDGE('',*,*,#102,.T.);
#84=ORIENTED_EDGE('',*,*,#100,.T.);
#85=ORIENTED_EDGE('',*,*,#103,.F.);
#86=ORIENTED_EDGE('',*,*,#99,.T.);
#87=ORIENTED_EDGE('',*,*,#103,.T.);
#88=VERTEX_POINT('',#425);
#89=VERTEX_POINT('',#427);
#90=VERTEX_POINT('',#429);
#91=VERTEX_POINT('',#430);
#92=VERTEX_POINT('',#432);
#93=VERTEX_POINT('',#434);
#94=VERTEX_POINT('',#439);
#95=EDGE_CURVE('',#88,#88,#104,.T.);
#96=EDGE_CURVE('',#89,#89,#105,.T.);
#97=EDGE_CURVE('',#90,#91,#53,.T.);
#98=EDGE_CURVE('',#92,#90,#219,.T.);
#99=EDGE_CURVE('',#93,#92,#54,.T.);
#100=EDGE_CURVE('',#91,#93,#220,.T.);
#101=EDGE_CURVE('',#94,#94,#106,.T.);
#102=EDGE_CURVE('',#90,#91,#221,.T.);
#103=EDGE_CURVE('',#92,#93,#222,.T.);
#104=CIRCLE('',#324,8.);
#105=CIRCLE('',#325,8.);
#106=CIRCLE('',#330,7.2);
#107=CURVE_STYLE('',#135,POSITIVE_LENGTH_MEASURE(0.18),#322);
#108=CURVE_STYLE('',#136,POSITIVE_LENGTH_MEASURE(0.18),#322);
#109=CURVE_STYLE('',#137,POSITIVE_LENGTH_MEASURE(0.18),#322);
#110=CURVE_STYLE('',#138,POSITIVE_LENGTH_MEASURE(0.18),#322);
#111=CURVE_STYLE('',#139,POSITIVE_LENGTH_MEASURE(0.18),#322);
#112=CURVE_STYLE('',#140,POSITIVE_LENGTH_MEASURE(0.18),#322);
#113=CURVE_STYLE('',#141,POSITIVE_LENGTH_MEASURE(0.18),#322);
#114=CURVE_STYLE('',#142,POSITIVE_LENGTH_MEASURE(0.18),#322);
#115=CURVE_STYLE('',#143,POSITIVE_LENGTH_MEASURE(0.18),#322);
#116=CURVE_STYLE('',#144,POSITIVE_LENGTH_MEASURE(0.18),#322);
#117=CURVE_STYLE('',#145,POSITIVE_LENGTH_MEASURE(0.18),#322);
#118=CURVE_STYLE('',#146,POSITIVE_LENGTH_MEASURE(0.18),#322);
#119=CURVE_STYLE('',#147,POSITIVE_LENGTH_MEASURE(0.18),#322);
#120=CURVE_STYLE('',#148,POSITIVE_LENGTH_MEASURE(0.18),#322);
#121=CURVE_STYLE('',#149,POSITIVE_LENGTH_MEASURE(0.18),#322);
#122=CURVE_STYLE('',#150,POSITIVE_LENGTH_MEASURE(0.18),#322);
#123=CURVE_STYLE('',#151,POSITIVE_LENGTH_MEASURE(0.18),#322);
#124=CURVE_STYLE('',#152,POSITIVE_LENGTH_MEASURE(0.18),#322);
#125=CURVE_STYLE('',#153,POSITIVE_LENGTH_MEASURE(0.18),#322);
#126=CURVE_STYLE('',#154,POSITIVE_LENGTH_MEASURE(0.18),#322);
#127=CURVE_STYLE('',#155,POSITIVE_LENGTH_MEASURE(0.18),#322);
#128=CURVE_STYLE('',#156,POSITIVE_LENGTH_MEASURE(0.18),#322);
#129=CURVE_STYLE('',#157,POSITIVE_LENGTH_MEASURE(0.18),#322);
#130=CURVE_STYLE('',#158,POSITIVE_LENGTH_MEASURE(0.18),#322);
#131=CURVE_STYLE('',#159,POSITIVE_LENGTH_MEASURE(0.18),#322);
#132=CURVE_STYLE('',#160,POSITIVE_LENGTH_MEASURE(0.18),#322);
#133=CURVE_STYLE('',#161,POSITIVE_LENGTH_MEASURE(0.18),#322);
#134=CURVE_STYLE('',#162,POSITIVE_LENGTH_MEASURE(0.18),#322);
#135=DRAUGHTING_PRE_DEFINED_CURVE_FONT('continuous');
#136=DRAUGHTING_PRE_DEFINED_CURVE_FONT('continuous');
#137=DRAUGHTING_PRE_DEFINED_CURVE_FONT('continuous');
#138=DRAUGHTING_PRE_DEFINED_CURVE_FONT('continuous');
#139=DRAUGHTING_PRE_DEFINED_CURVE_FONT('continuous');
#140=DRAUGHTING_PRE_DEFINED_CURVE_FONT('continuous');
#141=DRAUGHTING_PRE_DEFINED_CURVE_FONT('continuous');
#142=DRAUGHTING_PRE_DEFINED_CURVE_FONT('continuous');
#143=DRAUGHTING_PRE_DEFINED_CURVE_FONT('continuous');
#144=DRAUGHTING_PRE_DEFINED_CURVE_FONT('continuous');
#145=DRAUGHTING_PRE_DEFINED_CURVE_FONT('continuous');
#146=DRAUGHTING_PRE_DEFINED_CURVE_FONT('continuous');
#147=DRAUGHTING_PRE_DEFINED_CURVE_FONT('continuous');
#148=DRAUGHTING_PRE_DEFINED_CURVE_FONT('continuous');
#149=DRAUGHTING_PRE_DEFINED_CURVE_FONT('continuous');
#150=DRAUGHTING_PRE_DEFINED_CURVE_FONT('continuous');
#151=DRAUGHTING_PRE_DEFINED_CURVE_FONT('continuous');
#152=DRAUGHTING_PRE_DEFINED_CURVE_FONT('continuous');
#153=DRAUGHTING_PRE_DEFINED_CURVE_FONT('continuous');
#154=DRAUGHTING_PRE_DEFINED_CURVE_FONT('continuous');
#155=DRAUGHTING_PRE_DEFINED_CURVE_FONT('continuous');
#156=DRAUGHTING_PRE_DEFINED_CURVE_FONT('chain double dash');
#157=DRAUGHTING_PRE_DEFINED_CURVE_FONT('continuous');
#158=DRAUGHTING_PRE_DEFINED_CURVE_FONT('continuous');
#159=DRAUGHTING_PRE_DEFINED_CURVE_FONT('continuous');
#160=DRAUGHTING_PRE_DEFINED_CURVE_FONT('continuous');
#161=DRAUGHTING_PRE_DEFINED_CURVE_FONT('continuous');
#162=DRAUGHTING_PRE_DEFINED_CURVE_FONT('continuous');
#163=TRIMMED_CURVE('Line5_0',#191,(PARAMETER_VALUE(0.)),(
PARAMETER_VALUE(1.)),.T.,.PARAMETER.);
#164=TRIMMED_CURVE('Line6_0',#192,(PARAMETER_VALUE(0.)),(
PARAMETER_VALUE(1.)),.T.,.PARAMETER.);
#165=TRIMMED_CURVE('Line7_0',#193,(PARAMETER_VALUE(0.)),(
PARAMETER_VALUE(1.)),.T.,.PARAMETER.);
#166=TRIMMED_CURVE('Line8_0',#194,(PARAMETER_VALUE(0.)),(
PARAMETER_VALUE(1.)),.T.,.PARAMETER.);
#167=TRIMMED_CURVE('Line9_0',#195,(PARAMETER_VALUE(0.)),(
PARAMETER_VALUE(1.)),.T.,.PARAMETER.);
#168=TRIMMED_CURVE('Line10_0',#196,(PARAMETER_VALUE(0.)),(
PARAMETER_VALUE(1.)),.T.,.PARAMETER.);
#169=TRIMMED_CURVE('Line10_1',#197,(PARAMETER_VALUE(0.)),(
PARAMETER_VALUE(1.)),.T.,.PARAMETER.);
#170=TRIMMED_CURVE('Line11_1',#198,(PARAMETER_VALUE(0.)),(
PARAMETER_VALUE(1.)),.T.,.PARAMETER.);
#171=TRIMMED_CURVE('Line12_1',#199,(PARAMETER_VALUE(0.)),(
PARAMETER_VALUE(1.)),.T.,.PARAMETER.);
#172=TRIMMED_CURVE('Line13_1',#200,(PARAMETER_VALUE(0.)),(
PARAMETER_VALUE(1.)),.T.,.PARAMETER.);
#173=TRIMMED_CURVE('Line1_2',#201,(PARAMETER_VALUE(0.)),(
PARAMETER_VALUE(1.)),.T.,.PARAMETER.);
#174=TRIMMED_CURVE('Line2_2',#202,(PARAMETER_VALUE(0.)),(
PARAMETER_VALUE(1.)),.T.,.PARAMETER.);
#175=TRIMMED_CURVE('Line3_2',#203,(PARAMETER_VALUE(0.)),(
PARAMETER_VALUE(1.)),.T.,.PARAMETER.);
#176=TRIMMED_CURVE('Line4_2',#204,(PARAMETER_VALUE(0.)),(
PARAMETER_VALUE(1.)),.T.,.PARAMETER.);
#177=TRIMMED_CURVE('Line10_3',#205,(PARAMETER_VALUE(0.)),(
PARAMETER_VALUE(1.)),.T.,.PARAMETER.);
#178=TRIMMED_CURVE('Line11_3',#206,(PARAMETER_VALUE(0.)),(
PARAMETER_VALUE(1.)),.T.,.PARAMETER.);
#179=TRIMMED_CURVE('Line12_3',#207,(PARAMETER_VALUE(0.)),(
PARAMETER_VALUE(1.)),.T.,.PARAMETER.);
#180=TRIMMED_CURVE('Line13_3',#208,(PARAMETER_VALUE(0.)),(
PARAMETER_VALUE(1.)),.T.,.PARAMETER.);
#181=TRIMMED_CURVE('Line14_0',#209,(PARAMETER_VALUE(0.)),(
PARAMETER_VALUE(1.)),.T.,.PARAMETER.);
#182=TRIMMED_CURVE('Line15_0',#210,(PARAMETER_VALUE(0.)),(
PARAMETER_VALUE(1.)),.T.,.PARAMETER.);
#183=TRIMMED_CURVE('Line16_0',#211,(PARAMETER_VALUE(0.)),(
PARAMETER_VALUE(1.)),.T.,.PARAMETER.);
#184=TRIMMED_CURVE('Line17_0',#212,(PARAMETER_VALUE(0.)),(
PARAMETER_VALUE(1.)),.T.,.PARAMETER.);
#185=TRIMMED_CURVE('Line18_0',#213,(PARAMETER_VALUE(0.)),(
PARAMETER_VALUE(1.)),.T.,.PARAMETER.);
#186=TRIMMED_CURVE('Line19_0',#214,(PARAMETER_VALUE(0.)),(
PARAMETER_VALUE(1.)),.T.,.PARAMETER.);
#187=TRIMMED_CURVE('Line20_0',#215,(PARAMETER_VALUE(0.)),(
PARAMETER_VALUE(1.)),.T.,.PARAMETER.);
#188=TRIMMED_CURVE('Line21_0',#216,(PARAMETER_VALUE(0.)),(
PARAMETER_VALUE(1.)),.T.,.PARAMETER.);
#189=TRIMMED_CURVE('Line22_0',#217,(PARAMETER_VALUE(0.)),(
PARAMETER_VALUE(1.)),.T.,.PARAMETER.);
#190=TRIMMED_CURVE('Line23_0',#218,(PARAMETER_VALUE(0.)),(
PARAMETER_VALUE(1.)),.T.,.PARAMETER.);
#191=LINE('Line5_0',#396,#223);
#192=LINE('Line6_0',#397,#224);
#193=LINE('Line7_0',#398,#225);
#194=LINE('Line8_0',#399,#226);
#195=LINE('Line9_0',#400,#227);
#196=LINE('Line10_0',#401,#228);
#197=LINE('Line10_1',#402,#229);
#198=LINE('Line11_1',#403,#230);
#199=LINE('Line12_1',#404,#231);
#200=LINE('Line13_1',#405,#232);
#201=LINE('Line1_2',#406,#233);
#202=LINE('Line2_2',#407,#234);
#203=LINE('Line3_2',#408,#235);
#204=LINE('Line4_2',#409,#236);
#205=LINE('Line10_3',#410,#237);
#206=LINE('Line11_3',#411,#238);
#207=LINE('Line12_3',#412,#239);
#208=LINE('Line13_3',#413,#240);
#209=LINE('Line14_0',#414,#241);
#210=LINE('Line15_0',#415,#242);
#211=LINE('Line16_0',#416,#243);
#212=LINE('Line17_0',#417,#244);
#213=LINE('Line18_0',#418,#245);
#214=LINE('Line19_0',#419,#246);
#215=LINE('Line20_0',#420,#247);
#216=LINE('Line21_0',#421,#248);
#217=LINE('Line22_0',#422,#249);
#218=LINE('Line23_0',#423,#250);
#219=LINE('',#431,#251);
#220=LINE('',#435,#252);
#221=LINE('',#442,#253);
#222=LINE('',#444,#254);
#223=VECTOR('',#338,8.);
#224=VECTOR('',#339,0.27027027027026);
#225=VECTOR('',#340,8.);
#226=VECTOR('',#341,0.);
#227=VECTOR('',#342,0.270270270270274);
#228=VECTOR('',#343,0.);
#229=VECTOR('',#344,67.7297297297297);
#230=VECTOR('',#345,8.);
#231=VECTOR('',#346,67.7297297297297);
#232=VECTOR('',#347,8.);
#233=VECTOR('',#348,24.);
#234=VECTOR('',#349,8.);
#235=VECTOR('',#350,24.);
#236=VECTOR('',#351,8.);
#237=VECTOR('',#352,67.7297297297297);
#238=VECTOR('',#353,8.);
#239=VECTOR('',#354,67.7297297297297);
#240=VECTOR('',#355,8.);
#241=VECTOR('',#356,10.);
#242=VECTOR('',#357,2.54558441227158);
#243=VECTOR('',#358,2.54558441227158);
#244=VECTOR('',#359,5.);
#245=VECTOR('',#360,2.8284271247462);
#246=VECTOR('',#361,17.6);
#247=VECTOR('',#362,2.8284271247462);
#248=VECTOR('',#363,67.7297297297297);
#249=VECTOR('',#364,8.);
#250=VECTOR('',#365,8.);
#251=VECTOR('',#372,1.);
#252=VECTOR('',#375,1.);
#253=VECTOR('',#386,1.);
#254=VECTOR('',#389,1.);
#255=INVISIBILITY((#256,#257,#258));
#256=PRESENTATION_LAYER_ASSIGNMENT('162','Layer 162',(#395,#169,#170,#171,
#172,#177,#178,#179,#180,#181,#182,#183,#184,#185,#186,#187,#188,#189,#190));
#257=PRESENTATION_LAYER_ASSIGNMENT('166','Layer 166',(#163,#164,#165,#166,
#167,#168));
#258=PRESENTATION_LAYER_ASSIGNMENT('170','Layer 170',(#173,#174,#175,#176));
#259=PRESENTATION_LAYER_ASSIGNMENT('1','Layer 1',(#32));
#260=STYLED_ITEM('',(#290),#395);
#261=STYLED_ITEM('',(#291),#163);
#262=STYLED_ITEM('',(#292),#164);
#263=STYLED_ITEM('',(#293),#165);
#264=STYLED_ITEM('',(#294),#166);
#265=STYLED_ITEM('',(#295),#167);
#266=STYLED_ITEM('',(#296),#168);
#267=STYLED_ITEM('',(#297),#169);
#268=STYLED_ITEM('',(#298),#170);
#269=STYLED_ITEM('',(#299),#171);
#270=STYLED_ITEM('',(#300),#172);
#271=STYLED_ITEM('',(#301),#173);
#272=STYLED_ITEM('',(#302),#174);
#273=STYLED_ITEM('',(#303),#175);
#274=STYLED_ITEM('',(#304),#176);
#275=STYLED_ITEM('',(#305),#177);
#276=STYLED_ITEM('',(#306),#178);
#277=STYLED_ITEM('',(#307),#179);
#278=STYLED_ITEM('',(#308),#180);
#279=STYLED_ITEM('',(#309),#181);
#280=STYLED_ITEM('',(#310),#182);
#281=STYLED_ITEM('',(#311),#183);
#282=STYLED_ITEM('',(#312),#184);
#283=STYLED_ITEM('',(#313),#185);
#284=STYLED_ITEM('',(#314),#186);
#285=STYLED_ITEM('',(#315),#187);
#286=STYLED_ITEM('',(#316),#188);
#287=STYLED_ITEM('',(#317),#189);
#288=STYLED_ITEM('',(#318),#190);
#289=STYLED_ITEM('',(#319),#32);
#290=PRESENTATION_STYLE_ASSIGNMENT((#320));
#291=PRESENTATION_STYLE_ASSIGNMENT((#107));
#292=PRESENTATION_STYLE_ASSIGNMENT((#108));
#293=PRESENTATION_STYLE_ASSIGNMENT((#109));
#294=PRESENTATION_STYLE_ASSIGNMENT((#110));
#295=PRESENTATION_STYLE_ASSIGNMENT((#111));
#296=PRESENTATION_STYLE_ASSIGNMENT((#112));
#297=PRESENTATION_STYLE_ASSIGNMENT((#113));
#298=PRESENTATION_STYLE_ASSIGNMENT((#114));
#299=PRESENTATION_STYLE_ASSIGNMENT((#115));
#300=PRESENTATION_STYLE_ASSIGNMENT((#116));
#301=PRESENTATION_STYLE_ASSIGNMENT((#117));
#302=PRESENTATION_STYLE_ASSIGNMENT((#118));
#303=PRESENTATION_STYLE_ASSIGNMENT((#119));
#304=PRESENTATION_STYLE_ASSIGNMENT((#120));
#305=PRESENTATION_STYLE_ASSIGNMENT((#121));
#306=PRESENTATION_STYLE_ASSIGNMENT((#122));
#307=PRESENTATION_STYLE_ASSIGNMENT((#123));
#308=PRESENTATION_STYLE_ASSIGNMENT((#124));
#309=PRESENTATION_STYLE_ASSIGNMENT((#125));
#310=PRESENTATION_STYLE_ASSIGNMENT((#126));
#311=PRESENTATION_STYLE_ASSIGNMENT((#127));
#312=PRESENTATION_STYLE_ASSIGNMENT((#128));
#313=PRESENTATION_STYLE_ASSIGNMENT((#129));
#314=PRESENTATION_STYLE_ASSIGNMENT((#130));
#315=PRESENTATION_STYLE_ASSIGNMENT((#131));
#316=PRESENTATION_STYLE_ASSIGNMENT((#132));
#317=PRESENTATION_STYLE_ASSIGNMENT((#133));
#318=PRESENTATION_STYLE_ASSIGNMENT((#134));
#319=PRESENTATION_STYLE_ASSIGNMENT((#26));
#320=POINT_STYLE('',#321,POSITIVE_LENGTH_MEASURE(3.),#322);
#321=PRE_DEFINED_POINT_MARKER_SYMBOL('plus');
#322=DRAUGHTING_PRE_DEFINED_COLOUR('white');
#323=AXIS2_PLACEMENT_3D('',#394,#336,#337);
#324=AXIS2_PLACEMENT_3D('',#424,#366,#367);
#325=AXIS2_PLACEMENT_3D('',#426,#368,#369);
#326=AXIS2_PLACEMENT_3D('',#428,#370,#371);
#327=AXIS2_PLACEMENT_3D('',#433,#373,#374);
#328=AXIS2_PLACEMENT_3D('',#436,#376,#377);
#329=AXIS2_PLACEMENT_3D('',#437,#378,#379);
#330=AXIS2_PLACEMENT_3D('',#438,#380,#381);
#331=AXIS2_PLACEMENT_3D('',#440,#382,#383);
#332=AXIS2_PLACEMENT_3D('',#441,#384,#385);
#333=AXIS2_PLACEMENT_3D('',#443,#387,#388);
#334=AXIS2_PLACEMENT_3D('',#445,#390,#391);
#335=AXIS2_PLACEMENT_3D('',#446,#392,#393);
#336=DIRECTION('',(0.,0.,1.));
#337=DIRECTION('',(1.,0.,0.));
#338=DIRECTION('',(0.,-1.,0.));
#339=DIRECTION('',(0.,-1.49346873741083E-15,-1.));
#340=DIRECTION('',(0.,1.,-1.77635683940025E-15));
#341=DIRECTION('',(0.,0.,0.));
#342=DIRECTION('',(0.,-6.57252030578084E-15,1.));
#343=DIRECTION('',(0.,0.,0.));
#344=DIRECTION('',(0.,-1.04908544385968E-16,1.));
#345=DIRECTION('',(0.,-1.,0.));
#346=DIRECTION('',(0.,0.,-1.));
#347=DIRECTION('',(0.,1.,0.));
#348=DIRECTION('',(0.,-6.57384087684176E-32,-1.));
#349=DIRECTION('',(0.,1.,0.));
#350=DIRECTION('',(0.,-1.48029736616688E-16,1.));
#351=DIRECTION('',(0.,-1.,0.));
#352=DIRECTION('',(0.,-1.04908544385968E-16,1.));
#353=DIRECTION('',(0.,-1.,0.));
#354=DIRECTION('',(0.,0.,-1.));
#355=DIRECTION('',(0.,1.,0.));
#356=DIRECTION('',(0.,1.77635683940025E-16,-1.));
#357=DIRECTION('',(0.,0.707106781186547,-0.707106781186547));
#358=DIRECTION('',(0.,0.707106781186547,0.707106781186547));
#359=DIRECTION('',(0.,-1.,0.));
#360=DIRECTION('',(0.,-0.707106781186547,-0.707106781186548));
#361=DIRECTION('',(0.,1.00929365875014E-16,-1.));
#362=DIRECTION('',(0.,-0.707106781186548,0.707106781186547));
#363=DIRECTION('',(0.,-1.04908544385968E-16,-1.));
#364=DIRECTION('',(0.,-1.,0.));
#365=DIRECTION('',(0.,-1.,-5.55111512312578E-17));
#366=DIRECTION('',(0.,0.,1.));
#367=DIRECTION('',(1.,0.,0.));
#368=DIRECTION('',(0.,0.,-1.));
#369=DIRECTION('',(-1.,0.,0.));
#370=DIRECTION('',(0.,0.707106781186547,0.707106781186548));
#371=DIRECTION('',(0.,0.707106781186548,-0.707106781186547));
#372=DIRECTION('',(0.,0.,-1.));
#373=DIRECTION('',(0.,0.707106781186548,-0.707106781186548));
#374=DIRECTION('',(0.,-0.707106781186548,-0.707106781186548));
#375=DIRECTION('',(0.,0.,1.));
#376=DIRECTION('',(0.,0.,-1.));
#377=DIRECTION('',(-1.,0.,0.));
#378=DIRECTION('',(0.,0.,-1.));
#379=DIRECTION('',(-1.,0.,0.));
#380=DIRECTION('',(0.,0.,-1.));
#381=DIRECTION('',(1.,0.,0.));
#382=DIRECTION('',(0.,0.,1.));
#383=DIRECTION('',(1.,0.,0.));
#384=DIRECTION('',(0.,0.,1.));
#385=DIRECTION('',(1.,0.,0.));
#386=DIRECTION('',(-1.,0.,0.));
#387=DIRECTION('',(0.,0.707106781186547,0.707106781186548));
#388=DIRECTION('',(0.,-0.707106781186548,0.707106781186547));
#389=DIRECTION('',(-1.,0.,0.));
#390=DIRECTION('',(0.,1.,1.7347234759768E-16));
#391=DIRECTION('',(0.,-1.73472347597681E-16,1.));
#392=DIRECTION('',(0.,0.707106781186548,-0.707106781186548));
#393=DIRECTION('',(0.,0.707106781186548,0.707106781186548));
#394=CARTESIAN_POINT('',(0.,0.,0.));
#395=CARTESIAN_POINT('Point1_0',(0.,8.,67.7297297297297));
#396=CARTESIAN_POINT('',(0.,8.,68.));
#397=CARTESIAN_POINT('',(0.,0.,68.));
#398=CARTESIAN_POINT('',(0.,-4.03640199300209E-16,67.7297297297297));
#399=CARTESIAN_POINT('',(0.,8.,67.7297297297297));
#400=CARTESIAN_POINT('',(0.,8.,67.7297297297297));
#401=CARTESIAN_POINT('',(0.,8.,68.));
#402=CARTESIAN_POINT('',(0.,8.,0.));
#403=CARTESIAN_POINT('',(0.,8.,67.7297297297297));
#404=CARTESIAN_POINT('',(0.,0.,67.7297297297297));
#405=CARTESIAN_POINT('',(0.,0.,0.));
#406=CARTESIAN_POINT('',(0.,0.,92.));
#407=CARTESIAN_POINT('',(0.,-1.57772181044202E-30,68.));
#408=CARTESIAN_POINT('',(0.,8.,68.));
#409=CARTESIAN_POINT('',(0.,8.,92.));
#410=CARTESIAN_POINT('',(0.,8.,0.));
#411=CARTESIAN_POINT('',(0.,8.,67.7297297297297));
#412=CARTESIAN_POINT('',(0.,0.,67.7297297297297));
#413=CARTESIAN_POINT('',(0.,0.,0.));
#414=CARTESIAN_POINT('',(0.,6.19999999999999,29.));
#415=CARTESIAN_POINT('',(0.,6.2,19.));
#416=CARTESIAN_POINT('',(0.,6.19999999999999,29.));
#417=CARTESIAN_POINT('',(0.,11.2,24.));
#418=CARTESIAN_POINT('',(0.,10.,32.8));
#419=CARTESIAN_POINT('',(0.,10.,32.8));
#420=CARTESIAN_POINT('',(0.,10.,15.2));
#421=CARTESIAN_POINT('',(0.,-8.,67.7297297297297));
#422=CARTESIAN_POINT('',(0.,0.,67.7297297297297));
#423=CARTESIAN_POINT('',(0.,0.,0.));
#424=CARTESIAN_POINT('',(0.,0.,0.799999999999999));
#425=CARTESIAN_POINT('',(8.,0.,0.799999999999999));
#426=CARTESIAN_POINT('',(0.,0.,92.));
#427=CARTESIAN_POINT('',(-8.,0.,92.));
#428=CARTESIAN_POINT('',(0.,0.,25.2));
#429=CARTESIAN_POINT('',(5.05568986390582,6.2,19.));
#430=CARTESIAN_POINT('',(-5.05568986390582,6.2,19.));
#431=CARTESIAN_POINT('',(5.05568986390582,6.2,1.07552855510562E-15));
#432=CARTESIAN_POINT('',(5.05568986390582,6.19999999999999,29.));
#433=CARTESIAN_POINT('',(0.,0.,22.8));
#434=CARTESIAN_POINT('',(-5.05568986390582,6.19999999999999,29.));
#435=CARTESIAN_POINT('',(-5.05568986390582,6.2,1.07552855510562E-15));
#436=CARTESIAN_POINT('',(0.,0.,0.));
#437=CARTESIAN_POINT('',(0.,0.,92.));
#438=CARTESIAN_POINT('',(0.,0.,0.));
#439=CARTESIAN_POINT('',(7.2,0.,0.));
#440=CARTESIAN_POINT('',(0.,8.,0.));
#441=CARTESIAN_POINT('',(0.,0.,0.));
#442=CARTESIAN_POINT('',(-10.,6.2,19.));
#443=CARTESIAN_POINT('',(-10.,8.,17.2));
#444=CARTESIAN_POINT('',(-10.,6.19999999999999,29.));
#445=CARTESIAN_POINT('',(-10.,6.2,19.));
#446=CARTESIAN_POINT('',(-10.,8.,30.8));
#447=MECHANICAL_DESIGN_GEOMETRIC_PRESENTATION_REPRESENTATION('',(#260,#261,
#262,#263,#264,#265,#266,#267,#268,#269,#270,#271,#272,#273,#274,#275,#276,
#277,#278,#279,#280,#281,#282,#283,#284,#285,#286,#287,#288,#289),#448);
#448=(
GEOMETRIC_REPRESENTATION_CONTEXT(3)
GLOBAL_UNCERTAINTY_ASSIGNED_CONTEXT((#449))
GLOBAL_UNIT_ASSIGNED_CONTEXT((#455,#451,#450))
REPRESENTATION_CONTEXT('m266_20220519_052410_tb_1',
'TOP_LEVEL_ASSEMBLY_PART')
);
#449=UNCERTAINTY_MEASURE_WITH_UNIT(LENGTH_MEASURE(2.E-5),#455,
'DISTANCE_ACCURACY_VALUE','Maximum Tolerance applied to model');
#450=(
NAMED_UNIT(*)
SI_UNIT($,.STERADIAN.)
SOLID_ANGLE_UNIT()
);
#451=(
CONVERSION_BASED_UNIT('DEGREE',#453)
NAMED_UNIT(#452)
PLANE_ANGLE_UNIT()
);
#452=DIMENSIONAL_EXPONENTS(0.,0.,0.,0.,0.,0.,0.);
#453=PLANE_ANGLE_MEASURE_WITH_UNIT(PLANE_ANGLE_MEASURE(0.0174532925),#454);
#454=(
NAMED_UNIT(*)
PLANE_ANGLE_UNIT()
SI_UNIT($,.RADIAN.)
);
#455=(
LENGTH_UNIT()
NAMED_UNIT(*)
SI_UNIT(.MILLI.,.METRE.)
);
ENDSEC;
END-ISO-10303-21;
