ISO-10303-21;
HEADER;
/* Generated by software containing ST-Developer
 * from STEP Tools, Inc. (www.steptools.com) 
 */
/* OPTION: using custom schema-name function */

FILE_DESCRIPTION(
/* description */ (''),
/* implementation_level */ '2;1');

FILE_NAME(
/* name */ 'm266_20220519_052236_tb_1.stp',
/* time_stamp */ '2022-05-19T05:23:43+02:00',
/* author */ (''),
/* organization */ ('SMS'),
/* preprocessor_version */ 'ST-DEVELOPER v16.7',
/* originating_system */ 'SIEMENS PLM Software NX 12.0',
/* authorisation */ '');

FILE_SCHEMA (('AUTOMOTIVE_DESIGN { 1 0 10303 214 3 1 1 1 }'));
ENDSEC;

DATA;
#10=GEOMETRICALLY_BOUNDED_WIREFRAME_SHAPE_REPRESENTATION(
'M266_20220519_052236_TB_1-None',(#25),#299);
#11=SHAPE_REPRESENTATION_RELATIONSHIP('None',
'relationship between M266_20220519_052236_TB_1-None and M266_20220519
_052236_TB_1-None',#24,#13);
#12=SHAPE_REPRESENTATION_RELATIONSHIP('None',
'relationship between M266_20220519_052236_TB_1-None and M266_20220519
_052236_TB_1-None',#24,#10);
#13=ADVANCED_BREP_SHAPE_REPRESENTATION('M266_20220519_052236_TB_1-None',
(#32),#299);
#14=SHAPE_DEFINITION_REPRESENTATION(#15,#24);
#15=PRODUCT_DEFINITION_SHAPE('','',#16);
#16=PRODUCT_DEFINITION(' ','',#18,#17);
#17=PRODUCT_DEFINITION_CONTEXT('part definition',#23,'design');
#18=PRODUCT_DEFINITION_FORMATION_WITH_SPECIFIED_SOURCE(' ',' ',#20,
 .NOT_KNOWN.);
#19=PRODUCT_RELATED_PRODUCT_CATEGORY('part','',(#20));
#20=PRODUCT('M266_20220519_052236_TB_1','M266_20220519_052236_TB_1',' ',
(#21));
#21=PRODUCT_CONTEXT(' ',#23,'mechanical');
#22=APPLICATION_PROTOCOL_DEFINITION('international standard',
'automotive_design',2010,#23);
#23=APPLICATION_CONTEXT(
'core data for automotive mechanical design processes');
#24=SHAPE_REPRESENTATION('M266_20220519_052236_TB_1-None',(#208),#299);
#25=GEOMETRIC_CURVE_SET('None',(#166,#167,#168,#169,#170,#171,#172,#173,
#174,#175,#176,#177,#178,#179));
#26=SURFACE_STYLE_USAGE(.BOTH.,#27);
#27=SURFACE_SIDE_STYLE('',(#28));
#28=SURFACE_STYLE_FILL_AREA(#29);
#29=FILL_AREA_STYLE('',(#30));
#30=FILL_AREA_STYLE_COLOUR('',#31);
#31=COLOUR_RGB('Light Gray',0.8,0.8,0.8);
#32=MANIFOLD_SOLID_BREP('CUTTING_PART',#33);
#33=CLOSED_SHELL('',(#49,#50,#51,#52,#53,#54,#55));
#34=TOROIDAL_SURFACE('',#216,1.5,1.);
#35=CONICAL_SURFACE('',#215,0.5,30.);
#36=CONICAL_SURFACE('',#221,2.6,45.);
#37=CYLINDRICAL_SURFACE('',#212,0.500000000000001);
#38=CYLINDRICAL_SURFACE('',#220,3.);
#39=FACE_BOUND('',#61,.T.);
#40=FACE_BOUND('',#62,.T.);
#41=FACE_BOUND('',#63,.T.);
#42=FACE_BOUND('',#64,.T.);
#43=FACE_BOUND('',#65,.T.);
#44=FACE_BOUND('',#66,.T.);
#45=FACE_BOUND('',#68,.T.);
#46=FACE_BOUND('',#69,.T.);
#47=FACE_BOUND('',#70,.T.);
#48=FACE_BOUND('',#71,.T.);
#49=ADVANCED_FACE('',(#58),#56,.F.);
#50=ADVANCED_FACE('',(#39,#40),#37,.T.);
#51=ADVANCED_FACE('',(#41,#42),#35,.T.);
#52=ADVANCED_FACE('',(#43,#44),#34,.F.);
#53=ADVANCED_FACE('',(#59),#57,.F.);
#54=ADVANCED_FACE('',(#45,#46),#38,.T.);
#55=ADVANCED_FACE('',(#47,#48),#36,.T.);
#56=PLANE('',#210);
#57=PLANE('',#218);
#58=FACE_OUTER_BOUND('',#60,.T.);
#59=FACE_OUTER_BOUND('',#67,.T.);
#60=EDGE_LOOP('',(#72));
#61=EDGE_LOOP('',(#73));
#62=EDGE_LOOP('',(#74));
#63=EDGE_LOOP('',(#75));
#64=EDGE_LOOP('',(#76));
#65=EDGE_LOOP('',(#77));
#66=EDGE_LOOP('',(#78));
#67=EDGE_LOOP('',(#79));
#68=EDGE_LOOP('',(#80));
#69=EDGE_LOOP('',(#81));
#70=EDGE_LOOP('',(#82));
#71=EDGE_LOOP('',(#83));
#72=ORIENTED_EDGE('',*,*,#90,.F.);
#73=ORIENTED_EDGE('',*,*,#90,.T.);
#74=ORIENTED_EDGE('',*,*,#91,.T.);
#75=ORIENTED_EDGE('',*,*,#92,.T.);
#76=ORIENTED_EDGE('',*,*,#93,.F.);
#77=ORIENTED_EDGE('',*,*,#91,.F.);
#78=ORIENTED_EDGE('',*,*,#92,.F.);
#79=ORIENTED_EDGE('',*,*,#94,.T.);
#80=ORIENTED_EDGE('',*,*,#95,.T.);
#81=ORIENTED_EDGE('',*,*,#93,.T.);
#82=ORIENTED_EDGE('',*,*,#95,.F.);
#83=ORIENTED_EDGE('',*,*,#94,.F.);
#84=VERTEX_POINT('',#280);
#85=VERTEX_POINT('',#283);
#86=VERTEX_POINT('',#286);
#87=VERTEX_POINT('',#288);
#88=VERTEX_POINT('',#292);
#89=VERTEX_POINT('',#295);
#90=EDGE_CURVE('',#84,#84,#96,.T.);
#91=EDGE_CURVE('',#85,#85,#97,.T.);
#92=EDGE_CURVE('',#86,#86,#98,.T.);
#93=EDGE_CURVE('',#87,#87,#99,.T.);
#94=EDGE_CURVE('',#88,#88,#100,.T.);
#95=EDGE_CURVE('',#89,#89,#101,.T.);
#96=CIRCLE('',#209,0.5);
#97=CIRCLE('',#211,0.499999999999997);
#98=CIRCLE('',#213,0.633974596215556);
#99=CIRCLE('',#214,3.);
#100=CIRCLE('',#217,2.6);
#101=CIRCLE('',#219,3.);
#102=INVISIBILITY((#103,#104,#105));
#103=PRESENTATION_LAYER_ASSIGNMENT('166','Layer 166',(#166,#167,#168,#169,
#170,#171));
#104=PRESENTATION_LAYER_ASSIGNMENT('162','Layer 162',(#172,#173,#174,#175));
#105=PRESENTATION_LAYER_ASSIGNMENT('170','Layer 170',(#176,#177,#178,#179));
#106=PRESENTATION_LAYER_ASSIGNMENT('1','Layer 1',(#32));
#107=STYLED_ITEM('',(#122),#166);
#108=STYLED_ITEM('',(#123),#167);
#109=STYLED_ITEM('',(#124),#168);
#110=STYLED_ITEM('',(#125),#169);
#111=STYLED_ITEM('',(#126),#170);
#112=STYLED_ITEM('',(#127),#171);
#113=STYLED_ITEM('',(#128),#172);
#114=STYLED_ITEM('',(#129),#173);
#115=STYLED_ITEM('',(#130),#174);
#116=STYLED_ITEM('',(#131),#175);
#117=STYLED_ITEM('',(#132),#176);
#118=STYLED_ITEM('',(#133),#177);
#119=STYLED_ITEM('',(#134),#178);
#120=STYLED_ITEM('',(#135),#179);
#121=STYLED_ITEM('',(#136),#32);
#122=PRESENTATION_STYLE_ASSIGNMENT((#137));
#123=PRESENTATION_STYLE_ASSIGNMENT((#138));
#124=PRESENTATION_STYLE_ASSIGNMENT((#139));
#125=PRESENTATION_STYLE_ASSIGNMENT((#140));
#126=PRESENTATION_STYLE_ASSIGNMENT((#141));
#127=PRESENTATION_STYLE_ASSIGNMENT((#142));
#128=PRESENTATION_STYLE_ASSIGNMENT((#143));
#129=PRESENTATION_STYLE_ASSIGNMENT((#144));
#130=PRESENTATION_STYLE_ASSIGNMENT((#145));
#131=PRESENTATION_STYLE_ASSIGNMENT((#146));
#132=PRESENTATION_STYLE_ASSIGNMENT((#147));
#133=PRESENTATION_STYLE_ASSIGNMENT((#148));
#134=PRESENTATION_STYLE_ASSIGNMENT((#149));
#135=PRESENTATION_STYLE_ASSIGNMENT((#150));
#136=PRESENTATION_STYLE_ASSIGNMENT((#26));
#137=CURVE_STYLE('',#152,POSITIVE_LENGTH_MEASURE(0.18),#151);
#138=CURVE_STYLE('',#153,POSITIVE_LENGTH_MEASURE(0.18),#151);
#139=CURVE_STYLE('',#154,POSITIVE_LENGTH_MEASURE(0.18),#151);
#140=CURVE_STYLE('',#155,POSITIVE_LENGTH_MEASURE(0.18),#151);
#141=CURVE_STYLE('',#156,POSITIVE_LENGTH_MEASURE(0.18),#151);
#142=CURVE_STYLE('',#157,POSITIVE_LENGTH_MEASURE(0.18),#151);
#143=CURVE_STYLE('',#158,POSITIVE_LENGTH_MEASURE(0.18),#151);
#144=CURVE_STYLE('',#159,POSITIVE_LENGTH_MEASURE(0.18),#151);
#145=CURVE_STYLE('',#160,POSITIVE_LENGTH_MEASURE(0.18),#151);
#146=CURVE_STYLE('',#161,POSITIVE_LENGTH_MEASURE(0.18),#151);
#147=CURVE_STYLE('',#162,POSITIVE_LENGTH_MEASURE(0.18),#151);
#148=CURVE_STYLE('',#163,POSITIVE_LENGTH_MEASURE(0.18),#151);
#149=CURVE_STYLE('',#164,POSITIVE_LENGTH_MEASURE(0.18),#151);
#150=CURVE_STYLE('',#165,POSITIVE_LENGTH_MEASURE(0.18),#151);
#151=DRAUGHTING_PRE_DEFINED_COLOUR('white');
#152=DRAUGHTING_PRE_DEFINED_CURVE_FONT('continuous');
#153=DRAUGHTING_PRE_DEFINED_CURVE_FONT('continuous');
#154=DRAUGHTING_PRE_DEFINED_CURVE_FONT('continuous');
#155=DRAUGHTING_PRE_DEFINED_CURVE_FONT('continuous');
#156=DRAUGHTING_PRE_DEFINED_CURVE_FONT('continuous');
#157=DRAUGHTING_PRE_DEFINED_CURVE_FONT('continuous');
#158=DRAUGHTING_PRE_DEFINED_CURVE_FONT('continuous');
#159=DRAUGHTING_PRE_DEFINED_CURVE_FONT('continuous');
#160=DRAUGHTING_PRE_DEFINED_CURVE_FONT('continuous');
#161=DRAUGHTING_PRE_DEFINED_CURVE_FONT('continuous');
#162=DRAUGHTING_PRE_DEFINED_CURVE_FONT('continuous');
#163=DRAUGHTING_PRE_DEFINED_CURVE_FONT('continuous');
#164=DRAUGHTING_PRE_DEFINED_CURVE_FONT('continuous');
#165=DRAUGHTING_PRE_DEFINED_CURVE_FONT('continuous');
#166=TRIMMED_CURVE('Line5_0',#180,(PARAMETER_VALUE(0.)),(
PARAMETER_VALUE(1.)),.T.,.PARAMETER.);
#167=TRIMMED_CURVE('Line6_0',#181,(PARAMETER_VALUE(0.)),(
PARAMETER_VALUE(1.)),.T.,.PARAMETER.);
#168=TRIMMED_CURVE('Line7_0',#182,(PARAMETER_VALUE(0.)),(
PARAMETER_VALUE(1.)),.T.,.PARAMETER.);
#169=TRIMMED_CURVE('Line8_0',#183,(PARAMETER_VALUE(0.)),(
PARAMETER_VALUE(1.)),.T.,.PARAMETER.);
#170=TRIMMED_CURVE('Line9_0',#184,(PARAMETER_VALUE(0.)),(
PARAMETER_VALUE(1.)),.T.,.PARAMETER.);
#171=TRIMMED_CURVE('Line10_0',#185,(PARAMETER_VALUE(0.)),(
PARAMETER_VALUE(1.)),.T.,.PARAMETER.);
#172=TRIMMED_CURVE('Line10_1',#186,(PARAMETER_VALUE(0.)),(
PARAMETER_VALUE(1.)),.T.,.PARAMETER.);
#173=TRIMMED_CURVE('Line11_1',#187,(PARAMETER_VALUE(0.)),(
PARAMETER_VALUE(1.)),.T.,.PARAMETER.);
#174=TRIMMED_CURVE('Line12_1',#188,(PARAMETER_VALUE(0.)),(
PARAMETER_VALUE(1.)),.T.,.PARAMETER.);
#175=TRIMMED_CURVE('Line13_1',#189,(PARAMETER_VALUE(0.)),(
PARAMETER_VALUE(1.)),.T.,.PARAMETER.);
#176=TRIMMED_CURVE('Line1_2',#190,(PARAMETER_VALUE(0.)),(
PARAMETER_VALUE(1.)),.T.,.PARAMETER.);
#177=TRIMMED_CURVE('Line2_2',#191,(PARAMETER_VALUE(0.)),(
PARAMETER_VALUE(1.)),.T.,.PARAMETER.);
#178=TRIMMED_CURVE('Line3_2',#192,(PARAMETER_VALUE(0.)),(
PARAMETER_VALUE(1.)),.T.,.PARAMETER.);
#179=TRIMMED_CURVE('Line4_2',#193,(PARAMETER_VALUE(0.)),(
PARAMETER_VALUE(1.)),.T.,.PARAMETER.);
#180=LINE('Line5_0',#265,#194);
#181=LINE('Line6_0',#266,#195);
#182=LINE('Line7_0',#267,#196);
#183=LINE('Line8_0',#268,#197);
#184=LINE('Line9_0',#269,#198);
#185=LINE('Line10_0',#270,#199);
#186=LINE('Line10_1',#271,#200);
#187=LINE('Line11_1',#272,#201);
#188=LINE('Line12_1',#273,#202);
#189=LINE('Line13_1',#274,#203);
#190=LINE('Line1_2',#275,#204);
#191=LINE('Line2_2',#276,#205);
#192=LINE('Line3_2',#277,#206);
#193=LINE('Line4_2',#278,#207);
#194=VECTOR('',#224,0.499999999999995);
#195=VECTOR('',#225,7.60039728919246);
#196=VECTOR('',#226,3.);
#197=VECTOR('',#227,5.);
#198=VECTOR('',#228,3.27027027027027);
#199=VECTOR('',#229,0.);
#200=VECTOR('',#230,40.3996027108075);
#201=VECTOR('',#231,3.);
#202=VECTOR('',#232,40.3996027108075);
#203=VECTOR('',#233,3.00000000000001);
#204=VECTOR('',#234,2.);
#205=VECTOR('',#235,0.500000000000002);
#206=VECTOR('',#236,2.);
#207=VECTOR('',#237,0.5);
#208=AXIS2_PLACEMENT_3D('',#264,#222,#223);
#209=AXIS2_PLACEMENT_3D('',#279,#238,#239);
#210=AXIS2_PLACEMENT_3D('',#281,#240,#241);
#211=AXIS2_PLACEMENT_3D('',#282,#242,#243);
#212=AXIS2_PLACEMENT_3D('',#284,#244,#245);
#213=AXIS2_PLACEMENT_3D('',#285,#246,#247);
#214=AXIS2_PLACEMENT_3D('',#287,#248,#249);
#215=AXIS2_PLACEMENT_3D('',#289,#250,#251);
#216=AXIS2_PLACEMENT_3D('',#290,#252,#253);
#217=AXIS2_PLACEMENT_3D('',#291,#254,#255);
#218=AXIS2_PLACEMENT_3D('',#293,#256,#257);
#219=AXIS2_PLACEMENT_3D('',#294,#258,#259);
#220=AXIS2_PLACEMENT_3D('',#296,#260,#261);
#221=AXIS2_PLACEMENT_3D('',#297,#262,#263);
#222=DIRECTION('',(0.,0.,1.));
#223=DIRECTION('',(1.,0.,0.));
#224=DIRECTION('',(0.,-1.,0.));
#225=DIRECTION('',(0.,6.37516963868343E-17,-1.));
#226=DIRECTION('',(0.,1.,-4.736951571734E-15));
#227=DIRECTION('',(0.,-0.5,0.866025403784439));
#228=DIRECTION('',(0.,-1.62955048903659E-15,1.));
#229=DIRECTION('',(0.,0.,0.));
#230=DIRECTION('',(0.,-1.31908983272629E-16,1.));
#231=DIRECTION('',(0.,-1.,0.));
#232=DIRECTION('',(0.,0.,-1.));
#233=DIRECTION('',(0.,1.,0.));
#234=DIRECTION('',(0.,-7.88860905221012E-31,-1.));
#235=DIRECTION('',(0.,1.,0.));
#236=DIRECTION('',(0.,-8.88178419700125E-16,1.));
#237=DIRECTION('',(0.,-1.,0.));
#238=DIRECTION('',(0.,0.,-1.));
#239=DIRECTION('',(-1.,0.,0.));
#240=DIRECTION('',(0.,0.,-1.));
#241=DIRECTION('',(-1.,0.,0.));
#242=DIRECTION('',(0.,0.,1.));
#243=DIRECTION('',(-1.,0.,0.));
#244=DIRECTION('',(0.,0.,-1.));
#245=DIRECTION('',(-1.,0.,0.));
#246=DIRECTION('',(0.,0.,-1.));
#247=DIRECTION('',(-1.,0.,0.));
#248=DIRECTION('',(0.,0.,-1.));
#249=DIRECTION('',(-1.,0.,0.));
#250=DIRECTION('',(0.,0.,-1.));
#251=DIRECTION('',(-1.,0.,8.40568221859065E-17));
#252=DIRECTION('',(0.,0.,-1.));
#253=DIRECTION('',(-1.,0.,0.));
#254=DIRECTION('',(0.,0.,-1.));
#255=DIRECTION('',(1.,0.,0.));
#256=DIRECTION('',(0.,0.,1.));
#257=DIRECTION('',(1.,0.,0.));
#258=DIRECTION('',(0.,0.,1.));
#259=DIRECTION('',(1.,0.,0.));
#260=DIRECTION('',(0.,0.,-1.));
#261=DIRECTION('',(-1.,0.,0.));
#262=DIRECTION('',(0.,0.,1.));
#263=DIRECTION('',(1.,0.,0.));
#264=CARTESIAN_POINT('',(0.,0.,0.));
#265=CARTESIAN_POINT('',(0.,0.499999999999995,48.));
#266=CARTESIAN_POINT('',(0.,0.,48.));
#267=CARTESIAN_POINT('',(0.,4.84538220399916E-16,40.3996027108075));
#268=CARTESIAN_POINT('',(0.,3.,40.3996027108075));
#269=CARTESIAN_POINT('',(0.,0.5,44.7297297297297));
#270=CARTESIAN_POINT('',(0.,0.499999999999995,48.));
#271=CARTESIAN_POINT('',(0.,3.00000000000001,0.));
#272=CARTESIAN_POINT('',(0.,3.,40.3996027108075));
#273=CARTESIAN_POINT('',(0.,0.,40.3996027108075));
#274=CARTESIAN_POINT('',(0.,0.,0.));
#275=CARTESIAN_POINT('',(0.,0.,50.));
#276=CARTESIAN_POINT('',(0.,-1.57772181044202E-30,48.));
#277=CARTESIAN_POINT('',(0.,0.500000000000002,48.));
#278=CARTESIAN_POINT('',(0.,0.5,50.));
#279=CARTESIAN_POINT('',(0.,0.,50.));
#280=CARTESIAN_POINT('',(-0.5,0.,50.));
#281=CARTESIAN_POINT('',(0.,0.,50.));
#282=CARTESIAN_POINT('',(0.,0.,44.9976789221609));
#283=CARTESIAN_POINT('',(-0.499999999999997,0.,44.9976789221609));
#284=CARTESIAN_POINT('',(0.,0.,0.));
#285=CARTESIAN_POINT('',(0.,0.,44.4976789221609));
#286=CARTESIAN_POINT('',(-0.633974596215556,0.,44.4976789221609));
#287=CARTESIAN_POINT('',(0.,0.,40.3996027108075));
#288=CARTESIAN_POINT('',(-3.,0.,40.3996027108075));
#289=CARTESIAN_POINT('',(0.,0.,44.7297297297297));
#290=CARTESIAN_POINT('',(0.,0.,44.9976789221609));
#291=CARTESIAN_POINT('',(0.,0.,0.));
#292=CARTESIAN_POINT('',(2.6,0.,0.));
#293=CARTESIAN_POINT('',(0.,3.00000000000001,0.));
#294=CARTESIAN_POINT('',(0.,0.,0.400000000000001));
#295=CARTESIAN_POINT('',(3.,0.,0.400000000000001));
#296=CARTESIAN_POINT('',(0.,0.,-20.9080749503476));
#297=CARTESIAN_POINT('',(0.,0.,0.));
#298=MECHANICAL_DESIGN_GEOMETRIC_PRESENTATION_REPRESENTATION('',(#107,#108,
#109,#110,#111,#112,#113,#114,#115,#116,#117,#118,#119,#120,#121),#299);
#299=(
GEOMETRIC_REPRESENTATION_CONTEXT(3)
GLOBAL_UNCERTAINTY_ASSIGNED_CONTEXT((#300))
GLOBAL_UNIT_ASSIGNED_CONTEXT((#306,#302,#301))
REPRESENTATION_CONTEXT('m266_20220519_052236_tb_1',
'TOP_LEVEL_ASSEMBLY_PART')
);
#300=UNCERTAINTY_MEASURE_WITH_UNIT(LENGTH_MEASURE(2.E-5),#306,
'DISTANCE_ACCURACY_VALUE','Maximum Tolerance applied to model');
#301=(
NAMED_UNIT(*)
SI_UNIT($,.STERADIAN.)
SOLID_ANGLE_UNIT()
);
#302=(
CONVERSION_BASED_UNIT('DEGREE',#304)
NAMED_UNIT(#303)
PLANE_ANGLE_UNIT()
);
#303=DIMENSIONAL_EXPONENTS(0.,0.,0.,0.,0.,0.,0.);
#304=PLANE_ANGLE_MEASURE_WITH_UNIT(PLANE_ANGLE_MEASURE(0.0174532925),#305);
#305=(
NAMED_UNIT(*)
PLANE_ANGLE_UNIT()
SI_UNIT($,.RADIAN.)
);
#306=(
LENGTH_UNIT()
NAMED_UNIT(*)
SI_UNIT(.MILLI.,.METRE.)
);
ENDSEC;
END-ISO-10303-21;
