ISO-10303-21;
HEADER;
/* Generated by software containing ST-Developer
 * from STEP Tools, Inc. (www.steptools.com) 
 */
/* OPTION: using custom schema-name function */

FILE_DESCRIPTION(
/* description */ (''),
/* implementation_level */ '2;1');

FILE_NAME(
/* name */ 'tool.stp',
/* time_stamp */ '2022-05-19T05:23:31+02:00',
/* author */ (''),
/* organization */ ('SMS'),
/* preprocessor_version */ 'ST-DEVELOPER v16.7',
/* originating_system */ 'SIEMENS PLM Software NX 12.0',
/* authorisation */ '');

FILE_SCHEMA (('AUTOMOTIVE_DESIGN { 1 0 10303 214 3 1 1 1 }'));
ENDSEC;

DATA;
#10=CONSTRUCTIVE_GEOMETRY_REPRESENTATION_RELATIONSHIP(
'supplemental geometry','',#26,#11);
#11=CONSTRUCTIVE_GEOMETRY_REPRESENTATION('supplemental geometry',(#188,
#189,#190),#305);
#12=GEOMETRICALLY_BOUNDED_WIREFRAME_SHAPE_REPRESENTATION('Tool-None',(#27),
#305);
#13=SHAPE_REPRESENTATION_RELATIONSHIP('None',
'relationship between Tool-None and Tool-None',#26,#15);
#14=SHAPE_REPRESENTATION_RELATIONSHIP('None',
'relationship between Tool-None and Tool-None',#26,#12);
#15=ADVANCED_BREP_SHAPE_REPRESENTATION('Tool-None',(#38,#39),#305);
#16=SHAPE_DEFINITION_REPRESENTATION(#17,#26);
#17=PRODUCT_DEFINITION_SHAPE('','',#18);
#18=PRODUCT_DEFINITION(' ','',#20,#19);
#19=PRODUCT_DEFINITION_CONTEXT('part definition',#25,'design');
#20=PRODUCT_DEFINITION_FORMATION_WITH_SPECIFIED_SOURCE(' ',' ',#22,
 .NOT_KNOWN.);
#21=PRODUCT_RELATED_PRODUCT_CATEGORY('part','',(#22));
#22=PRODUCT('Tool','Tool',' ',(#23));
#23=PRODUCT_CONTEXT(' ',#25,'mechanical');
#24=APPLICATION_PROTOCOL_DEFINITION('international standard',
'automotive_design',2010,#25);
#25=APPLICATION_CONTEXT(
'core data for automotive mechanical design processes');
#26=SHAPE_REPRESENTATION('Tool-None',(#187),#305);
#27=GEOMETRIC_CURVE_SET('None',(#255,#256,#257,#155));
#28=SURFACE_STYLE_USAGE(.BOTH.,#30);
#29=SURFACE_STYLE_USAGE(.BOTH.,#31);
#30=SURFACE_SIDE_STYLE('',(#32));
#31=SURFACE_SIDE_STYLE('',(#33));
#32=SURFACE_STYLE_FILL_AREA(#34);
#33=SURFACE_STYLE_FILL_AREA(#35);
#34=FILL_AREA_STYLE('',(#36));
#35=FILL_AREA_STYLE('',(#37));
#36=FILL_AREA_STYLE_COLOUR('',#185);
#37=FILL_AREA_STYLE_COLOUR('',#186);
#38=MANIFOLD_SOLID_BREP('NOCUT',#40);
#39=MANIFOLD_SOLID_BREP('CUT',#41);
#40=CLOSED_SHELL('',(#57,#58,#59,#60,#61,#62,#63));
#41=CLOSED_SHELL('',(#64,#65,#66));
#42=CONICAL_SURFACE('',#198,5.2,45.0000000000001);
#43=PLANE('',#197);
#44=PLANE('',#199);
#45=PLANE('',#200);
#46=PLANE('',#201);
#47=PLANE('',#202);
#48=PLANE('',#204);
#49=PLANE('',#207);
#50=FACE_OUTER_BOUND('',#84,.T.);
#51=FACE_OUTER_BOUND('',#87,.T.);
#52=FACE_OUTER_BOUND('',#88,.T.);
#53=FACE_OUTER_BOUND('',#89,.T.);
#54=FACE_OUTER_BOUND('',#90,.T.);
#55=FACE_OUTER_BOUND('',#91,.T.);
#56=FACE_OUTER_BOUND('',#94,.T.);
#57=ADVANCED_FACE('',(#74,#75,#76),#67,.T.);
#58=ADVANCED_FACE('',(#50),#43,.F.);
#59=ADVANCED_FACE('',(#77,#78),#42,.T.);
#60=ADVANCED_FACE('',(#51),#44,.T.);
#61=ADVANCED_FACE('',(#52),#45,.T.);
#62=ADVANCED_FACE('',(#53),#46,.T.);
#63=ADVANCED_FACE('',(#54),#47,.T.);
#64=ADVANCED_FACE('',(#55),#48,.T.);
#65=ADVANCED_FACE('',(#79,#80),#68,.T.);
#66=ADVANCED_FACE('',(#56),#49,.F.);
#67=CYLINDRICAL_SURFACE('',#195,6.);
#68=CYLINDRICAL_SURFACE('',#206,6.);
#69=CIRCLE('',#193,6.);
#70=CIRCLE('',#194,6.);
#71=CIRCLE('',#196,5.2);
#72=CIRCLE('',#203,6.);
#73=CIRCLE('',#205,6.);
#74=FACE_BOUND('',#81,.T.);
#75=FACE_BOUND('',#82,.T.);
#76=FACE_BOUND('',#83,.T.);
#77=FACE_BOUND('',#85,.T.);
#78=FACE_BOUND('',#86,.T.);
#79=FACE_BOUND('',#92,.T.);
#80=FACE_BOUND('',#93,.T.);
#81=EDGE_LOOP('',(#103,#104,#105,#106));
#82=EDGE_LOOP('',(#107));
#83=EDGE_LOOP('',(#108));
#84=EDGE_LOOP('',(#109));
#85=EDGE_LOOP('',(#110));
#86=EDGE_LOOP('',(#111));
#87=EDGE_LOOP('',(#112,#113));
#88=EDGE_LOOP('',(#114,#115,#116,#117));
#89=EDGE_LOOP('',(#118,#119));
#90=EDGE_LOOP('',(#120));
#91=EDGE_LOOP('',(#121));
#92=EDGE_LOOP('',(#122));
#93=EDGE_LOOP('',(#123));
#94=EDGE_LOOP('',(#124));
#95=LINE('',#277,#99);
#96=LINE('',#281,#100);
#97=LINE('',#291,#101);
#98=LINE('',#293,#102);
#99=VECTOR('',#218,1.);
#100=VECTOR('',#221,1.);
#101=VECTOR('',#234,1.);
#102=VECTOR('',#237,1.);
#103=ORIENTED_EDGE('',*,*,#134,.F.);
#104=ORIENTED_EDGE('',*,*,#135,.F.);
#105=ORIENTED_EDGE('',*,*,#136,.F.);
#106=ORIENTED_EDGE('',*,*,#137,.F.);
#107=ORIENTED_EDGE('',*,*,#138,.T.);
#108=ORIENTED_EDGE('',*,*,#139,.F.);
#109=ORIENTED_EDGE('',*,*,#140,.T.);
#110=ORIENTED_EDGE('',*,*,#138,.F.);
#111=ORIENTED_EDGE('',*,*,#140,.F.);
#112=ORIENTED_EDGE('',*,*,#134,.T.);
#113=ORIENTED_EDGE('',*,*,#141,.F.);
#114=ORIENTED_EDGE('',*,*,#135,.T.);
#115=ORIENTED_EDGE('',*,*,#141,.T.);
#116=ORIENTED_EDGE('',*,*,#137,.T.);
#117=ORIENTED_EDGE('',*,*,#142,.F.);
#118=ORIENTED_EDGE('',*,*,#136,.T.);
#119=ORIENTED_EDGE('',*,*,#142,.T.);
#120=ORIENTED_EDGE('',*,*,#139,.T.);
#121=ORIENTED_EDGE('',*,*,#143,.T.);
#122=ORIENTED_EDGE('',*,*,#144,.T.);
#123=ORIENTED_EDGE('',*,*,#143,.F.);
#124=ORIENTED_EDGE('',*,*,#144,.F.);
#125=VERTEX_POINT('',#275);
#126=VERTEX_POINT('',#276);
#127=VERTEX_POINT('',#278);
#128=VERTEX_POINT('',#280);
#129=VERTEX_POINT('',#283);
#130=VERTEX_POINT('',#285);
#131=VERTEX_POINT('',#288);
#132=VERTEX_POINT('',#298);
#133=VERTEX_POINT('',#301);
#134=EDGE_CURVE('',#125,#126,#145,.T.);
#135=EDGE_CURVE('',#127,#125,#95,.T.);
#136=EDGE_CURVE('',#128,#127,#146,.T.);
#137=EDGE_CURVE('',#126,#128,#96,.T.);
#138=EDGE_CURVE('',#129,#129,#69,.T.);
#139=EDGE_CURVE('',#130,#130,#70,.T.);
#140=EDGE_CURVE('',#131,#131,#71,.T.);
#141=EDGE_CURVE('',#125,#126,#97,.T.);
#142=EDGE_CURVE('',#127,#128,#98,.T.);
#143=EDGE_CURVE('',#132,#132,#72,.T.);
#144=EDGE_CURVE('',#133,#133,#73,.T.);
#145=ELLIPSE('',#191,8.48528137423856,6.);
#146=ELLIPSE('',#192,8.48528137423857,6.);
#147=CURVE_STYLE('',#151,POSITIVE_LENGTH_MEASURE(0.18),#157);
#148=CURVE_STYLE('',#152,POSITIVE_LENGTH_MEASURE(0.13),#184);
#149=CURVE_STYLE('',#153,POSITIVE_LENGTH_MEASURE(0.18),#183);
#150=CURVE_STYLE('',#154,POSITIVE_LENGTH_MEASURE(0.18),#183);
#151=DRAUGHTING_PRE_DEFINED_CURVE_FONT('continuous');
#152=DRAUGHTING_PRE_DEFINED_CURVE_FONT('continuous');
#153=DRAUGHTING_PRE_DEFINED_CURVE_FONT('continuous');
#154=DRAUGHTING_PRE_DEFINED_CURVE_FONT('continuous');
#155=B_SPLINE_CURVE_WITH_KNOTS('CUTTING PART LINE',3,(#258,#259,#260,#261,
#262,#263,#264,#265,#266,#267,#268,#269,#270),.UNSPECIFIED.,.T.,.F.,(4,
3,3,3,4),(0.,0.333333333334259,0.5,0.833333333334259,1.),.UNSPECIFIED.);
#156=DRAUGHTING_PRE_DEFINED_COLOUR('white');
#157=DRAUGHTING_PRE_DEFINED_COLOUR('blue');
#158=PRESENTATION_LAYER_ASSIGNMENT('1','Layer 1',(#255,#256,#257,#155,#188,
#189,#190,#38,#39));
#159=STYLED_ITEM('',(#168),#255);
#160=STYLED_ITEM('',(#169),#256);
#161=STYLED_ITEM('',(#170),#257);
#162=STYLED_ITEM('',(#171),#155);
#163=STYLED_ITEM('',(#172),#188);
#164=STYLED_ITEM('',(#173),#189);
#165=STYLED_ITEM('',(#174),#190);
#166=STYLED_ITEM('',(#175),#38);
#167=STYLED_ITEM('',(#176),#39);
#168=PRESENTATION_STYLE_ASSIGNMENT((#177));
#169=PRESENTATION_STYLE_ASSIGNMENT((#178));
#170=PRESENTATION_STYLE_ASSIGNMENT((#179));
#171=PRESENTATION_STYLE_ASSIGNMENT((#147));
#172=PRESENTATION_STYLE_ASSIGNMENT((#148));
#173=PRESENTATION_STYLE_ASSIGNMENT((#149));
#174=PRESENTATION_STYLE_ASSIGNMENT((#150));
#175=PRESENTATION_STYLE_ASSIGNMENT((#28));
#176=PRESENTATION_STYLE_ASSIGNMENT((#29));
#177=POINT_STYLE('',#180,POSITIVE_LENGTH_MEASURE(3.),#183);
#178=POINT_STYLE('',#181,POSITIVE_LENGTH_MEASURE(3.),#156);
#179=POINT_STYLE('',#182,POSITIVE_LENGTH_MEASURE(3.),#183);
#180=PRE_DEFINED_POINT_MARKER_SYMBOL('plus');
#181=PRE_DEFINED_POINT_MARKER_SYMBOL('plus');
#182=PRE_DEFINED_POINT_MARKER_SYMBOL('plus');
#183=COLOUR_RGB('Medium Maroon',0.6,0.4,0.4);
#184=COLOUR_RGB('Silver Gray',0.6,0.6,0.6);
#185=COLOUR_RGB('TLS_NOCUT',0.498023956664378,0.498023956664378,0.498023956664378);
#186=COLOUR_RGB('TLS_CUT',0.8,0.8,0.8);
#187=AXIS2_PLACEMENT_3D('',#254,#208,#209);
#188=AXIS2_PLACEMENT_3D('PCS',#271,#210,#211);
#189=AXIS2_PLACEMENT_3D('MCS',#272,#212,#213);
#190=AXIS2_PLACEMENT_3D('CIP',#273,#214,#215);
#191=AXIS2_PLACEMENT_3D('',#274,#216,#217);
#192=AXIS2_PLACEMENT_3D('',#279,#219,#220);
#193=AXIS2_PLACEMENT_3D('',#282,#222,#223);
#194=AXIS2_PLACEMENT_3D('',#284,#224,#225);
#195=AXIS2_PLACEMENT_3D('',#286,#226,#227);
#196=AXIS2_PLACEMENT_3D('',#287,#228,#229);
#197=AXIS2_PLACEMENT_3D('',#289,#230,#231);
#198=AXIS2_PLACEMENT_3D('',#290,#232,#233);
#199=AXIS2_PLACEMENT_3D('',#292,#235,#236);
#200=AXIS2_PLACEMENT_3D('',#294,#238,#239);
#201=AXIS2_PLACEMENT_3D('',#295,#240,#241);
#202=AXIS2_PLACEMENT_3D('',#296,#242,#243);
#203=AXIS2_PLACEMENT_3D('',#297,#244,#245);
#204=AXIS2_PLACEMENT_3D('',#299,#246,#247);
#205=AXIS2_PLACEMENT_3D('',#300,#248,#249);
#206=AXIS2_PLACEMENT_3D('',#302,#250,#251);
#207=AXIS2_PLACEMENT_3D('',#303,#252,#253);
#208=DIRECTION('',(0.,0.,1.));
#209=DIRECTION('',(1.,0.,0.));
#210=DIRECTION('',(0.,0.,1.));
#211=DIRECTION('',(1.,0.,0.));
#212=DIRECTION('',(0.,0.,1.));
#213=DIRECTION('',(1.,0.,0.));
#214=DIRECTION('',(0.,0.,1.));
#215=DIRECTION('',(1.,0.,0.));
#216=DIRECTION('',(0.,0.707106781186547,-0.707106781186548));
#217=DIRECTION('',(0.,0.707106781186548,0.707106781186547));
#218=DIRECTION('',(0.,0.,1.));
#219=DIRECTION('',(0.,0.707106781186548,0.707106781186548));
#220=DIRECTION('',(0.,-0.707106781186548,0.707106781186548));
#221=DIRECTION('',(0.,0.,-1.));
#222=DIRECTION('',(0.,0.,-1.));
#223=DIRECTION('',(-1.,0.,0.));
#224=DIRECTION('',(0.,0.,-1.));
#225=DIRECTION('',(-1.,0.,0.));
#226=DIRECTION('',(0.,0.,1.));
#227=DIRECTION('',(1.,0.,0.));
#228=DIRECTION('',(0.,0.,1.));
#229=DIRECTION('',(-1.,0.,0.));
#230=DIRECTION('',(0.,0.,-1.));
#231=DIRECTION('',(-1.,0.,0.));
#232=DIRECTION('',(0.,0.,-1.));
#233=DIRECTION('',(-1.,0.,0.));
#234=DIRECTION('',(1.,0.,0.));
#235=DIRECTION('',(0.,0.707106781186547,-0.707106781186548));
#236=DIRECTION('',(0.,-0.707106781186548,-0.707106781186547));
#237=DIRECTION('',(1.,0.,0.));
#238=DIRECTION('',(0.,1.,-1.0842021724855E-16));
#239=DIRECTION('',(0.,-1.0842021724855E-16,-1.));
#240=DIRECTION('',(0.,0.707106781186548,0.707106781186548));
#241=DIRECTION('',(0.,0.707106781186548,-0.707106781186548));
#242=DIRECTION('',(0.,0.,-1.));
#243=DIRECTION('',(-1.,0.,0.));
#244=DIRECTION('',(0.,0.,1.));
#245=DIRECTION('',(1.,0.,0.));
#246=DIRECTION('',(0.,0.,1.));
#247=DIRECTION('',(1.,0.,0.));
#248=DIRECTION('',(0.,0.,1.));
#249=DIRECTION('',(1.,0.,0.));
#250=DIRECTION('',(0.,0.,1.));
#251=DIRECTION('',(1.,0.,0.));
#252=DIRECTION('',(0.,0.,1.));
#253=DIRECTION('',(1.,0.,0.));
#254=CARTESIAN_POINT('',(0.,0.,0.));
#255=CARTESIAN_POINT('',(0.,0.,-60.7297297297297));
#256=CARTESIAN_POINT('CRP',(-6.,0.,-73.));
#257=CARTESIAN_POINT('CIP_DCSYS',(0.,0.,-73.));
#258=CARTESIAN_POINT('',(0.,0.,-73.));
#259=CARTESIAN_POINT('',(0.,0.,-69.));
#260=CARTESIAN_POINT('',(0.,0.,-65.));
#261=CARTESIAN_POINT('',(0.,0.,-61.));
#262=CARTESIAN_POINT('',(-2.,0.,-61.));
#263=CARTESIAN_POINT('',(-4.,0.,-61.));
#264=CARTESIAN_POINT('',(-6.,0.,-61.));
#265=CARTESIAN_POINT('',(-6.,0.,-65.));
#266=CARTESIAN_POINT('',(-6.,0.,-69.));
#267=CARTESIAN_POINT('',(-6.,0.,-73.));
#268=CARTESIAN_POINT('',(-4.,0.,-73.));
#269=CARTESIAN_POINT('',(-2.,0.,-73.));
#270=CARTESIAN_POINT('',(0.,0.,-73.));
#271=CARTESIAN_POINT('',(0.,0.,0.));
#272=CARTESIAN_POINT('',(0.,0.,-60.7297297297297));
#273=CARTESIAN_POINT('',(0.,0.,-73.));
#274=CARTESIAN_POINT('',(0.,0.,-22.9));
#275=CARTESIAN_POINT('',(-4.07921561087423,4.4,-18.5));
#276=CARTESIAN_POINT('',(4.07921561087423,4.4,-18.5));
#277=CARTESIAN_POINT('',(-4.07921561087423,4.4,-4.77048955893622E-16));
#278=CARTESIAN_POINT('',(-4.07921561087423,4.39999999999999,-26.5));
#279=CARTESIAN_POINT('',(0.,0.,-22.1));
#280=CARTESIAN_POINT('',(4.07921561087423,4.39999999999999,-26.5));
#281=CARTESIAN_POINT('',(4.07921561087423,4.4,-4.77048955893622E-16));
#282=CARTESIAN_POINT('',(0.,0.,-0.799999999999999));
#283=CARTESIAN_POINT('',(-6.,0.,-0.799999999999999));
#284=CARTESIAN_POINT('',(0.,0.,-61.));
#285=CARTESIAN_POINT('',(-6.,0.,-61.));
#286=CARTESIAN_POINT('',(0.,0.,0.));
#287=CARTESIAN_POINT('',(0.,0.,0.));
#288=CARTESIAN_POINT('',(-5.2,0.,0.));
#289=CARTESIAN_POINT('',(0.,6.,0.));
#290=CARTESIAN_POINT('',(0.,0.,0.));
#291=CARTESIAN_POINT('',(10.,4.4,-18.5));
#292=CARTESIAN_POINT('',(10.,6.,-16.9));
#293=CARTESIAN_POINT('',(10.,4.39999999999999,-26.5));
#294=CARTESIAN_POINT('',(10.,4.4,-18.5));
#295=CARTESIAN_POINT('',(10.,6.,-28.1));
#296=CARTESIAN_POINT('',(0.,0.,-61.));
#297=CARTESIAN_POINT('',(0.,0.,-61.));
#298=CARTESIAN_POINT('',(6.,0.,-61.));
#299=CARTESIAN_POINT('',(0.,0.,-61.));
#300=CARTESIAN_POINT('',(0.,0.,-73.));
#301=CARTESIAN_POINT('',(6.,0.,-73.));
#302=CARTESIAN_POINT('',(0.,0.,0.));
#303=CARTESIAN_POINT('',(0.,0.,-73.));
#304=MECHANICAL_DESIGN_GEOMETRIC_PRESENTATION_REPRESENTATION('',(#159,#160,
#161,#162,#163,#164,#165,#166,#167),#305);
#305=(
GEOMETRIC_REPRESENTATION_CONTEXT(3)
GLOBAL_UNCERTAINTY_ASSIGNED_CONTEXT((#306))
GLOBAL_UNIT_ASSIGNED_CONTEXT((#312,#308,#307))
REPRESENTATION_CONTEXT('tool','TOP_LEVEL_ASSEMBLY_PART')
);
#306=UNCERTAINTY_MEASURE_WITH_UNIT(LENGTH_MEASURE(2.E-5),#312,
'DISTANCE_ACCURACY_VALUE','Maximum Tolerance applied to model');
#307=(
NAMED_UNIT(*)
SI_UNIT($,.STERADIAN.)
SOLID_ANGLE_UNIT()
);
#308=(
CONVERSION_BASED_UNIT('DEGREE',#310)
NAMED_UNIT(#309)
PLANE_ANGLE_UNIT()
);
#309=DIMENSIONAL_EXPONENTS(0.,0.,0.,0.,0.,0.,0.);
#310=PLANE_ANGLE_MEASURE_WITH_UNIT(PLANE_ANGLE_MEASURE(0.0174532925),#311);
#311=(
NAMED_UNIT(*)
PLANE_ANGLE_UNIT()
SI_UNIT($,.RADIAN.)
);
#312=(
LENGTH_UNIT()
NAMED_UNIT(*)
SI_UNIT(.MILLI.,.METRE.)
);
ENDSEC;
END-ISO-10303-21;
