ISO-10303-21;
HEADER;
/* Generated by software containing ST-Developer
 * from STEP Tools, Inc. (www.steptools.com) 
 */
/* OPTION: using custom schema-name function */

FILE_DESCRIPTION(
/* description */ (''),
/* implementation_level */ '2;1');

FILE_NAME(
/* name */ 'tool.stp',
/* time_stamp */ '2022-05-19T05:22:49+02:00',
/* author */ (''),
/* organization */ ('SMS'),
/* preprocessor_version */ 'ST-DEVELOPER v16.7',
/* originating_system */ 'SIEMENS PLM Software NX 12.0',
/* authorisation */ '');

FILE_SCHEMA (('AUTOMOTIVE_DESIGN { 1 0 10303 214 3 1 1 1 }'));
ENDSEC;

DATA;
#10=CONSTRUCTIVE_GEOMETRY_REPRESENTATION_RELATIONSHIP(
'supplemental geometry','',#26,#11);
#11=CONSTRUCTIVE_GEOMETRY_REPRESENTATION('supplemental geometry',(#221,
#222,#223),#365);
#12=GEOMETRICALLY_BOUNDED_WIREFRAME_SHAPE_REPRESENTATION('Tool-None',(#27),
#365);
#13=SHAPE_REPRESENTATION_RELATIONSHIP('None',
'relationship between Tool-None and Tool-None',#26,#15);
#14=SHAPE_REPRESENTATION_RELATIONSHIP('None',
'relationship between Tool-None and Tool-None',#26,#12);
#15=ADVANCED_BREP_SHAPE_REPRESENTATION('Tool-None',(#38,#39),#365);
#16=SHAPE_DEFINITION_REPRESENTATION(#17,#26);
#17=PRODUCT_DEFINITION_SHAPE('','',#18);
#18=PRODUCT_DEFINITION(' ','',#20,#19);
#19=PRODUCT_DEFINITION_CONTEXT('part definition',#25,'design');
#20=PRODUCT_DEFINITION_FORMATION_WITH_SPECIFIED_SOURCE(' ',' ',#22,
 .NOT_KNOWN.);
#21=PRODUCT_RELATED_PRODUCT_CATEGORY('part','',(#22));
#22=PRODUCT('Tool','Tool',' ',(#23));
#23=PRODUCT_CONTEXT(' ',#25,'mechanical');
#24=APPLICATION_PROTOCOL_DEFINITION('international standard',
'automotive_design',2010,#25);
#25=APPLICATION_CONTEXT(
'core data for automotive mechanical design processes');
#26=SHAPE_REPRESENTATION('Tool-None',(#220),#365);
#27=GEOMETRIC_CURVE_SET('None',(#306,#307,#308,#188));
#28=SURFACE_STYLE_USAGE(.BOTH.,#30);
#29=SURFACE_STYLE_USAGE(.BOTH.,#31);
#30=SURFACE_SIDE_STYLE('',(#32));
#31=SURFACE_SIDE_STYLE('',(#33));
#32=SURFACE_STYLE_FILL_AREA(#34);
#33=SURFACE_STYLE_FILL_AREA(#35);
#34=FILL_AREA_STYLE('',(#36));
#35=FILL_AREA_STYLE('',(#37));
#36=FILL_AREA_STYLE_COLOUR('',#218);
#37=FILL_AREA_STYLE_COLOUR('',#219);
#38=MANIFOLD_SOLID_BREP('NOCUT',#40);
#39=MANIFOLD_SOLID_BREP('CUT',#41);
#40=CLOSED_SHELL('',(#69,#70,#71,#72,#73,#74,#75,#76,#77,#78));
#41=CLOSED_SHELL('',(#79,#80,#81));
#42=PLANE('',#236);
#43=PLANE('',#238);
#44=PLANE('',#239);
#45=PLANE('',#240);
#46=PLANE('',#241);
#47=PLANE('',#243);
#48=PLANE('',#246);
#49=FACE_OUTER_BOUND('',#107,.T.);
#50=FACE_OUTER_BOUND('',#110,.T.);
#51=FACE_OUTER_BOUND('',#111,.T.);
#52=FACE_OUTER_BOUND('',#112,.T.);
#53=FACE_OUTER_BOUND('',#113,.T.);
#54=FACE_OUTER_BOUND('',#114,.T.);
#55=FACE_OUTER_BOUND('',#117,.T.);
#56=TOROIDAL_SURFACE('',#234,5.85,1.);
#57=CONICAL_SURFACE('',#233,4.85,30.);
#58=CONICAL_SURFACE('',#237,4.4,45.);
#59=LINE('',#337,#63);
#60=LINE('',#341,#64);
#61=LINE('',#351,#65);
#62=LINE('',#353,#66);
#63=VECTOR('',#267,1.);
#64=VECTOR('',#270,1.);
#65=VECTOR('',#285,1.);
#66=VECTOR('',#288,1.);
#67=ELLIPSE('',#229,7.07106781186549,5.);
#68=ELLIPSE('',#230,7.07106781186547,5.);
#69=ADVANCED_FACE('',(#85,#86),#82,.T.);
#70=ADVANCED_FACE('',(#87,#88,#89),#83,.T.);
#71=ADVANCED_FACE('',(#90,#91),#57,.T.);
#72=ADVANCED_FACE('',(#92,#93),#56,.F.);
#73=ADVANCED_FACE('',(#49),#42,.F.);
#74=ADVANCED_FACE('',(#94,#95),#58,.T.);
#75=ADVANCED_FACE('',(#50),#43,.T.);
#76=ADVANCED_FACE('',(#51),#44,.T.);
#77=ADVANCED_FACE('',(#52),#45,.T.);
#78=ADVANCED_FACE('',(#53),#46,.T.);
#79=ADVANCED_FACE('',(#54),#47,.T.);
#80=ADVANCED_FACE('',(#96,#97),#84,.T.);
#81=ADVANCED_FACE('',(#55),#48,.F.);
#82=CYLINDRICAL_SURFACE('',#226,4.85);
#83=CYLINDRICAL_SURFACE('',#231,5.);
#84=CYLINDRICAL_SURFACE('',#245,4.85);
#85=FACE_BOUND('',#98,.T.);
#86=FACE_BOUND('',#99,.T.);
#87=FACE_BOUND('',#100,.T.);
#88=FACE_BOUND('',#101,.T.);
#89=FACE_BOUND('',#102,.T.);
#90=FACE_BOUND('',#103,.T.);
#91=FACE_BOUND('',#104,.T.);
#92=FACE_BOUND('',#105,.T.);
#93=FACE_BOUND('',#106,.T.);
#94=FACE_BOUND('',#108,.T.);
#95=FACE_BOUND('',#109,.T.);
#96=FACE_BOUND('',#115,.T.);
#97=FACE_BOUND('',#116,.T.);
#98=EDGE_LOOP('',(#118));
#99=EDGE_LOOP('',(#119));
#100=EDGE_LOOP('',(#120));
#101=EDGE_LOOP('',(#121));
#102=EDGE_LOOP('',(#122,#123,#124,#125));
#103=EDGE_LOOP('',(#126));
#104=EDGE_LOOP('',(#127));
#105=EDGE_LOOP('',(#128));
#106=EDGE_LOOP('',(#129));
#107=EDGE_LOOP('',(#130));
#108=EDGE_LOOP('',(#131));
#109=EDGE_LOOP('',(#132));
#110=EDGE_LOOP('',(#133,#134));
#111=EDGE_LOOP('',(#135,#136,#137,#138));
#112=EDGE_LOOP('',(#139,#140));
#113=EDGE_LOOP('',(#141));
#114=EDGE_LOOP('',(#142));
#115=EDGE_LOOP('',(#143));
#116=EDGE_LOOP('',(#144));
#117=EDGE_LOOP('',(#145));
#118=ORIENTED_EDGE('',*,*,#158,.T.);
#119=ORIENTED_EDGE('',*,*,#159,.F.);
#120=ORIENTED_EDGE('',*,*,#160,.T.);
#121=ORIENTED_EDGE('',*,*,#161,.T.);
#122=ORIENTED_EDGE('',*,*,#162,.F.);
#123=ORIENTED_EDGE('',*,*,#163,.F.);
#124=ORIENTED_EDGE('',*,*,#164,.F.);
#125=ORIENTED_EDGE('',*,*,#165,.F.);
#126=ORIENTED_EDGE('',*,*,#166,.T.);
#127=ORIENTED_EDGE('',*,*,#160,.F.);
#128=ORIENTED_EDGE('',*,*,#158,.F.);
#129=ORIENTED_EDGE('',*,*,#166,.F.);
#130=ORIENTED_EDGE('',*,*,#167,.T.);
#131=ORIENTED_EDGE('',*,*,#161,.F.);
#132=ORIENTED_EDGE('',*,*,#167,.F.);
#133=ORIENTED_EDGE('',*,*,#162,.T.);
#134=ORIENTED_EDGE('',*,*,#168,.F.);
#135=ORIENTED_EDGE('',*,*,#163,.T.);
#136=ORIENTED_EDGE('',*,*,#168,.T.);
#137=ORIENTED_EDGE('',*,*,#165,.T.);
#138=ORIENTED_EDGE('',*,*,#169,.F.);
#139=ORIENTED_EDGE('',*,*,#164,.T.);
#140=ORIENTED_EDGE('',*,*,#169,.T.);
#141=ORIENTED_EDGE('',*,*,#159,.T.);
#142=ORIENTED_EDGE('',*,*,#170,.T.);
#143=ORIENTED_EDGE('',*,*,#171,.T.);
#144=ORIENTED_EDGE('',*,*,#170,.F.);
#145=ORIENTED_EDGE('',*,*,#171,.F.);
#146=VERTEX_POINT('',#326);
#147=VERTEX_POINT('',#328);
#148=VERTEX_POINT('',#331);
#149=VERTEX_POINT('',#333);
#150=VERTEX_POINT('',#335);
#151=VERTEX_POINT('',#336);
#152=VERTEX_POINT('',#338);
#153=VERTEX_POINT('',#340);
#154=VERTEX_POINT('',#344);
#155=VERTEX_POINT('',#348);
#156=VERTEX_POINT('',#358);
#157=VERTEX_POINT('',#361);
#158=EDGE_CURVE('',#146,#146,#172,.T.);
#159=EDGE_CURVE('',#147,#147,#173,.T.);
#160=EDGE_CURVE('',#148,#148,#174,.T.);
#161=EDGE_CURVE('',#149,#149,#175,.T.);
#162=EDGE_CURVE('',#150,#151,#67,.T.);
#163=EDGE_CURVE('',#152,#150,#59,.T.);
#164=EDGE_CURVE('',#153,#152,#68,.T.);
#165=EDGE_CURVE('',#151,#153,#60,.T.);
#166=EDGE_CURVE('',#154,#154,#176,.T.);
#167=EDGE_CURVE('',#155,#155,#177,.T.);
#168=EDGE_CURVE('',#150,#151,#61,.T.);
#169=EDGE_CURVE('',#152,#153,#62,.T.);
#170=EDGE_CURVE('',#156,#156,#178,.T.);
#171=EDGE_CURVE('',#157,#157,#179,.T.);
#172=CIRCLE('',#224,4.85);
#173=CIRCLE('',#225,4.85);
#174=CIRCLE('',#227,5.);
#175=CIRCLE('',#228,5.);
#176=CIRCLE('',#232,4.98397459621556);
#177=CIRCLE('',#235,4.4);
#178=CIRCLE('',#242,4.85);
#179=CIRCLE('',#244,4.85);
#180=CURVE_STYLE('',#184,POSITIVE_LENGTH_MEASURE(0.18),#190);
#181=CURVE_STYLE('',#185,POSITIVE_LENGTH_MEASURE(0.13),#217);
#182=CURVE_STYLE('',#186,POSITIVE_LENGTH_MEASURE(0.18),#216);
#183=CURVE_STYLE('',#187,POSITIVE_LENGTH_MEASURE(0.18),#216);
#184=DRAUGHTING_PRE_DEFINED_CURVE_FONT('continuous');
#185=DRAUGHTING_PRE_DEFINED_CURVE_FONT('continuous');
#186=DRAUGHTING_PRE_DEFINED_CURVE_FONT('continuous');
#187=DRAUGHTING_PRE_DEFINED_CURVE_FONT('continuous');
#188=B_SPLINE_CURVE_WITH_KNOTS('CUTTING PART LINE',3,(#309,#310,#311,#312,
#313,#314,#315,#316,#317,#318,#319,#320,#321),.UNSPECIFIED.,.T.,.F.,(4,
3,3,3,4),(0.,0.333333333333333,0.5,0.833333333333333,1.),.UNSPECIFIED.);
#189=DRAUGHTING_PRE_DEFINED_COLOUR('white');
#190=DRAUGHTING_PRE_DEFINED_COLOUR('blue');
#191=PRESENTATION_LAYER_ASSIGNMENT('1','Layer 1',(#306,#307,#308,#188,#221,
#222,#223,#38,#39));
#192=STYLED_ITEM('',(#201),#306);
#193=STYLED_ITEM('',(#202),#307);
#194=STYLED_ITEM('',(#203),#308);
#195=STYLED_ITEM('',(#204),#188);
#196=STYLED_ITEM('',(#205),#221);
#197=STYLED_ITEM('',(#206),#222);
#198=STYLED_ITEM('',(#207),#223);
#199=STYLED_ITEM('',(#208),#38);
#200=STYLED_ITEM('',(#209),#39);
#201=PRESENTATION_STYLE_ASSIGNMENT((#210));
#202=PRESENTATION_STYLE_ASSIGNMENT((#211));
#203=PRESENTATION_STYLE_ASSIGNMENT((#212));
#204=PRESENTATION_STYLE_ASSIGNMENT((#180));
#205=PRESENTATION_STYLE_ASSIGNMENT((#181));
#206=PRESENTATION_STYLE_ASSIGNMENT((#182));
#207=PRESENTATION_STYLE_ASSIGNMENT((#183));
#208=PRESENTATION_STYLE_ASSIGNMENT((#28));
#209=PRESENTATION_STYLE_ASSIGNMENT((#29));
#210=POINT_STYLE('',#213,POSITIVE_LENGTH_MEASURE(3.),#216);
#211=POINT_STYLE('',#214,POSITIVE_LENGTH_MEASURE(3.),#189);
#212=POINT_STYLE('',#215,POSITIVE_LENGTH_MEASURE(3.),#216);
#213=PRE_DEFINED_POINT_MARKER_SYMBOL('plus');
#214=PRE_DEFINED_POINT_MARKER_SYMBOL('plus');
#215=PRE_DEFINED_POINT_MARKER_SYMBOL('plus');
#216=COLOUR_RGB('Medium Maroon',0.6,0.4,0.4);
#217=COLOUR_RGB('Silver Gray',0.6,0.6,0.6);
#218=COLOUR_RGB('TLS_NOCUT',0.498023956664378,0.498023956664378,0.498023956664378);
#219=COLOUR_RGB('TLS_CUT',0.8,0.8,0.8);
#220=AXIS2_PLACEMENT_3D('',#305,#247,#248);
#221=AXIS2_PLACEMENT_3D('PCS',#322,#249,#250);
#222=AXIS2_PLACEMENT_3D('MCS',#323,#251,#252);
#223=AXIS2_PLACEMENT_3D('CIP',#324,#253,#254);
#224=AXIS2_PLACEMENT_3D('',#325,#255,#256);
#225=AXIS2_PLACEMENT_3D('',#327,#257,#258);
#226=AXIS2_PLACEMENT_3D('',#329,#259,#260);
#227=AXIS2_PLACEMENT_3D('',#330,#261,#262);
#228=AXIS2_PLACEMENT_3D('',#332,#263,#264);
#229=AXIS2_PLACEMENT_3D('',#334,#265,#266);
#230=AXIS2_PLACEMENT_3D('',#339,#268,#269);
#231=AXIS2_PLACEMENT_3D('',#342,#271,#272);
#232=AXIS2_PLACEMENT_3D('',#343,#273,#274);
#233=AXIS2_PLACEMENT_3D('',#345,#275,#276);
#234=AXIS2_PLACEMENT_3D('',#346,#277,#278);
#235=AXIS2_PLACEMENT_3D('',#347,#279,#280);
#236=AXIS2_PLACEMENT_3D('',#349,#281,#282);
#237=AXIS2_PLACEMENT_3D('',#350,#283,#284);
#238=AXIS2_PLACEMENT_3D('',#352,#286,#287);
#239=AXIS2_PLACEMENT_3D('',#354,#289,#290);
#240=AXIS2_PLACEMENT_3D('',#355,#291,#292);
#241=AXIS2_PLACEMENT_3D('',#356,#293,#294);
#242=AXIS2_PLACEMENT_3D('',#357,#295,#296);
#243=AXIS2_PLACEMENT_3D('',#359,#297,#298);
#244=AXIS2_PLACEMENT_3D('',#360,#299,#300);
#245=AXIS2_PLACEMENT_3D('',#362,#301,#302);
#246=AXIS2_PLACEMENT_3D('',#363,#303,#304);
#247=DIRECTION('',(0.,0.,1.));
#248=DIRECTION('',(1.,0.,0.));
#249=DIRECTION('',(0.,0.,1.));
#250=DIRECTION('',(1.,0.,0.));
#251=DIRECTION('',(0.,0.,1.));
#252=DIRECTION('',(1.,0.,0.));
#253=DIRECTION('',(0.,0.,1.));
#254=DIRECTION('',(1.,0.,0.));
#255=DIRECTION('',(0.,0.,-1.));
#256=DIRECTION('',(1.,0.,0.));
#257=DIRECTION('',(0.,0.,-1.));
#258=DIRECTION('',(-1.,0.,0.));
#259=DIRECTION('',(0.,0.,1.));
#260=DIRECTION('',(1.,0.,0.));
#261=DIRECTION('',(0.,0.,1.));
#262=DIRECTION('',(1.,0.,0.));
#263=DIRECTION('',(0.,0.,-1.));
#264=DIRECTION('',(-1.,0.,0.));
#265=DIRECTION('',(0.,0.707106781186549,-0.707106781186546));
#266=DIRECTION('',(0.,0.707106781186546,0.707106781186549));
#267=DIRECTION('',(0.,0.,1.));
#268=DIRECTION('',(0.,0.707106781186547,0.707106781186548));
#269=DIRECTION('',(0.,-0.707106781186548,0.707106781186547));
#270=DIRECTION('',(0.,0.,-1.));
#271=DIRECTION('',(0.,0.,1.));
#272=DIRECTION('',(1.,0.,0.));
#273=DIRECTION('',(0.,0.,1.));
#274=DIRECTION('',(1.,0.,0.));
#275=DIRECTION('',(0.,0.,1.));
#276=DIRECTION('',(1.,0.,-4.76735877402845E-17));
#277=DIRECTION('',(0.,0.,1.));
#278=DIRECTION('',(1.,0.,0.));
#279=DIRECTION('',(0.,0.,1.));
#280=DIRECTION('',(-1.,0.,0.));
#281=DIRECTION('',(0.,0.,-1.));
#282=DIRECTION('',(-1.,0.,0.));
#283=DIRECTION('',(0.,0.,-1.));
#284=DIRECTION('',(-1.,0.,0.));
#285=DIRECTION('',(1.,0.,0.));
#286=DIRECTION('',(0.,0.707106781186549,-0.707106781186546));
#287=DIRECTION('',(0.,-0.707106781186546,-0.707106781186549));
#288=DIRECTION('',(1.,0.,0.));
#289=DIRECTION('',(0.,1.,-1.23908819712629E-16));
#290=DIRECTION('',(0.,-1.24032728532342E-16,-1.));
#291=DIRECTION('',(0.,0.707106781186547,0.707106781186548));
#292=DIRECTION('',(0.,0.707106781186548,-0.707106781186547));
#293=DIRECTION('',(0.,0.,-1.));
#294=DIRECTION('',(-1.,0.,0.));
#295=DIRECTION('',(0.,0.,1.));
#296=DIRECTION('',(1.,0.,0.));
#297=DIRECTION('',(0.,0.,1.));
#298=DIRECTION('',(1.,0.,0.));
#299=DIRECTION('',(0.,0.,1.));
#300=DIRECTION('',(1.,0.,0.));
#301=DIRECTION('',(0.,0.,1.));
#302=DIRECTION('',(1.,0.,0.));
#303=DIRECTION('',(0.,0.,1.));
#304=DIRECTION('',(1.,0.,0.));
#305=CARTESIAN_POINT('',(0.,0.,0.));
#306=CARTESIAN_POINT('',(0.,0.,-55.7699221085944));
#307=CARTESIAN_POINT('CRP',(-4.85,0.,-66.));
#308=CARTESIAN_POINT('CIP_DCSYS',(0.,0.,-66.));
#309=CARTESIAN_POINT('',(0.,0.,-66.));
#310=CARTESIAN_POINT('',(0.,0.,-62.7666666666667));
#311=CARTESIAN_POINT('',(0.,0.,-59.5333333333333));
#312=CARTESIAN_POINT('',(0.,0.,-56.3));
#313=CARTESIAN_POINT('',(-1.61666666666667,0.,-56.3));
#314=CARTESIAN_POINT('',(-3.23333333333333,0.,-56.3));
#315=CARTESIAN_POINT('',(-4.85,0.,-56.3));
#316=CARTESIAN_POINT('',(-4.85,0.,-59.5333333333333));
#317=CARTESIAN_POINT('',(-4.85,0.,-62.7666666666667));
#318=CARTESIAN_POINT('',(-4.85,0.,-66.));
#319=CARTESIAN_POINT('',(-3.23333333333333,0.,-66.));
#320=CARTESIAN_POINT('',(-1.61666666666667,0.,-66.));
#321=CARTESIAN_POINT('',(0.,0.,-66.));
#322=CARTESIAN_POINT('',(0.,0.,0.));
#323=CARTESIAN_POINT('',(0.,0.,-55.7699221085944));
#324=CARTESIAN_POINT('',(0.,0.,-66.));
#325=CARTESIAN_POINT('',(0.,0.,-56.2976789221608));
#326=CARTESIAN_POINT('',(4.85,0.,-56.2976789221608));
#327=CARTESIAN_POINT('',(0.,0.,-56.3));
#328=CARTESIAN_POINT('',(-4.85,0.,-56.3));
#329=CARTESIAN_POINT('',(0.,0.,0.));
#330=CARTESIAN_POINT('',(0.,0.,-55.7699221085944));
#331=CARTESIAN_POINT('',(5.,0.,-55.7699221085944));
#332=CARTESIAN_POINT('',(0.,0.,-0.6));
#333=CARTESIAN_POINT('',(-5.,0.,-0.6));
#334=CARTESIAN_POINT('',(0.,0.,-20.));
#335=CARTESIAN_POINT('',(-3.57071421427142,3.5,-16.5));
#336=CARTESIAN_POINT('',(3.57071421427143,3.5,-16.5));
#337=CARTESIAN_POINT('',(-3.57071421427143,3.5,20.9080749503476));
#338=CARTESIAN_POINT('',(-3.57071421427143,3.5,-23.5));
#339=CARTESIAN_POINT('',(0.,0.,-20.));
#340=CARTESIAN_POINT('',(3.57071421427144,3.5,-23.5));
#341=CARTESIAN_POINT('',(3.57071421427143,3.5,20.9080749503476));
#342=CARTESIAN_POINT('',(0.,0.,20.9080749503476));
#343=CARTESIAN_POINT('',(0.,0.,-55.7976789221608));
#344=CARTESIAN_POINT('',(4.98397459621556,0.,-55.7976789221608));
#345=CARTESIAN_POINT('',(0.,0.,-56.0297297297297));
#346=CARTESIAN_POINT('',(0.,0.,-56.2976789221608));
#347=CARTESIAN_POINT('',(0.,0.,0.));
#348=CARTESIAN_POINT('',(-4.4,0.,0.));
#349=CARTESIAN_POINT('',(0.,5.,0.));
#350=CARTESIAN_POINT('',(0.,0.,0.));
#351=CARTESIAN_POINT('',(10.,3.5,-16.5));
#352=CARTESIAN_POINT('',(10.,5.,-15.));
#353=CARTESIAN_POINT('',(10.,3.5,-23.5));
#354=CARTESIAN_POINT('',(10.,3.5,-16.5));
#355=CARTESIAN_POINT('',(10.,5.,-25.));
#356=CARTESIAN_POINT('',(0.,0.,-56.3));
#357=CARTESIAN_POINT('',(0.,0.,-56.3));
#358=CARTESIAN_POINT('',(4.85,0.,-56.3));
#359=CARTESIAN_POINT('',(0.,0.,-56.3));
#360=CARTESIAN_POINT('',(0.,0.,-66.));
#361=CARTESIAN_POINT('',(4.85,0.,-66.));
#362=CARTESIAN_POINT('',(0.,0.,0.));
#363=CARTESIAN_POINT('',(0.,0.,-66.));
#364=MECHANICAL_DESIGN_GEOMETRIC_PRESENTATION_REPRESENTATION('',(#192,#193,
#194,#195,#196,#197,#198,#199,#200),#365);
#365=(
GEOMETRIC_REPRESENTATION_CONTEXT(3)
GLOBAL_UNCERTAINTY_ASSIGNED_CONTEXT((#366))
GLOBAL_UNIT_ASSIGNED_CONTEXT((#372,#368,#367))
REPRESENTATION_CONTEXT('tool','TOP_LEVEL_ASSEMBLY_PART')
);
#366=UNCERTAINTY_MEASURE_WITH_UNIT(LENGTH_MEASURE(2.E-5),#372,
'DISTANCE_ACCURACY_VALUE','Maximum Tolerance applied to model');
#367=(
NAMED_UNIT(*)
SI_UNIT($,.STERADIAN.)
SOLID_ANGLE_UNIT()
);
#368=(
CONVERSION_BASED_UNIT('DEGREE',#370)
NAMED_UNIT(#369)
PLANE_ANGLE_UNIT()
);
#369=DIMENSIONAL_EXPONENTS(0.,0.,0.,0.,0.,0.,0.);
#370=PLANE_ANGLE_MEASURE_WITH_UNIT(PLANE_ANGLE_MEASURE(0.0174532925),#371);
#371=(
NAMED_UNIT(*)
PLANE_ANGLE_UNIT()
SI_UNIT($,.RADIAN.)
);
#372=(
LENGTH_UNIT()
NAMED_UNIT(*)
SI_UNIT(.MILLI.,.METRE.)
);
ENDSEC;
END-ISO-10303-21;
