ISO-10303-21;
HEADER;
/* Generated by software containing ST-Developer
 * from STEP Tools, Inc. (www.steptools.com) 
 */
/* OPTION: using custom schema-name function */

FILE_DESCRIPTION(
/* description */ (''),
/* implementation_level */ '2;1');

FILE_NAME(
/* name */ 'tool.stp',
/* time_stamp */ '2022-04-26T13:35:45+02:00',
/* author */ (''),
/* organization */ ('SMS'),
/* preprocessor_version */ 'ST-DEVELOPER v16.7',
/* originating_system */ 'SIEMENS PLM Software NX 12.0',
/* authorisation */ '');

FILE_SCHEMA (('AUTOMOTIVE_DESIGN { 1 0 10303 214 3 1 1 1 }'));
ENDSEC;

DATA;
#10=CONSTRUCTIVE_GEOMETRY_REPRESENTATION_RELATIONSHIP(
'supplemental geometry','',#26,#11);
#11=CONSTRUCTIVE_GEOMETRY_REPRESENTATION('supplemental geometry',(#244,
#245,#246),#414);
#12=GEOMETRICALLY_BOUNDED_WIREFRAME_SHAPE_REPRESENTATION('Tool-None',(#27),
#414);
#13=SHAPE_REPRESENTATION_RELATIONSHIP('None',
'relationship between Tool-None and Tool-None',#26,#15);
#14=SHAPE_REPRESENTATION_RELATIONSHIP('None',
'relationship between Tool-None and Tool-None',#26,#12);
#15=ADVANCED_BREP_SHAPE_REPRESENTATION('Tool-None',(#39,#40),#414);
#16=SHAPE_DEFINITION_REPRESENTATION(#17,#26);
#17=PRODUCT_DEFINITION_SHAPE('','',#18);
#18=PRODUCT_DEFINITION(' ','',#20,#19);
#19=PRODUCT_DEFINITION_CONTEXT('part definition',#25,'design');
#20=PRODUCT_DEFINITION_FORMATION_WITH_SPECIFIED_SOURCE(' ',' ',#22,
 .NOT_KNOWN.);
#21=PRODUCT_RELATED_PRODUCT_CATEGORY('part','',(#22));
#22=PRODUCT('Tool','Tool',' ',(#23));
#23=PRODUCT_CONTEXT(' ',#25,'mechanical');
#24=APPLICATION_PROTOCOL_DEFINITION('international standard',
'automotive_design',2010,#25);
#25=APPLICATION_CONTEXT(
'core data for automotive mechanical design processes');
#26=SHAPE_REPRESENTATION('Tool-None',(#243),#414);
#27=GEOMETRIC_CURVE_SET('None',(#346,#347,#348,#211));
#28=VERTEX_LOOP('',#174);
#29=SURFACE_STYLE_USAGE(.BOTH.,#31);
#30=SURFACE_STYLE_USAGE(.BOTH.,#32);
#31=SURFACE_SIDE_STYLE('',(#33));
#32=SURFACE_SIDE_STYLE('',(#34));
#33=SURFACE_STYLE_FILL_AREA(#35);
#34=SURFACE_STYLE_FILL_AREA(#36);
#35=FILL_AREA_STYLE('',(#37));
#36=FILL_AREA_STYLE('',(#38));
#37=FILL_AREA_STYLE_COLOUR('',#241);
#38=FILL_AREA_STYLE_COLOUR('',#242);
#39=MANIFOLD_SOLID_BREP('NOCUT',#41);
#40=MANIFOLD_SOLID_BREP('CUT',#42);
#41=CLOSED_SHELL('',(#57,#58,#59,#60,#61,#62,#63,#64,#65,#66,#67,#68));
#42=CLOSED_SHELL('',(#69,#70,#71,#72));
#43=PLANE('',#263);
#44=PLANE('',#269);
#45=PLANE('',#271);
#46=FACE_OUTER_BOUND('',#118,.T.);
#47=FACE_OUTER_BOUND('',#125,.T.);
#48=FACE_OUTER_BOUND('',#126,.T.);
#49=TOROIDAL_SURFACE('',#258,4.05769999999999,1.1);
#50=TOROIDAL_SURFACE('',#259,4.05769999999999,1.1);
#51=CONICAL_SURFACE('',#252,4.2,10.);
#52=CONICAL_SURFACE('',#257,2.95769999999999,31.);
#53=CONICAL_SURFACE('',#265,2.64,45.);
#54=CONICAL_SURFACE('',#268,5.2,45.0000000000001);
#55=CONICAL_SURFACE('',#275,4.20252435281798,45.0000000000001);
#56=CONICAL_SURFACE('',#276,3.0355132150634,7.95518998798446);
#57=ADVANCED_FACE('',(#78,#79),#73,.T.);
#58=ADVANCED_FACE('',(#80,#81),#51,.T.);
#59=ADVANCED_FACE('',(#82,#83),#74,.T.);
#60=ADVANCED_FACE('',(#84,#85),#52,.T.);
#61=ADVANCED_FACE('',(#86,#87),#49,.F.);
#62=ADVANCED_FACE('',(#88,#89),#50,.F.);
#63=ADVANCED_FACE('',(#90,#91),#75,.T.);
#64=ADVANCED_FACE('',(#46),#43,.F.);
#65=ADVANCED_FACE('',(#92,#93),#53,.T.);
#66=ADVANCED_FACE('',(#94,#95),#76,.T.);
#67=ADVANCED_FACE('',(#96,#97),#54,.T.);
#68=ADVANCED_FACE('',(#47),#44,.T.);
#69=ADVANCED_FACE('',(#48),#45,.T.);
#70=ADVANCED_FACE('',(#98,#99),#77,.T.);
#71=ADVANCED_FACE('',(#100,#101),#55,.T.);
#72=ADVANCED_FACE('',(#102,#103),#56,.T.);
#73=CYLINDRICAL_SURFACE('',#249,4.027524352818);
#74=CYLINDRICAL_SURFACE('',#255,2.95769999999999);
#75=CYLINDRICAL_SURFACE('',#261,4.);
#76=CYLINDRICAL_SURFACE('',#267,3.84);
#77=CYLINDRICAL_SURFACE('',#273,4.027524352818);
#78=FACE_BOUND('',#104,.T.);
#79=FACE_BOUND('',#105,.T.);
#80=FACE_BOUND('',#106,.T.);
#81=FACE_BOUND('',#107,.T.);
#82=FACE_BOUND('',#108,.T.);
#83=FACE_BOUND('',#109,.T.);
#84=FACE_BOUND('',#110,.T.);
#85=FACE_BOUND('',#111,.T.);
#86=FACE_BOUND('',#112,.T.);
#87=FACE_BOUND('',#113,.T.);
#88=FACE_BOUND('',#114,.T.);
#89=FACE_BOUND('',#115,.T.);
#90=FACE_BOUND('',#116,.T.);
#91=FACE_BOUND('',#117,.T.);
#92=FACE_BOUND('',#119,.T.);
#93=FACE_BOUND('',#120,.T.);
#94=FACE_BOUND('',#121,.T.);
#95=FACE_BOUND('',#122,.T.);
#96=FACE_BOUND('',#123,.T.);
#97=FACE_BOUND('',#124,.T.);
#98=FACE_BOUND('',#127,.T.);
#99=FACE_BOUND('',#128,.T.);
#100=FACE_BOUND('',#129,.T.);
#101=FACE_BOUND('',#28,.T.);
#102=FACE_BOUND('',#130,.T.);
#103=FACE_BOUND('',#131,.T.);
#104=EDGE_LOOP('',(#132));
#105=EDGE_LOOP('',(#133));
#106=EDGE_LOOP('',(#134));
#107=EDGE_LOOP('',(#135));
#108=EDGE_LOOP('',(#136));
#109=EDGE_LOOP('',(#137));
#110=EDGE_LOOP('',(#138));
#111=EDGE_LOOP('',(#139));
#112=EDGE_LOOP('',(#140));
#113=EDGE_LOOP('',(#141));
#114=EDGE_LOOP('',(#142));
#115=EDGE_LOOP('',(#143));
#116=EDGE_LOOP('',(#144));
#117=EDGE_LOOP('',(#145));
#118=EDGE_LOOP('',(#146));
#119=EDGE_LOOP('',(#147));
#120=EDGE_LOOP('',(#148));
#121=EDGE_LOOP('',(#149));
#122=EDGE_LOOP('',(#150));
#123=EDGE_LOOP('',(#151));
#124=EDGE_LOOP('',(#152));
#125=EDGE_LOOP('',(#153));
#126=EDGE_LOOP('',(#154));
#127=EDGE_LOOP('',(#155));
#128=EDGE_LOOP('',(#156));
#129=EDGE_LOOP('',(#157));
#130=EDGE_LOOP('',(#158));
#131=EDGE_LOOP('',(#159));
#132=ORIENTED_EDGE('',*,*,#175,.T.);
#133=ORIENTED_EDGE('',*,*,#176,.T.);
#134=ORIENTED_EDGE('',*,*,#177,.T.);
#135=ORIENTED_EDGE('',*,*,#178,.F.);
#136=ORIENTED_EDGE('',*,*,#179,.T.);
#137=ORIENTED_EDGE('',*,*,#180,.T.);
#138=ORIENTED_EDGE('',*,*,#181,.T.);
#139=ORIENTED_EDGE('',*,*,#175,.F.);
#140=ORIENTED_EDGE('',*,*,#180,.F.);
#141=ORIENTED_EDGE('',*,*,#181,.F.);
#142=ORIENTED_EDGE('',*,*,#177,.F.);
#143=ORIENTED_EDGE('',*,*,#179,.F.);
#144=ORIENTED_EDGE('',*,*,#178,.T.);
#145=ORIENTED_EDGE('',*,*,#182,.T.);
#146=ORIENTED_EDGE('',*,*,#183,.T.);
#147=ORIENTED_EDGE('',*,*,#183,.F.);
#148=ORIENTED_EDGE('',*,*,#184,.T.);
#149=ORIENTED_EDGE('',*,*,#185,.F.);
#150=ORIENTED_EDGE('',*,*,#184,.F.);
#151=ORIENTED_EDGE('',*,*,#185,.T.);
#152=ORIENTED_EDGE('',*,*,#182,.F.);
#153=ORIENTED_EDGE('',*,*,#176,.F.);
#154=ORIENTED_EDGE('',*,*,#186,.F.);
#155=ORIENTED_EDGE('',*,*,#187,.T.);
#156=ORIENTED_EDGE('',*,*,#186,.T.);
#157=ORIENTED_EDGE('',*,*,#188,.F.);
#158=ORIENTED_EDGE('',*,*,#188,.T.);
#159=ORIENTED_EDGE('',*,*,#187,.F.);
#160=VERTEX_POINT('',#369);
#161=VERTEX_POINT('',#371);
#162=VERTEX_POINT('',#374);
#163=VERTEX_POINT('',#376);
#164=VERTEX_POINT('',#379);
#165=VERTEX_POINT('',#381);
#166=VERTEX_POINT('',#384);
#167=VERTEX_POINT('',#389);
#168=VERTEX_POINT('',#392);
#169=VERTEX_POINT('',#395);
#170=VERTEX_POINT('',#398);
#171=VERTEX_POINT('',#403);
#172=VERTEX_POINT('',#406);
#173=VERTEX_POINT('',#409);
#174=VERTEX_POINT('',#410);
#175=EDGE_CURVE('',#160,#160,#189,.T.);
#176=EDGE_CURVE('',#161,#161,#190,.T.);
#177=EDGE_CURVE('',#162,#162,#191,.T.);
#178=EDGE_CURVE('',#163,#163,#192,.T.);
#179=EDGE_CURVE('',#164,#164,#193,.T.);
#180=EDGE_CURVE('',#165,#165,#194,.T.);
#181=EDGE_CURVE('',#166,#166,#195,.T.);
#182=EDGE_CURVE('',#167,#167,#196,.T.);
#183=EDGE_CURVE('',#168,#168,#197,.T.);
#184=EDGE_CURVE('',#169,#169,#198,.T.);
#185=EDGE_CURVE('',#170,#170,#199,.T.);
#186=EDGE_CURVE('',#171,#171,#200,.T.);
#187=EDGE_CURVE('',#172,#172,#201,.T.);
#188=EDGE_CURVE('',#173,#173,#202,.T.);
#189=CIRCLE('',#247,4.027524352818);
#190=CIRCLE('',#248,4.027524352818);
#191=CIRCLE('',#250,2.97441147168656);
#192=CIRCLE('',#251,4.00000000000001);
#193=CIRCLE('',#253,2.95769999999999);
#194=CIRCLE('',#254,2.95769999999999);
#195=CIRCLE('',#256,3.11481596922767);
#196=CIRCLE('',#260,4.);
#197=CIRCLE('',#262,2.64);
#198=CIRCLE('',#264,3.84);
#199=CIRCLE('',#266,3.84);
#200=CIRCLE('',#270,4.027524352818);
#201=CIRCLE('',#272,4.027524352818);
#202=CIRCLE('',#274,3.36779425017439);
#203=CURVE_STYLE('',#207,POSITIVE_LENGTH_MEASURE(0.18),#213);
#204=CURVE_STYLE('',#208,POSITIVE_LENGTH_MEASURE(0.13),#240);
#205=CURVE_STYLE('',#209,POSITIVE_LENGTH_MEASURE(0.18),#239);
#206=CURVE_STYLE('',#210,POSITIVE_LENGTH_MEASURE(0.18),#239);
#207=DRAUGHTING_PRE_DEFINED_CURVE_FONT('continuous');
#208=DRAUGHTING_PRE_DEFINED_CURVE_FONT('continuous');
#209=DRAUGHTING_PRE_DEFINED_CURVE_FONT('continuous');
#210=DRAUGHTING_PRE_DEFINED_CURVE_FONT('continuous');
#211=B_SPLINE_CURVE_WITH_KNOTS('CUTTING PART LINE',3,(#349,#350,#351,#352,
#353,#354,#355,#356,#357,#358,#359,#360,#361,#362,#363,#364),
 .UNSPECIFIED.,.T.,.F.,(4,3,3,3,3,4),(0.,0.0848822238791984,0.527257669226223,
0.627635804433159,0.728100441043402,1.),.UNSPECIFIED.);
#212=DRAUGHTING_PRE_DEFINED_COLOUR('white');
#213=DRAUGHTING_PRE_DEFINED_COLOUR('blue');
#214=PRESENTATION_LAYER_ASSIGNMENT('1','Layer 1',(#346,#347,#348,#211,#244,
#245,#246,#39,#40));
#215=STYLED_ITEM('',(#224),#346);
#216=STYLED_ITEM('',(#225),#347);
#217=STYLED_ITEM('',(#226),#348);
#218=STYLED_ITEM('',(#227),#211);
#219=STYLED_ITEM('',(#228),#244);
#220=STYLED_ITEM('',(#229),#245);
#221=STYLED_ITEM('',(#230),#246);
#222=STYLED_ITEM('',(#231),#39);
#223=STYLED_ITEM('',(#232),#40);
#224=PRESENTATION_STYLE_ASSIGNMENT((#233));
#225=PRESENTATION_STYLE_ASSIGNMENT((#234));
#226=PRESENTATION_STYLE_ASSIGNMENT((#235));
#227=PRESENTATION_STYLE_ASSIGNMENT((#203));
#228=PRESENTATION_STYLE_ASSIGNMENT((#204));
#229=PRESENTATION_STYLE_ASSIGNMENT((#205));
#230=PRESENTATION_STYLE_ASSIGNMENT((#206));
#231=PRESENTATION_STYLE_ASSIGNMENT((#29));
#232=PRESENTATION_STYLE_ASSIGNMENT((#30));
#233=POINT_STYLE('',#236,POSITIVE_LENGTH_MEASURE(3.),#239);
#234=POINT_STYLE('',#237,POSITIVE_LENGTH_MEASURE(3.),#212);
#235=POINT_STYLE('',#238,POSITIVE_LENGTH_MEASURE(3.),#239);
#236=PRE_DEFINED_POINT_MARKER_SYMBOL('plus');
#237=PRE_DEFINED_POINT_MARKER_SYMBOL('plus');
#238=PRE_DEFINED_POINT_MARKER_SYMBOL('plus');
#239=COLOUR_RGB('Medium Maroon',0.6,0.4,0.4);
#240=COLOUR_RGB('Silver Gray',0.6,0.6,0.6);
#241=COLOUR_RGB('TLS_NOCUT',0.498023956664378,0.498023956664378,0.498023956664378);
#242=COLOUR_RGB('TLS_CUT',0.8,0.8,0.8);
#243=AXIS2_PLACEMENT_3D('',#345,#277,#278);
#244=AXIS2_PLACEMENT_3D('PCS',#365,#279,#280);
#245=AXIS2_PLACEMENT_3D('MCS',#366,#281,#282);
#246=AXIS2_PLACEMENT_3D('CIP',#367,#283,#284);
#247=AXIS2_PLACEMENT_3D('',#368,#285,#286);
#248=AXIS2_PLACEMENT_3D('',#370,#287,#288);
#249=AXIS2_PLACEMENT_3D('',#372,#289,#290);
#250=AXIS2_PLACEMENT_3D('',#373,#291,#292);
#251=AXIS2_PLACEMENT_3D('',#375,#293,#294);
#252=AXIS2_PLACEMENT_3D('',#377,#295,#296);
#253=AXIS2_PLACEMENT_3D('',#378,#297,#298);
#254=AXIS2_PLACEMENT_3D('',#380,#299,#300);
#255=AXIS2_PLACEMENT_3D('',#382,#301,#302);
#256=AXIS2_PLACEMENT_3D('',#383,#303,#304);
#257=AXIS2_PLACEMENT_3D('',#385,#305,#306);
#258=AXIS2_PLACEMENT_3D('',#386,#307,#308);
#259=AXIS2_PLACEMENT_3D('',#387,#309,#310);
#260=AXIS2_PLACEMENT_3D('',#388,#311,#312);
#261=AXIS2_PLACEMENT_3D('',#390,#313,#314);
#262=AXIS2_PLACEMENT_3D('',#391,#315,#316);
#263=AXIS2_PLACEMENT_3D('',#393,#317,#318);
#264=AXIS2_PLACEMENT_3D('',#394,#319,#320);
#265=AXIS2_PLACEMENT_3D('',#396,#321,#322);
#266=AXIS2_PLACEMENT_3D('',#397,#323,#324);
#267=AXIS2_PLACEMENT_3D('',#399,#325,#326);
#268=AXIS2_PLACEMENT_3D('',#400,#327,#328);
#269=AXIS2_PLACEMENT_3D('',#401,#329,#330);
#270=AXIS2_PLACEMENT_3D('',#402,#331,#332);
#271=AXIS2_PLACEMENT_3D('',#404,#333,#334);
#272=AXIS2_PLACEMENT_3D('',#405,#335,#336);
#273=AXIS2_PLACEMENT_3D('',#407,#337,#338);
#274=AXIS2_PLACEMENT_3D('',#408,#339,#340);
#275=AXIS2_PLACEMENT_3D('',#411,#341,#342);
#276=AXIS2_PLACEMENT_3D('',#412,#343,#344);
#277=DIRECTION('',(0.,0.,1.));
#278=DIRECTION('',(1.,0.,0.));
#279=DIRECTION('',(0.,0.,1.));
#280=DIRECTION('',(1.,0.,0.));
#281=DIRECTION('',(0.,0.,1.));
#282=DIRECTION('',(1.,0.,0.));
#283=DIRECTION('',(0.,0.,1.));
#284=DIRECTION('',(1.,0.,0.));
#285=DIRECTION('',(0.,0.,-1.));
#286=DIRECTION('',(-1.,0.,0.));
#287=DIRECTION('',(0.,0.,1.));
#288=DIRECTION('',(-1.,0.,0.));
#289=DIRECTION('',(0.,0.,1.));
#290=DIRECTION('',(1.,0.,0.));
#291=DIRECTION('',(-1.23195335142615E-16,0.,1.));
#292=DIRECTION('',(1.,0.,0.));
#293=DIRECTION('',(0.,0.,1.));
#294=DIRECTION('',(1.,0.,0.));
#295=DIRECTION('',(-1.23195335142615E-16,0.,1.));
#296=DIRECTION('',(1.,0.,1.15310640160424E-16));
#297=DIRECTION('',(1.23195335142615E-16,0.,-1.));
#298=DIRECTION('',(-1.,0.,0.));
#299=DIRECTION('',(-1.23195335142615E-16,0.,1.));
#300=DIRECTION('',(-1.,0.,0.));
#301=DIRECTION('',(1.23195335142615E-16,0.,-1.));
#302=DIRECTION('',(-1.,0.,0.));
#303=DIRECTION('',(1.23195335142615E-16,0.,-1.));
#304=DIRECTION('',(-1.,0.,0.));
#305=DIRECTION('',(1.23195335142615E-16,0.,-1.));
#306=DIRECTION('',(-1.,0.,-1.37900299184342E-16));
#307=DIRECTION('',(1.23195335142615E-16,0.,-1.));
#308=DIRECTION('',(-1.,0.,0.));
#309=DIRECTION('',(1.23195335142615E-16,0.,-1.));
#310=DIRECTION('',(-1.,0.,0.));
#311=DIRECTION('',(0.,0.,-1.));
#312=DIRECTION('',(-1.,0.,0.));
#313=DIRECTION('',(0.,0.,1.));
#314=DIRECTION('',(1.,0.,0.));
#315=DIRECTION('',(0.,0.,1.));
#316=DIRECTION('',(1.,0.,0.));
#317=DIRECTION('',(2.52844071004316E-16,0.,-1.));
#318=DIRECTION('',(-1.,0.,-2.52844071004316E-16));
#319=DIRECTION('',(0.,0.,1.));
#320=DIRECTION('',(-1.,0.,0.));
#321=DIRECTION('',(0.,0.,-1.));
#322=DIRECTION('',(-1.,0.,0.));
#323=DIRECTION('',(0.,0.,-1.));
#324=DIRECTION('',(1.,0.,0.));
#325=DIRECTION('',(0.,0.,1.));
#326=DIRECTION('',(1.,0.,0.));
#327=DIRECTION('',(0.,0.,-1.));
#328=DIRECTION('',(-1.,0.,-4.83209881887689E-17));
#329=DIRECTION('',(0.,0.,-1.));
#330=DIRECTION('',(-1.,0.,0.));
#331=DIRECTION('',(0.,0.,-1.));
#332=DIRECTION('',(1.,0.,0.));
#333=DIRECTION('',(0.,0.,1.));
#334=DIRECTION('',(1.,0.,0.));
#335=DIRECTION('',(0.,0.,1.));
#336=DIRECTION('',(1.,0.,0.));
#337=DIRECTION('',(0.,0.,1.));
#338=DIRECTION('',(1.,0.,0.));
#339=DIRECTION('',(0.,0.,1.));
#340=DIRECTION('',(-1.,0.,0.));
#341=DIRECTION('',(-3.56643045325591E-16,0.,1.));
#342=DIRECTION('',(1.,0.,2.90213912927499E-16));
#343=DIRECTION('',(0.,0.,1.));
#344=DIRECTION('',(1.,0.,1.94395491986621E-16));
#345=CARTESIAN_POINT('',(0.,0.,0.));
#346=CARTESIAN_POINT('',(0.,0.,-24.));
#347=CARTESIAN_POINT('CRP',(-4.027524352818,0.,-90.));
#348=CARTESIAN_POINT('CIP_DCSYS',(0.,0.,-90.));
#349=CARTESIAN_POINT('',(-4.027524352818,0.,-72.));
#350=CARTESIAN_POINT('',(-2.685016235212,0.,-72.));
#351=CARTESIAN_POINT('',(-1.342508117606,0.,-72.));
#352=CARTESIAN_POINT('',(0.,0.,-72.));
#353=CARTESIAN_POINT('',(0.,0.,-78.9966666666667));
#354=CARTESIAN_POINT('',(0.,0.,-85.9933333333333));
#355=CARTESIAN_POINT('',(8.65973959207622E-15,0.,-92.99));
#356=CARTESIAN_POINT('',(-1.12259808339144,0.,-91.8674019166085));
#357=CARTESIAN_POINT('',(-2.24519616678291,0.,-90.744803833217));
#358=CARTESIAN_POINT('',(-3.36779425017438,0.,-89.6222057498256));
#359=CARTESIAN_POINT('',(-3.58770428438893,0.,-88.0485353935372));
#360=CARTESIAN_POINT('',(-3.80761431860346,0.,-86.4748650372488));
#361=CARTESIAN_POINT('',(-4.027524352818,0.,-84.9011946809604));
#362=CARTESIAN_POINT('',(-4.027524352818,0.,-80.6007964539736));
#363=CARTESIAN_POINT('',(-4.027524352818,0.,-76.3003982269868));
#364=CARTESIAN_POINT('',(-4.027524352818,0.,-72.));
#365=CARTESIAN_POINT('',(0.,0.,0.));
#366=CARTESIAN_POINT('',(0.,0.,-24.));
#367=CARTESIAN_POINT('',(0.,0.,-90.));
#368=CARTESIAN_POINT('',(0.,0.,-71.7087510905887));
#369=CARTESIAN_POINT('',(-4.027524352818,0.,-71.7087510905887));
#370=CARTESIAN_POINT('',(0.,0.,-72.));
#371=CARTESIAN_POINT('',(-4.027524352818,0.,-72.));
#372=CARTESIAN_POINT('',(0.,0.,20.9080749503476));
#373=CARTESIAN_POINT('',(6.19662477452366E-15,0.,-54.9052245344449));
#374=CARTESIAN_POINT('',(2.97441147168657,0.,-54.9052245344449));
#375=CARTESIAN_POINT('',(0.,0.,-49.0888229594125));
#376=CARTESIAN_POINT('',(4.00000000000001,0.,-49.0888229594125));
#377=CARTESIAN_POINT('',(5.3403361402723E-15,0.,-47.9545665954889));
#378=CARTESIAN_POINT('',(6.2201566845127E-15,0.,-55.0962375298785));
#379=CARTESIAN_POINT('',(-2.95769999999999,0.,-55.0962375298785));
#380=CARTESIAN_POINT('',(8.00981160282061E-15,0.,-69.6232073720089));
#381=CARTESIAN_POINT('',(-2.95769999999998,0.,-69.6232073720089));
#382=CARTESIAN_POINT('',(5.3403361402723E-15,0.,-47.9545665954889));
#383=CARTESIAN_POINT('',(8.07960691989534E-15,0.,-70.18974925441));
#384=CARTESIAN_POINT('',(-3.11481596922766,0.,-70.18974925441));
#385=CARTESIAN_POINT('',(8.04739320198421E-15,0.,-69.9282643704747));
#386=CARTESIAN_POINT('',(8.00981160282061E-15,0.,-69.6232073720089));
#387=CARTESIAN_POINT('',(6.2201566845127E-15,0.,-55.0962375298785));
#388=CARTESIAN_POINT('',(0.,0.,-10.06));
#389=CARTESIAN_POINT('',(-4.,0.,-10.06));
#390=CARTESIAN_POINT('',(0.,0.,20.9080749503476));
#391=CARTESIAN_POINT('',(0.,0.,0.));
#392=CARTESIAN_POINT('',(2.64,0.,0.));
#393=CARTESIAN_POINT('',(4.2,0.,5.30972549109063E-16));
#394=CARTESIAN_POINT('',(0.,0.,-1.2));
#395=CARTESIAN_POINT('',(-3.84,0.,-1.2));
#396=CARTESIAN_POINT('',(0.,0.,0.));
#397=CARTESIAN_POINT('',(0.,0.,-9.9));
#398=CARTESIAN_POINT('',(3.84,0.,-9.9));
#399=CARTESIAN_POINT('',(0.,0.,20.9080749503476));
#400=CARTESIAN_POINT('',(0.,0.,-11.26));
#401=CARTESIAN_POINT('',(0.,0.,-72.));
#402=CARTESIAN_POINT('',(0.,0.,-72.));
#403=CARTESIAN_POINT('',(4.027524352818,0.,-72.));
#404=CARTESIAN_POINT('',(0.,0.,-72.));
#405=CARTESIAN_POINT('',(0.,0.,-84.9011946809604));
#406=CARTESIAN_POINT('',(4.027524352818,0.,-84.9011946809604));
#407=CARTESIAN_POINT('',(0.,0.,20.9080749503476));
#408=CARTESIAN_POINT('',(2.64989640669854E-14,0.,-89.6222057498256));
#409=CARTESIAN_POINT('',(-3.36779425017436,0.,-89.6222057498256));
#410=CARTESIAN_POINT('',(2.75335310107039E-14,0.,-92.99));
#411=CARTESIAN_POINT('',(2.62012633811537E-14,0.,-88.787475647182));
#412=CARTESIAN_POINT('',(0.,0.,-92.));
#413=MECHANICAL_DESIGN_GEOMETRIC_PRESENTATION_REPRESENTATION('',(#215,#216,
#217,#218,#219,#220,#221,#222,#223),#414);
#414=(
GEOMETRIC_REPRESENTATION_CONTEXT(3)
GLOBAL_UNCERTAINTY_ASSIGNED_CONTEXT((#415))
GLOBAL_UNIT_ASSIGNED_CONTEXT((#421,#417,#416))
REPRESENTATION_CONTEXT('tool','TOP_LEVEL_ASSEMBLY_PART')
);
#415=UNCERTAINTY_MEASURE_WITH_UNIT(LENGTH_MEASURE(2.E-5),#421,
'DISTANCE_ACCURACY_VALUE','Maximum Tolerance applied to model');
#416=(
NAMED_UNIT(*)
SI_UNIT($,.STERADIAN.)
SOLID_ANGLE_UNIT()
);
#417=(
CONVERSION_BASED_UNIT('DEGREE',#419)
NAMED_UNIT(#418)
PLANE_ANGLE_UNIT()
);
#418=DIMENSIONAL_EXPONENTS(0.,0.,0.,0.,0.,0.,0.);
#419=PLANE_ANGLE_MEASURE_WITH_UNIT(PLANE_ANGLE_MEASURE(0.0174532925),#420);
#420=(
NAMED_UNIT(*)
PLANE_ANGLE_UNIT()
SI_UNIT($,.RADIAN.)
);
#421=(
LENGTH_UNIT()
NAMED_UNIT(*)
SI_UNIT(.MILLI.,.METRE.)
);
ENDSEC;
END-ISO-10303-21;
