ISO-10303-21;
HEADER;
/* Generated by software containing ST-Developer
 * from STEP Tools, Inc. (www.steptools.com) 
 */
/* OPTION: using custom schema-name function */

FILE_DESCRIPTION(
/* description */ (''),
/* implementation_level */ '2;1');

FILE_NAME(
/* name */ 'tool.stp',
/* time_stamp */ '2022-04-26T10:21:45+02:00',
/* author */ (''),
/* organization */ ('SMS'),
/* preprocessor_version */ 'ST-DEVELOPER v16.7',
/* originating_system */ 'SIEMENS PLM Software NX 12.0',
/* authorisation */ '');

FILE_SCHEMA (('AUTOMOTIVE_DESIGN { 1 0 10303 214 3 1 1 1 }'));
ENDSEC;

DATA;
#10=CONSTRUCTIVE_GEOMETRY_REPRESENTATION_RELATIONSHIP(
'supplemental geometry','',#26,#11);
#11=CONSTRUCTIVE_GEOMETRY_REPRESENTATION('supplemental geometry',(#211,
#212,#213),#354);
#12=GEOMETRICALLY_BOUNDED_WIREFRAME_SHAPE_REPRESENTATION('Tool-None',(#27),
#354);
#13=SHAPE_REPRESENTATION_RELATIONSHIP('None',
'relationship between Tool-None and Tool-None',#26,#15);
#14=SHAPE_REPRESENTATION_RELATIONSHIP('None',
'relationship between Tool-None and Tool-None',#26,#12);
#15=ADVANCED_BREP_SHAPE_REPRESENTATION('Tool-None',(#39,#40),#354);
#16=SHAPE_DEFINITION_REPRESENTATION(#17,#26);
#17=PRODUCT_DEFINITION_SHAPE('','',#18);
#18=PRODUCT_DEFINITION(' ','',#20,#19);
#19=PRODUCT_DEFINITION_CONTEXT('part definition',#25,'design');
#20=PRODUCT_DEFINITION_FORMATION_WITH_SPECIFIED_SOURCE(' ',' ',#22,
 .NOT_KNOWN.);
#21=PRODUCT_RELATED_PRODUCT_CATEGORY('part','',(#22));
#22=PRODUCT('Tool','Tool',' ',(#23));
#23=PRODUCT_CONTEXT(' ',#25,'mechanical');
#24=APPLICATION_PROTOCOL_DEFINITION('international standard',
'automotive_design',2010,#25);
#25=APPLICATION_CONTEXT(
'core data for automotive mechanical design processes');
#26=SHAPE_REPRESENTATION('Tool-None',(#210),#354);
#27=GEOMETRIC_CURVE_SET('None',(#295,#296,#297,#178));
#28=VERTEX_LOOP('',#147);
#29=SURFACE_STYLE_USAGE(.BOTH.,#31);
#30=SURFACE_STYLE_USAGE(.BOTH.,#32);
#31=SURFACE_SIDE_STYLE('',(#33));
#32=SURFACE_SIDE_STYLE('',(#34));
#33=SURFACE_STYLE_FILL_AREA(#35);
#34=SURFACE_STYLE_FILL_AREA(#36);
#35=FILL_AREA_STYLE('',(#37));
#36=FILL_AREA_STYLE('',(#38));
#37=FILL_AREA_STYLE_COLOUR('',#208);
#38=FILL_AREA_STYLE_COLOUR('',#209);
#39=MANIFOLD_SOLID_BREP('NOCUT',#41);
#40=MANIFOLD_SOLID_BREP('CUT',#42);
#41=CLOSED_SHELL('',(#55,#56,#57,#58,#59,#60,#61,#62,#63));
#42=CLOSED_SHELL('',(#64,#65,#66,#67));
#43=PLANE('',#224);
#44=PLANE('',#230);
#45=PLANE('',#232);
#46=FACE_OUTER_BOUND('',#100,.T.);
#47=FACE_OUTER_BOUND('',#107,.T.);
#48=FACE_OUTER_BOUND('',#108,.T.);
#49=TOROIDAL_SURFACE('',#222,4.99999999999999,1.5);
#50=CONICAL_SURFACE('',#221,3.49999999999999,30.0000000000001);
#51=CONICAL_SURFACE('',#226,1.96,45.);
#52=CONICAL_SURFACE('',#229,4.7,45.0000000000001);
#53=CONICAL_SURFACE('',#236,5.26565720397082,45.);
#54=CONICAL_SURFACE('',#237,4.15430546575403,8.12954783226012);
#55=ADVANCED_FACE('',(#72,#73),#68,.T.);
#56=ADVANCED_FACE('',(#74,#75),#69,.T.);
#57=ADVANCED_FACE('',(#76,#77),#50,.T.);
#58=ADVANCED_FACE('',(#78,#79),#49,.F.);
#59=ADVANCED_FACE('',(#46),#43,.F.);
#60=ADVANCED_FACE('',(#80,#81),#51,.T.);
#61=ADVANCED_FACE('',(#82,#83),#70,.T.);
#62=ADVANCED_FACE('',(#84,#85),#52,.T.);
#63=ADVANCED_FACE('',(#47),#44,.T.);
#64=ADVANCED_FACE('',(#48),#45,.T.);
#65=ADVANCED_FACE('',(#86,#87),#71,.T.);
#66=ADVANCED_FACE('',(#88,#89),#53,.T.);
#67=ADVANCED_FACE('',(#90,#91),#54,.T.);
#68=CYLINDRICAL_SURFACE('',#216,5.06565720397085);
#69=CYLINDRICAL_SURFACE('',#219,3.49999999999999);
#70=CYLINDRICAL_SURFACE('',#228,3.36);
#71=CYLINDRICAL_SURFACE('',#234,5.06565720397085);
#72=FACE_BOUND('',#92,.T.);
#73=FACE_BOUND('',#93,.T.);
#74=FACE_BOUND('',#94,.T.);
#75=FACE_BOUND('',#95,.T.);
#76=FACE_BOUND('',#96,.T.);
#77=FACE_BOUND('',#97,.T.);
#78=FACE_BOUND('',#98,.T.);
#79=FACE_BOUND('',#99,.T.);
#80=FACE_BOUND('',#101,.T.);
#81=FACE_BOUND('',#102,.T.);
#82=FACE_BOUND('',#103,.T.);
#83=FACE_BOUND('',#104,.T.);
#84=FACE_BOUND('',#105,.T.);
#85=FACE_BOUND('',#106,.T.);
#86=FACE_BOUND('',#109,.T.);
#87=FACE_BOUND('',#110,.T.);
#88=FACE_BOUND('',#111,.T.);
#89=FACE_BOUND('',#28,.T.);
#90=FACE_BOUND('',#112,.T.);
#91=FACE_BOUND('',#113,.T.);
#92=EDGE_LOOP('',(#114));
#93=EDGE_LOOP('',(#115));
#94=EDGE_LOOP('',(#116));
#95=EDGE_LOOP('',(#117));
#96=EDGE_LOOP('',(#118));
#97=EDGE_LOOP('',(#119));
#98=EDGE_LOOP('',(#120));
#99=EDGE_LOOP('',(#121));
#100=EDGE_LOOP('',(#122));
#101=EDGE_LOOP('',(#123));
#102=EDGE_LOOP('',(#124));
#103=EDGE_LOOP('',(#125));
#104=EDGE_LOOP('',(#126));
#105=EDGE_LOOP('',(#127));
#106=EDGE_LOOP('',(#128));
#107=EDGE_LOOP('',(#129));
#108=EDGE_LOOP('',(#130));
#109=EDGE_LOOP('',(#131));
#110=EDGE_LOOP('',(#132));
#111=EDGE_LOOP('',(#133));
#112=EDGE_LOOP('',(#134));
#113=EDGE_LOOP('',(#135));
#114=ORIENTED_EDGE('',*,*,#148,.T.);
#115=ORIENTED_EDGE('',*,*,#149,.T.);
#116=ORIENTED_EDGE('',*,*,#150,.T.);
#117=ORIENTED_EDGE('',*,*,#151,.T.);
#118=ORIENTED_EDGE('',*,*,#152,.T.);
#119=ORIENTED_EDGE('',*,*,#148,.F.);
#120=ORIENTED_EDGE('',*,*,#150,.F.);
#121=ORIENTED_EDGE('',*,*,#152,.F.);
#122=ORIENTED_EDGE('',*,*,#153,.T.);
#123=ORIENTED_EDGE('',*,*,#153,.F.);
#124=ORIENTED_EDGE('',*,*,#154,.T.);
#125=ORIENTED_EDGE('',*,*,#155,.F.);
#126=ORIENTED_EDGE('',*,*,#154,.F.);
#127=ORIENTED_EDGE('',*,*,#155,.T.);
#128=ORIENTED_EDGE('',*,*,#151,.F.);
#129=ORIENTED_EDGE('',*,*,#149,.F.);
#130=ORIENTED_EDGE('',*,*,#156,.F.);
#131=ORIENTED_EDGE('',*,*,#157,.T.);
#132=ORIENTED_EDGE('',*,*,#156,.T.);
#133=ORIENTED_EDGE('',*,*,#158,.F.);
#134=ORIENTED_EDGE('',*,*,#158,.T.);
#135=ORIENTED_EDGE('',*,*,#157,.F.);
#136=VERTEX_POINT('',#318);
#137=VERTEX_POINT('',#320);
#138=VERTEX_POINT('',#323);
#139=VERTEX_POINT('',#325);
#140=VERTEX_POINT('',#328);
#141=VERTEX_POINT('',#332);
#142=VERTEX_POINT('',#335);
#143=VERTEX_POINT('',#338);
#144=VERTEX_POINT('',#343);
#145=VERTEX_POINT('',#346);
#146=VERTEX_POINT('',#349);
#147=VERTEX_POINT('',#350);
#148=EDGE_CURVE('',#136,#136,#159,.T.);
#149=EDGE_CURVE('',#137,#137,#160,.T.);
#150=EDGE_CURVE('',#138,#138,#161,.T.);
#151=EDGE_CURVE('',#139,#139,#162,.T.);
#152=EDGE_CURVE('',#140,#140,#163,.T.);
#153=EDGE_CURVE('',#141,#141,#164,.T.);
#154=EDGE_CURVE('',#142,#142,#165,.T.);
#155=EDGE_CURVE('',#143,#143,#166,.T.);
#156=EDGE_CURVE('',#144,#144,#167,.T.);
#157=EDGE_CURVE('',#145,#145,#168,.T.);
#158=EDGE_CURVE('',#146,#146,#169,.T.);
#159=CIRCLE('',#214,5.06565720397085);
#160=CIRCLE('',#215,5.06565720397085);
#161=CIRCLE('',#217,3.49999999999999);
#162=CIRCLE('',#218,3.5);
#163=CIRCLE('',#220,3.70096189432333);
#164=CIRCLE('',#223,1.96);
#165=CIRCLE('',#225,3.36);
#166=CIRCLE('',#227,3.36);
#167=CIRCLE('',#231,5.06565720397085);
#168=CIRCLE('',#233,5.06565720397085);
#169=CIRCLE('',#235,4.48999596745502);
#170=CURVE_STYLE('',#174,POSITIVE_LENGTH_MEASURE(0.18),#180);
#171=CURVE_STYLE('',#175,POSITIVE_LENGTH_MEASURE(0.13),#207);
#172=CURVE_STYLE('',#176,POSITIVE_LENGTH_MEASURE(0.18),#206);
#173=CURVE_STYLE('',#177,POSITIVE_LENGTH_MEASURE(0.18),#206);
#174=DRAUGHTING_PRE_DEFINED_CURVE_FONT('continuous');
#175=DRAUGHTING_PRE_DEFINED_CURVE_FONT('continuous');
#176=DRAUGHTING_PRE_DEFINED_CURVE_FONT('continuous');
#177=DRAUGHTING_PRE_DEFINED_CURVE_FONT('continuous');
#178=B_SPLINE_CURVE_WITH_KNOTS('CUTTING PART LINE',3,(#298,#299,#300,#301,
#302,#303,#304,#305,#306,#307,#308,#309,#310,#311,#312,#313),
 .UNSPECIFIED.,.T.,.F.,(4,3,3,3,3,4),(0.,0.091692106601528,0.528643792090156,
0.643580062878786,0.717264804499174,1.),.UNSPECIFIED.);
#179=DRAUGHTING_PRE_DEFINED_COLOUR('white');
#180=DRAUGHTING_PRE_DEFINED_COLOUR('blue');
#181=PRESENTATION_LAYER_ASSIGNMENT('1','Layer 1',(#295,#296,#297,#178,#211,
#212,#213,#39,#40));
#182=STYLED_ITEM('',(#191),#295);
#183=STYLED_ITEM('',(#192),#296);
#184=STYLED_ITEM('',(#193),#297);
#185=STYLED_ITEM('',(#194),#178);
#186=STYLED_ITEM('',(#195),#211);
#187=STYLED_ITEM('',(#196),#212);
#188=STYLED_ITEM('',(#197),#213);
#189=STYLED_ITEM('',(#198),#39);
#190=STYLED_ITEM('',(#199),#40);
#191=PRESENTATION_STYLE_ASSIGNMENT((#200));
#192=PRESENTATION_STYLE_ASSIGNMENT((#201));
#193=PRESENTATION_STYLE_ASSIGNMENT((#202));
#194=PRESENTATION_STYLE_ASSIGNMENT((#170));
#195=PRESENTATION_STYLE_ASSIGNMENT((#171));
#196=PRESENTATION_STYLE_ASSIGNMENT((#172));
#197=PRESENTATION_STYLE_ASSIGNMENT((#173));
#198=PRESENTATION_STYLE_ASSIGNMENT((#29));
#199=PRESENTATION_STYLE_ASSIGNMENT((#30));
#200=POINT_STYLE('',#203,POSITIVE_LENGTH_MEASURE(3.),#206);
#201=POINT_STYLE('',#204,POSITIVE_LENGTH_MEASURE(3.),#179);
#202=POINT_STYLE('',#205,POSITIVE_LENGTH_MEASURE(3.),#206);
#203=PRE_DEFINED_POINT_MARKER_SYMBOL('plus');
#204=PRE_DEFINED_POINT_MARKER_SYMBOL('plus');
#205=PRE_DEFINED_POINT_MARKER_SYMBOL('plus');
#206=COLOUR_RGB('Medium Maroon',0.6,0.4,0.4);
#207=COLOUR_RGB('Silver Gray',0.6,0.6,0.6);
#208=COLOUR_RGB('TLS_NOCUT',0.498023956664378,0.498023956664378,0.498023956664378);
#209=COLOUR_RGB('TLS_CUT',0.8,0.8,0.8);
#210=AXIS2_PLACEMENT_3D('',#294,#238,#239);
#211=AXIS2_PLACEMENT_3D('PCS',#314,#240,#241);
#212=AXIS2_PLACEMENT_3D('MCS',#315,#242,#243);
#213=AXIS2_PLACEMENT_3D('CIP',#316,#244,#245);
#214=AXIS2_PLACEMENT_3D('',#317,#246,#247);
#215=AXIS2_PLACEMENT_3D('',#319,#248,#249);
#216=AXIS2_PLACEMENT_3D('',#321,#250,#251);
#217=AXIS2_PLACEMENT_3D('',#322,#252,#253);
#218=AXIS2_PLACEMENT_3D('',#324,#254,#255);
#219=AXIS2_PLACEMENT_3D('',#326,#256,#257);
#220=AXIS2_PLACEMENT_3D('',#327,#258,#259);
#221=AXIS2_PLACEMENT_3D('',#329,#260,#261);
#222=AXIS2_PLACEMENT_3D('',#330,#262,#263);
#223=AXIS2_PLACEMENT_3D('',#331,#264,#265);
#224=AXIS2_PLACEMENT_3D('',#333,#266,#267);
#225=AXIS2_PLACEMENT_3D('',#334,#268,#269);
#226=AXIS2_PLACEMENT_3D('',#336,#270,#271);
#227=AXIS2_PLACEMENT_3D('',#337,#272,#273);
#228=AXIS2_PLACEMENT_3D('',#339,#274,#275);
#229=AXIS2_PLACEMENT_3D('',#340,#276,#277);
#230=AXIS2_PLACEMENT_3D('',#341,#278,#279);
#231=AXIS2_PLACEMENT_3D('',#342,#280,#281);
#232=AXIS2_PLACEMENT_3D('',#344,#282,#283);
#233=AXIS2_PLACEMENT_3D('',#345,#284,#285);
#234=AXIS2_PLACEMENT_3D('',#347,#286,#287);
#235=AXIS2_PLACEMENT_3D('',#348,#288,#289);
#236=AXIS2_PLACEMENT_3D('',#351,#290,#291);
#237=AXIS2_PLACEMENT_3D('',#352,#292,#293);
#238=DIRECTION('',(0.,0.,1.));
#239=DIRECTION('',(1.,0.,0.));
#240=DIRECTION('',(0.,0.,1.));
#241=DIRECTION('',(1.,0.,0.));
#242=DIRECTION('',(0.,0.,1.));
#243=DIRECTION('',(1.,0.,0.));
#244=DIRECTION('',(0.,0.,1.));
#245=DIRECTION('',(1.,0.,0.));
#246=DIRECTION('',(0.,0.,-1.));
#247=DIRECTION('',(-1.,0.,0.));
#248=DIRECTION('',(0.,0.,1.));
#249=DIRECTION('',(-1.,0.,0.));
#250=DIRECTION('',(0.,0.,1.));
#251=DIRECTION('',(1.,0.,0.));
#252=DIRECTION('',(-1.97212561092381E-16,0.,1.));
#253=DIRECTION('',(-1.,0.,0.));
#254=DIRECTION('',(0.,0.,-1.));
#255=DIRECTION('',(-1.,0.,0.));
#256=DIRECTION('',(1.97212561092381E-16,0.,-1.));
#257=DIRECTION('',(-1.,0.,0.));
#258=DIRECTION('',(1.97212561092381E-16,0.,-1.));
#259=DIRECTION('',(-1.,0.,0.));
#260=DIRECTION('',(1.97212561092381E-16,0.,-1.));
#261=DIRECTION('',(-1.,0.,-4.7784389691946E-16));
#262=DIRECTION('',(1.97212561092381E-16,0.,-1.));
#263=DIRECTION('',(-1.,0.,0.));
#264=DIRECTION('',(0.,0.,1.));
#265=DIRECTION('',(1.,0.,0.));
#266=DIRECTION('',(3.48457628197806E-16,0.,-1.));
#267=DIRECTION('',(-1.,0.,-3.48457628197806E-16));
#268=DIRECTION('',(0.,0.,1.));
#269=DIRECTION('',(-1.,0.,0.));
#270=DIRECTION('',(0.,0.,-1.));
#271=DIRECTION('',(-1.,0.,0.));
#272=DIRECTION('',(0.,0.,-1.));
#273=DIRECTION('',(1.,0.,0.));
#274=DIRECTION('',(0.,0.,1.));
#275=DIRECTION('',(1.,0.,0.));
#276=DIRECTION('',(0.,0.,-1.));
#277=DIRECTION('',(-1.,0.,-4.14386019940711E-17));
#278=DIRECTION('',(0.,0.,-1.));
#279=DIRECTION('',(-1.,0.,0.));
#280=DIRECTION('',(0.,0.,-1.));
#281=DIRECTION('',(1.,0.,0.));
#282=DIRECTION('',(0.,0.,1.));
#283=DIRECTION('',(1.,0.,0.));
#284=DIRECTION('',(0.,0.,1.));
#285=DIRECTION('',(1.,0.,0.));
#286=DIRECTION('',(0.,0.,1.));
#287=DIRECTION('',(1.,0.,0.));
#288=DIRECTION('',(0.,0.,1.));
#289=DIRECTION('',(-1.,0.,0.));
#290=DIRECTION('',(-2.84637040579421E-16,0.,1.));
#291=DIRECTION('',(1.,0.,3.45127372758707E-16));
#292=DIRECTION('',(0.,0.,1.));
#293=DIRECTION('',(1.,0.,1.88811419679706E-16));
#294=CARTESIAN_POINT('',(0.,0.,0.));
#295=CARTESIAN_POINT('',(0.,0.,-23.));
#296=CARTESIAN_POINT('CRP',(-5.06565720397085,0.,-100.));
#297=CARTESIAN_POINT('CIP_DCSYS',(0.,0.,-100.));
#298=CARTESIAN_POINT('',(-5.06565720397085,0.,-80.));
#299=CARTESIAN_POINT('',(-3.37710480264723,0.,-80.));
#300=CARTESIAN_POINT('',(-1.68855240132362,0.,-80.));
#301=CARTESIAN_POINT('',(0.,0.,-80.));
#302=CARTESIAN_POINT('',(0.,0.,-88.0466666666666));
#303=CARTESIAN_POINT('',(0.,0.,-96.0933333333333));
#304=CARTESIAN_POINT('',(5.32907051820075E-15,0.,-104.14));
#305=CARTESIAN_POINT('',(-1.49666532248499,0.,-102.643334677515));
#306=CARTESIAN_POINT('',(-2.99333064496999,0.,-101.14666935503));
#307=CARTESIAN_POINT('',(-4.48999596745501,0.,-99.6500040325449));
#308=CARTESIAN_POINT('',(-4.68188304629363,0.,-98.3067016179919));
#309=CARTESIAN_POINT('',(-4.87377012513224,0.,-96.9633992034388));
#310=CARTESIAN_POINT('',(-5.06565720397085,0.,-95.6200967888858));
#311=CARTESIAN_POINT('',(-5.06565720397085,0.,-90.4133978592572));
#312=CARTESIAN_POINT('',(-5.06565720397085,0.,-85.2066989296286));
#313=CARTESIAN_POINT('',(-5.06565720397085,0.,-80.));
#314=CARTESIAN_POINT('',(0.,0.,0.));
#315=CARTESIAN_POINT('',(0.,0.,-23.));
#316=CARTESIAN_POINT('',(0.,0.,-100.));
#317=CARTESIAN_POINT('',(0.,0.,-79.6535898384862));
#318=CARTESIAN_POINT('',(-5.06565720397085,0.,-79.6535898384862));
#319=CARTESIAN_POINT('',(0.,0.,-80.));
#320=CARTESIAN_POINT('',(-5.06565720397085,0.,-80.));
#321=CARTESIAN_POINT('',(0.,0.,20.9080749503476));
#322=CARTESIAN_POINT('',(8.25471349915862E-15,0.,-76.5398682253258));
#323=CARTESIAN_POINT('',(-3.49999999999998,0.,-76.5398682253258));
#324=CARTESIAN_POINT('',(0.,0.,-8.94));
#325=CARTESIAN_POINT('',(-3.5,0.,-8.94));
#326=CARTESIAN_POINT('',(8.21565038222616E-15,0.,-76.3417920139725));
#327=CARTESIAN_POINT('',(8.40262291997791E-15,0.,-77.2898682253258));
#328=CARTESIAN_POINT('',(-3.70096189432333,0.,-77.2898682253258));
#329=CARTESIAN_POINT('',(8.33397791888159E-15,0.,-76.9417920139725));
#330=CARTESIAN_POINT('',(8.25471349915862E-15,0.,-76.5398682253258));
#331=CARTESIAN_POINT('',(0.,0.,0.));
#332=CARTESIAN_POINT('',(1.96,0.,0.));
#333=CARTESIAN_POINT('',(3.7,0.,6.44646612165941E-16));
#334=CARTESIAN_POINT('',(0.,0.,-1.4));
#335=CARTESIAN_POINT('',(-3.36,0.,-1.4));
#336=CARTESIAN_POINT('',(0.,0.,0.));
#337=CARTESIAN_POINT('',(0.,0.,-8.8));
#338=CARTESIAN_POINT('',(3.36,0.,-8.8));
#339=CARTESIAN_POINT('',(0.,0.,20.9080749503476));
#340=CARTESIAN_POINT('',(0.,0.,-10.14));
#341=CARTESIAN_POINT('',(0.,0.,-80.));
#342=CARTESIAN_POINT('',(0.,0.,-80.));
#343=CARTESIAN_POINT('',(5.06565720397085,0.,-80.));
#344=CARTESIAN_POINT('',(0.,0.,-80.));
#345=CARTESIAN_POINT('',(0.,0.,-95.6200967888858));
#346=CARTESIAN_POINT('',(5.06565720397085,0.,-95.6200967888858));
#347=CARTESIAN_POINT('',(0.,0.,20.9080749503476));
#348=CARTESIAN_POINT('',(2.95306697689582E-14,0.,-99.6500040325449));
#349=CARTESIAN_POINT('',(-4.48999596745499,0.,-99.6500040325449));
#350=CARTESIAN_POINT('',(3.10862446895044E-14,0.,-104.14));
#351=CARTESIAN_POINT('',(2.93098878501041E-14,0.,-98.8743427960292));
#352=CARTESIAN_POINT('',(0.,0.,-102.));
#353=MECHANICAL_DESIGN_GEOMETRIC_PRESENTATION_REPRESENTATION('',(#182,#183,
#184,#185,#186,#187,#188,#189,#190),#354);
#354=(
GEOMETRIC_REPRESENTATION_CONTEXT(3)
GLOBAL_UNCERTAINTY_ASSIGNED_CONTEXT((#355))
GLOBAL_UNIT_ASSIGNED_CONTEXT((#361,#357,#356))
REPRESENTATION_CONTEXT('tool','TOP_LEVEL_ASSEMBLY_PART')
);
#355=UNCERTAINTY_MEASURE_WITH_UNIT(LENGTH_MEASURE(2.E-5),#361,
'DISTANCE_ACCURACY_VALUE','Maximum Tolerance applied to model');
#356=(
NAMED_UNIT(*)
SI_UNIT($,.STERADIAN.)
SOLID_ANGLE_UNIT()
);
#357=(
CONVERSION_BASED_UNIT('DEGREE',#359)
NAMED_UNIT(#358)
PLANE_ANGLE_UNIT()
);
#358=DIMENSIONAL_EXPONENTS(0.,0.,0.,0.,0.,0.,0.);
#359=PLANE_ANGLE_MEASURE_WITH_UNIT(PLANE_ANGLE_MEASURE(0.0174532925),#360);
#360=(
NAMED_UNIT(*)
PLANE_ANGLE_UNIT()
SI_UNIT($,.RADIAN.)
);
#361=(
LENGTH_UNIT()
NAMED_UNIT(*)
SI_UNIT(.MILLI.,.METRE.)
);
ENDSEC;
END-ISO-10303-21;
