ISO-10303-21;
HEADER;
/* Generated by software containing ST-Developer
 * from STEP Tools, Inc. (www.steptools.com) 
 */
/* OPTION: using custom schema-name function */

FILE_DESCRIPTION(
/* description */ (''),
/* implementation_level */ '2;1');

FILE_NAME(
/* name */ 'd605_20220426_102001_tb_1.stp',
/* time_stamp */ '2022-04-26T10:21:29+02:00',
/* author */ (''),
/* organization */ ('SMS'),
/* preprocessor_version */ 'ST-DEVELOPER v16.7',
/* originating_system */ 'SIEMENS PLM Software NX 12.0',
/* authorisation */ '');

FILE_SCHEMA (('AUTOMOTIVE_DESIGN { 1 0 10303 214 3 1 1 1 }'));
ENDSEC;

DATA;
#10=GEOMETRICALLY_BOUNDED_WIREFRAME_SHAPE_REPRESENTATION(
'D605_20220426_102001_TB_1-None',(#25),#593);
#11=SHAPE_REPRESENTATION_RELATIONSHIP('None',
'relationship between D605_20220426_102001_TB_1-None and D605_20220426
_102001_TB_1-None',#24,#13);
#12=SHAPE_REPRESENTATION_RELATIONSHIP('None',
'relationship between D605_20220426_102001_TB_1-None and D605_20220426
_102001_TB_1-None',#24,#10);
#13=ADVANCED_BREP_SHAPE_REPRESENTATION('D605_20220426_102001_TB_1-None',
(#32),#593);
#14=SHAPE_DEFINITION_REPRESENTATION(#15,#24);
#15=PRODUCT_DEFINITION_SHAPE('','',#16);
#16=PRODUCT_DEFINITION(' ','',#18,#17);
#17=PRODUCT_DEFINITION_CONTEXT('part definition',#23,'design');
#18=PRODUCT_DEFINITION_FORMATION_WITH_SPECIFIED_SOURCE(' ',' ',#20,
 .NOT_KNOWN.);
#19=PRODUCT_RELATED_PRODUCT_CATEGORY('part','',(#20));
#20=PRODUCT('D605_20220426_102001_TB_1','D605_20220426_102001_TB_1',' ',
(#21));
#21=PRODUCT_CONTEXT(' ',#23,'mechanical');
#22=APPLICATION_PROTOCOL_DEFINITION('international standard',
'automotive_design',2010,#23);
#23=APPLICATION_CONTEXT(
'core data for automotive mechanical design processes');
#24=SHAPE_REPRESENTATION('D605_20220426_102001_TB_1-None',(#424),#593);
#25=GEOMETRIC_CURVE_SET('None',(#521,#522,#523,#524,#525,#526,#210,#211,
#212,#213,#214,#215,#216,#217,#218,#219,#220,#221,#222,#223,#224,#225,#226,
#227,#228,#229,#230,#231,#232,#233,#234,#235,#236,#237,#238,#239,#240,#241,
#242,#243,#244,#245));
#26=SURFACE_STYLE_USAGE(.BOTH.,#27);
#27=SURFACE_SIDE_STYLE('',(#28));
#28=SURFACE_STYLE_FILL_AREA(#29);
#29=FILL_AREA_STYLE('',(#30));
#30=FILL_AREA_STYLE_COLOUR('',#31);
#31=COLOUR_RGB('Light Gray',0.8,0.8,0.8);
#32=MANIFOLD_SOLID_BREP('CU_CY',#33);
#33=CLOSED_SHELL('',(#43,#44,#45,#46,#47,#48,#49,#50,#51,#52));
#34=VERTEX_LOOP('',#119);
#35=PLANE('',#433);
#36=FACE_OUTER_BOUND('',#80,.T.);
#37=TOROIDAL_SURFACE('',#431,4.09999999999999,1.1);
#38=CONICAL_SURFACE('',#430,2.99999999999999,30.0000000000001);
#39=CONICAL_SURFACE('',#435,1.68,45.);
#40=CONICAL_SURFACE('',#438,4.2,44.9999999999999);
#41=CONICAL_SURFACE('',#442,4.23372558851653,45.);
#42=CONICAL_SURFACE('',#443,3.2868140006408,8.33975961518923);
#43=ADVANCED_FACE('',(#56,#57),#53,.T.);
#44=ADVANCED_FACE('',(#58,#59),#38,.T.);
#45=ADVANCED_FACE('',(#60,#61),#37,.F.);
#46=ADVANCED_FACE('',(#36),#35,.F.);
#47=ADVANCED_FACE('',(#62,#63),#39,.T.);
#48=ADVANCED_FACE('',(#64,#65),#54,.T.);
#49=ADVANCED_FACE('',(#66,#67),#40,.T.);
#50=ADVANCED_FACE('',(#68,#69),#55,.T.);
#51=ADVANCED_FACE('',(#70,#71),#41,.T.);
#52=ADVANCED_FACE('',(#72,#73),#42,.T.);
#53=CYLINDRICAL_SURFACE('',#427,2.99999999999999);
#54=CYLINDRICAL_SURFACE('',#437,2.88);
#55=CYLINDRICAL_SURFACE('',#440,4.05872558851655);
#56=FACE_BOUND('',#74,.T.);
#57=FACE_BOUND('',#75,.T.);
#58=FACE_BOUND('',#76,.T.);
#59=FACE_BOUND('',#77,.T.);
#60=FACE_BOUND('',#78,.T.);
#61=FACE_BOUND('',#79,.T.);
#62=FACE_BOUND('',#81,.T.);
#63=FACE_BOUND('',#82,.T.);
#64=FACE_BOUND('',#83,.T.);
#65=FACE_BOUND('',#84,.T.);
#66=FACE_BOUND('',#85,.T.);
#67=FACE_BOUND('',#86,.T.);
#68=FACE_BOUND('',#87,.T.);
#69=FACE_BOUND('',#88,.T.);
#70=FACE_BOUND('',#89,.T.);
#71=FACE_BOUND('',#34,.T.);
#72=FACE_BOUND('',#90,.T.);
#73=FACE_BOUND('',#91,.T.);
#74=EDGE_LOOP('',(#92));
#75=EDGE_LOOP('',(#93));
#76=EDGE_LOOP('',(#94));
#77=EDGE_LOOP('',(#95));
#78=EDGE_LOOP('',(#96));
#79=EDGE_LOOP('',(#97));
#80=EDGE_LOOP('',(#98));
#81=EDGE_LOOP('',(#99));
#82=EDGE_LOOP('',(#100));
#83=EDGE_LOOP('',(#101));
#84=EDGE_LOOP('',(#102));
#85=EDGE_LOOP('',(#103));
#86=EDGE_LOOP('',(#104));
#87=EDGE_LOOP('',(#105));
#88=EDGE_LOOP('',(#106));
#89=EDGE_LOOP('',(#107));
#90=EDGE_LOOP('',(#108));
#91=EDGE_LOOP('',(#109));
#92=ORIENTED_EDGE('',*,*,#120,.T.);
#93=ORIENTED_EDGE('',*,*,#121,.T.);
#94=ORIENTED_EDGE('',*,*,#122,.T.);
#95=ORIENTED_EDGE('',*,*,#123,.F.);
#96=ORIENTED_EDGE('',*,*,#120,.F.);
#97=ORIENTED_EDGE('',*,*,#122,.F.);
#98=ORIENTED_EDGE('',*,*,#124,.T.);
#99=ORIENTED_EDGE('',*,*,#124,.F.);
#100=ORIENTED_EDGE('',*,*,#125,.T.);
#101=ORIENTED_EDGE('',*,*,#126,.T.);
#102=ORIENTED_EDGE('',*,*,#125,.F.);
#103=ORIENTED_EDGE('',*,*,#126,.F.);
#104=ORIENTED_EDGE('',*,*,#121,.F.);
#105=ORIENTED_EDGE('',*,*,#127,.T.);
#106=ORIENTED_EDGE('',*,*,#123,.T.);
#107=ORIENTED_EDGE('',*,*,#128,.F.);
#108=ORIENTED_EDGE('',*,*,#128,.T.);
#109=ORIENTED_EDGE('',*,*,#127,.F.);
#110=VERTEX_POINT('',#564);
#111=VERTEX_POINT('',#566);
#112=VERTEX_POINT('',#569);
#113=VERTEX_POINT('',#571);
#114=VERTEX_POINT('',#575);
#115=VERTEX_POINT('',#578);
#116=VERTEX_POINT('',#581);
#117=VERTEX_POINT('',#585);
#118=VERTEX_POINT('',#588);
#119=VERTEX_POINT('',#589);
#120=EDGE_CURVE('',#110,#110,#129,.T.);
#121=EDGE_CURVE('',#111,#111,#130,.T.);
#122=EDGE_CURVE('',#112,#112,#131,.T.);
#123=EDGE_CURVE('',#113,#113,#132,.T.);
#124=EDGE_CURVE('',#114,#114,#133,.T.);
#125=EDGE_CURVE('',#115,#115,#134,.T.);
#126=EDGE_CURVE('',#116,#116,#135,.T.);
#127=EDGE_CURVE('',#117,#117,#136,.T.);
#128=EDGE_CURVE('',#118,#118,#137,.T.);
#129=CIRCLE('',#425,2.99999999999999);
#130=CIRCLE('',#426,3.);
#131=CIRCLE('',#428,3.14737205583711);
#132=CIRCLE('',#429,4.05872558851655);
#133=CIRCLE('',#432,1.68);
#134=CIRCLE('',#434,2.88);
#135=CIRCLE('',#436,2.88);
#136=CIRCLE('',#439,4.05872558851655);
#137=CIRCLE('',#441,3.63582649881942);
#138=CURVE_STYLE('',#174,POSITIVE_LENGTH_MEASURE(0.18),#423);
#139=CURVE_STYLE('',#175,POSITIVE_LENGTH_MEASURE(0.18),#423);
#140=CURVE_STYLE('',#176,POSITIVE_LENGTH_MEASURE(0.18),#423);
#141=CURVE_STYLE('',#177,POSITIVE_LENGTH_MEASURE(0.18),#423);
#142=CURVE_STYLE('',#178,POSITIVE_LENGTH_MEASURE(0.18),#423);
#143=CURVE_STYLE('',#179,POSITIVE_LENGTH_MEASURE(0.18),#423);
#144=CURVE_STYLE('',#180,POSITIVE_LENGTH_MEASURE(0.18),#423);
#145=CURVE_STYLE('',#181,POSITIVE_LENGTH_MEASURE(0.18),#423);
#146=CURVE_STYLE('',#182,POSITIVE_LENGTH_MEASURE(0.18),#423);
#147=CURVE_STYLE('',#183,POSITIVE_LENGTH_MEASURE(0.18),#423);
#148=CURVE_STYLE('',#184,POSITIVE_LENGTH_MEASURE(0.18),#423);
#149=CURVE_STYLE('',#185,POSITIVE_LENGTH_MEASURE(0.18),#423);
#150=CURVE_STYLE('',#186,POSITIVE_LENGTH_MEASURE(0.18),#423);
#151=CURVE_STYLE('',#187,POSITIVE_LENGTH_MEASURE(0.18),#423);
#152=CURVE_STYLE('',#188,POSITIVE_LENGTH_MEASURE(0.18),#423);
#153=CURVE_STYLE('',#189,POSITIVE_LENGTH_MEASURE(0.18),#423);
#154=CURVE_STYLE('',#190,POSITIVE_LENGTH_MEASURE(0.18),#423);
#155=CURVE_STYLE('',#191,POSITIVE_LENGTH_MEASURE(0.18),#423);
#156=CURVE_STYLE('',#192,POSITIVE_LENGTH_MEASURE(0.18),#423);
#157=CURVE_STYLE('',#193,POSITIVE_LENGTH_MEASURE(0.18),#423);
#158=CURVE_STYLE('',#194,POSITIVE_LENGTH_MEASURE(0.18),#423);
#159=CURVE_STYLE('',#195,POSITIVE_LENGTH_MEASURE(0.18),#423);
#160=CURVE_STYLE('',#196,POSITIVE_LENGTH_MEASURE(0.18),#423);
#161=CURVE_STYLE('',#197,POSITIVE_LENGTH_MEASURE(0.18),#423);
#162=CURVE_STYLE('',#198,POSITIVE_LENGTH_MEASURE(0.18),#423);
#163=CURVE_STYLE('',#199,POSITIVE_LENGTH_MEASURE(0.18),#423);
#164=CURVE_STYLE('',#200,POSITIVE_LENGTH_MEASURE(0.18),#423);
#165=CURVE_STYLE('',#201,POSITIVE_LENGTH_MEASURE(0.18),#423);
#166=CURVE_STYLE('',#202,POSITIVE_LENGTH_MEASURE(0.18),#423);
#167=CURVE_STYLE('',#203,POSITIVE_LENGTH_MEASURE(0.18),#423);
#168=CURVE_STYLE('',#204,POSITIVE_LENGTH_MEASURE(0.18),#423);
#169=CURVE_STYLE('',#205,POSITIVE_LENGTH_MEASURE(0.18),#423);
#170=CURVE_STYLE('',#206,POSITIVE_LENGTH_MEASURE(0.18),#423);
#171=CURVE_STYLE('',#207,POSITIVE_LENGTH_MEASURE(0.18),#423);
#172=CURVE_STYLE('',#208,POSITIVE_LENGTH_MEASURE(0.18),#423);
#173=CURVE_STYLE('',#209,POSITIVE_LENGTH_MEASURE(0.18),#423);
#174=DRAUGHTING_PRE_DEFINED_CURVE_FONT('continuous');
#175=DRAUGHTING_PRE_DEFINED_CURVE_FONT('continuous');
#176=DRAUGHTING_PRE_DEFINED_CURVE_FONT('continuous');
#177=DRAUGHTING_PRE_DEFINED_CURVE_FONT('continuous');
#178=DRAUGHTING_PRE_DEFINED_CURVE_FONT('continuous');
#179=DRAUGHTING_PRE_DEFINED_CURVE_FONT('continuous');
#180=DRAUGHTING_PRE_DEFINED_CURVE_FONT('continuous');
#181=DRAUGHTING_PRE_DEFINED_CURVE_FONT('continuous');
#182=DRAUGHTING_PRE_DEFINED_CURVE_FONT('continuous');
#183=DRAUGHTING_PRE_DEFINED_CURVE_FONT('continuous');
#184=DRAUGHTING_PRE_DEFINED_CURVE_FONT('continuous');
#185=DRAUGHTING_PRE_DEFINED_CURVE_FONT('continuous');
#186=DRAUGHTING_PRE_DEFINED_CURVE_FONT('continuous');
#187=DRAUGHTING_PRE_DEFINED_CURVE_FONT('continuous');
#188=DRAUGHTING_PRE_DEFINED_CURVE_FONT('continuous');
#189=DRAUGHTING_PRE_DEFINED_CURVE_FONT('continuous');
#190=DRAUGHTING_PRE_DEFINED_CURVE_FONT('continuous');
#191=DRAUGHTING_PRE_DEFINED_CURVE_FONT('continuous');
#192=DRAUGHTING_PRE_DEFINED_CURVE_FONT('continuous');
#193=DRAUGHTING_PRE_DEFINED_CURVE_FONT('continuous');
#194=DRAUGHTING_PRE_DEFINED_CURVE_FONT('continuous');
#195=DRAUGHTING_PRE_DEFINED_CURVE_FONT('continuous');
#196=DRAUGHTING_PRE_DEFINED_CURVE_FONT('continuous');
#197=DRAUGHTING_PRE_DEFINED_CURVE_FONT('continuous');
#198=DRAUGHTING_PRE_DEFINED_CURVE_FONT('continuous');
#199=DRAUGHTING_PRE_DEFINED_CURVE_FONT('continuous');
#200=DRAUGHTING_PRE_DEFINED_CURVE_FONT('continuous');
#201=DRAUGHTING_PRE_DEFINED_CURVE_FONT('continuous');
#202=DRAUGHTING_PRE_DEFINED_CURVE_FONT('chain double dash');
#203=DRAUGHTING_PRE_DEFINED_CURVE_FONT('continuous');
#204=DRAUGHTING_PRE_DEFINED_CURVE_FONT('continuous');
#205=DRAUGHTING_PRE_DEFINED_CURVE_FONT('continuous');
#206=DRAUGHTING_PRE_DEFINED_CURVE_FONT('continuous');
#207=DRAUGHTING_PRE_DEFINED_CURVE_FONT('continuous');
#208=DRAUGHTING_PRE_DEFINED_CURVE_FONT('continuous');
#209=DRAUGHTING_PRE_DEFINED_CURVE_FONT('continuous');
#210=TRIMMED_CURVE('LINE6_0',#246,(PARAMETER_VALUE(0.)),(
PARAMETER_VALUE(1.)),.T.,.PARAMETER.);
#211=TRIMMED_CURVE('LINE7_0',#247,(PARAMETER_VALUE(0.)),(
PARAMETER_VALUE(1.)),.T.,.PARAMETER.);
#212=TRIMMED_CURVE('LINE9_0',#248,(PARAMETER_VALUE(0.)),(
PARAMETER_VALUE(1.)),.T.,.PARAMETER.);
#213=TRIMMED_CURVE('LINE13_0',#249,(PARAMETER_VALUE(0.)),(
PARAMETER_VALUE(1.)),.T.,.PARAMETER.);
#214=TRIMMED_CURVE('Line20_0',#250,(PARAMETER_VALUE(0.)),(
PARAMETER_VALUE(1.)),.T.,.PARAMETER.);
#215=TRIMMED_CURVE('Line8_0',#251,(PARAMETER_VALUE(0.)),(
PARAMETER_VALUE(1.)),.T.,.PARAMETER.);
#216=TRIMMED_CURVE('Line9_0',#252,(PARAMETER_VALUE(0.)),(
PARAMETER_VALUE(1.)),.T.,.PARAMETER.);
#217=TRIMMED_CURVE('Line12_0',#253,(PARAMETER_VALUE(0.)),(
PARAMETER_VALUE(1.)),.T.,.PARAMETER.);
#218=TRIMMED_CURVE('Line13_0',#254,(PARAMETER_VALUE(0.)),(
PARAMETER_VALUE(1.)),.T.,.PARAMETER.);
#219=TRIMMED_CURVE('Line1_1',#255,(PARAMETER_VALUE(0.)),(
PARAMETER_VALUE(1.)),.T.,.PARAMETER.);
#220=TRIMMED_CURVE('Line2_1',#256,(PARAMETER_VALUE(0.)),(
PARAMETER_VALUE(1.)),.T.,.PARAMETER.);
#221=TRIMMED_CURVE('Line3_1',#257,(PARAMETER_VALUE(0.)),(
PARAMETER_VALUE(1.)),.T.,.PARAMETER.);
#222=TRIMMED_CURVE('Line5_1',#258,(PARAMETER_VALUE(0.)),(
PARAMETER_VALUE(1.)),.T.,.PARAMETER.);
#223=TRIMMED_CURVE('LINE2_2',#259,(PARAMETER_VALUE(0.)),(
PARAMETER_VALUE(1.)),.T.,.PARAMETER.);
#224=TRIMMED_CURVE('Line7_2',#260,(PARAMETER_VALUE(0.)),(
PARAMETER_VALUE(1.)),.T.,.PARAMETER.);
#225=TRIMMED_CURVE('Line8_2',#261,(PARAMETER_VALUE(0.)),(
PARAMETER_VALUE(1.)),.T.,.PARAMETER.);
#226=TRIMMED_CURVE('Line9_2',#262,(PARAMETER_VALUE(0.)),(
PARAMETER_VALUE(1.)),.T.,.PARAMETER.);
#227=TRIMMED_CURVE('Line10_3',#263,(PARAMETER_VALUE(0.)),(
PARAMETER_VALUE(1.)),.T.,.PARAMETER.);
#228=TRIMMED_CURVE('Line11_3',#264,(PARAMETER_VALUE(0.)),(
PARAMETER_VALUE(1.)),.T.,.PARAMETER.);
#229=TRIMMED_CURVE('Line12_3',#265,(PARAMETER_VALUE(0.)),(
PARAMETER_VALUE(1.)),.T.,.PARAMETER.);
#230=TRIMMED_CURVE('Line13_3',#266,(PARAMETER_VALUE(0.)),(
PARAMETER_VALUE(1.)),.T.,.PARAMETER.);
#231=TRIMMED_CURVE('LINE5_4',#267,(PARAMETER_VALUE(0.)),(
PARAMETER_VALUE(1.)),.T.,.PARAMETER.);
#232=TRIMMED_CURVE('LINE6_4',#268,(PARAMETER_VALUE(0.)),(
PARAMETER_VALUE(1.)),.T.,.PARAMETER.);
#233=TRIMMED_CURVE('LINE7_4',#269,(PARAMETER_VALUE(0.)),(
PARAMETER_VALUE(1.)),.T.,.PARAMETER.);
#234=TRIMMED_CURVE('LINE8_4',#270,(PARAMETER_VALUE(0.)),(
PARAMETER_VALUE(1.)),.T.,.PARAMETER.);
#235=TRIMMED_CURVE('Line1_5',#271,(PARAMETER_VALUE(0.)),(
PARAMETER_VALUE(1.)),.T.,.PARAMETER.);
#236=TRIMMED_CURVE('Line2_5',#272,(PARAMETER_VALUE(0.)),(
PARAMETER_VALUE(1.)),.T.,.PARAMETER.);
#237=TRIMMED_CURVE('Line3_5',#273,(PARAMETER_VALUE(0.)),(
PARAMETER_VALUE(1.)),.T.,.PARAMETER.);
#238=TRIMMED_CURVE('Line29_0_1',#274,(PARAMETER_VALUE(0.)),(
PARAMETER_VALUE(1.)),.T.,.PARAMETER.);
#239=TRIMMED_CURVE('LINE7_1',#275,(PARAMETER_VALUE(0.)),(
PARAMETER_VALUE(1.)),.T.,.PARAMETER.);
#240=TRIMMED_CURVE('LINE11_1',#276,(PARAMETER_VALUE(0.)),(
PARAMETER_VALUE(1.)),.T.,.PARAMETER.);
#241=TRIMMED_CURVE('Line13_1',#277,(PARAMETER_VALUE(0.)),(
PARAMETER_VALUE(1.)),.T.,.PARAMETER.);
#242=TRIMMED_CURVE('LINE1_6',#278,(PARAMETER_VALUE(0.)),(
PARAMETER_VALUE(1.)),.T.,.PARAMETER.);
#243=TRIMMED_CURVE('LINE2_6',#279,(PARAMETER_VALUE(0.)),(
PARAMETER_VALUE(1.)),.T.,.PARAMETER.);
#244=TRIMMED_CURVE('LINE3_6',#280,(PARAMETER_VALUE(0.)),(
PARAMETER_VALUE(1.)),.T.,.PARAMETER.);
#245=TRIMMED_CURVE('LINE4_6',#281,(PARAMETER_VALUE(0.)),(
PARAMETER_VALUE(1.)),.T.,.PARAMETER.);
#246=LINE('LINE6_0',#527,#282);
#247=LINE('LINE7_0',#528,#283);
#248=LINE('LINE9_0',#529,#284);
#249=LINE('LINE13_0',#530,#285);
#250=LINE('Line20_0',#531,#286);
#251=LINE('Line8_0',#532,#287);
#252=LINE('Line9_0',#533,#288);
#253=LINE('Line12_0',#534,#289);
#254=LINE('Line13_0',#535,#290);
#255=LINE('Line1_1',#536,#291);
#256=LINE('Line2_1',#537,#292);
#257=LINE('Line3_1',#538,#293);
#258=LINE('Line5_1',#539,#294);
#259=LINE('LINE2_2',#540,#295);
#260=LINE('Line7_2',#541,#296);
#261=LINE('Line8_2',#542,#297);
#262=LINE('Line9_2',#543,#298);
#263=LINE('Line10_3',#544,#299);
#264=LINE('Line11_3',#545,#300);
#265=LINE('Line12_3',#546,#301);
#266=LINE('Line13_3',#547,#302);
#267=LINE('LINE5_4',#548,#303);
#268=LINE('LINE6_4',#549,#304);
#269=LINE('LINE7_4',#550,#305);
#270=LINE('LINE8_4',#551,#306);
#271=LINE('Line1_5',#552,#307);
#272=LINE('Line2_5',#553,#308);
#273=LINE('Line3_5',#554,#309);
#274=LINE('Line29_0_1',#555,#310);
#275=LINE('LINE7_1',#556,#311);
#276=LINE('LINE11_1',#557,#312);
#277=LINE('Line13_1',#558,#313);
#278=LINE('LINE1_6',#559,#314);
#279=LINE('LINE2_6',#560,#315);
#280=LINE('LINE3_6',#561,#316);
#281=LINE('LINE4_6',#562,#317);
#282=VECTOR('',#446,0.439999999999984);
#283=VECTOR('',#447,2.1174511770331);
#284=VECTOR('',#448,2.27376651058391);
#285=VECTOR('',#449,4.05872558851655);
#286=VECTOR('',#450,2.99999999999999);
#287=VECTOR('',#451,69.4231245980915);
#288=VECTOR('',#452,3.2);
#289=VECTOR('',#453,3.19999999999999);
#290=VECTOR('',#454,69.4231245980915);
#291=VECTOR('',#455,4.23372558851655);
#292=VECTOR('',#456,17.324383302808);
#293=VECTOR('',#457,4.23372558851656);
#294=VECTOR('',#458,17.324383302808);
#295=VECTOR('',#459,1.86676190233249);
#296=VECTOR('',#460,1.32);
#297=VECTOR('',#461,11.12);
#298=VECTOR('',#462,9.8);
#299=VECTOR('',#463,1.7);
#300=VECTOR('',#464,1.);
#301=VECTOR('',#465,2.40416305603426);
#302=VECTOR('',#466,2.7);
#303=VECTOR('',#467,2.);
#304=VECTOR('',#468,71.4231245980915);
#305=VECTOR('',#469,1.99999999999999);
#306=VECTOR('',#470,71.4231245980915);
#307=VECTOR('',#471,4.23372558851653);
#308=VECTOR('',#472,5.98739214664609);
#309=VECTOR('',#473,4.23372558851653);
#310=VECTOR('',#474,20.2137528188613);
#311=VECTOR('',#475,20.);
#312=VECTOR('',#476,20.2137528188614);
#313=VECTOR('',#477,2.93185999359203);
#314=VECTOR('',#478,21.5);
#315=VECTOR('',#479,2.00000000000001);
#316=VECTOR('',#480,21.5);
#317=VECTOR('',#481,2.00000000000001);
#318=INVISIBILITY((#319,#320,#321,#322,#344,#345,#346,#347,#323));
#319=PRESENTATION_LAYER_ASSIGNMENT('166','Layer 166',(#521,#210,#211,#212,
#213,#214));
#320=PRESENTATION_LAYER_ASSIGNMENT('162','Layer 162',(#522,#215,#216,#217,
#218,#223,#224,#225,#226,#227,#228,#229,#230,#231,#232,#233,#234));
#321=PRESENTATION_LAYER_ASSIGNMENT('169','Layer 169',(#523,#524,#525,#526,
#238,#239,#240,#241));
#322=PRESENTATION_LAYER_ASSIGNMENT('170','Layer 170',(#219,#220,#221,#222,
#242,#243,#244,#245));
#323=PRESENTATION_LAYER_ASSIGNMENT('161','Layer 161',(#235,#236,#237));
#324=PRESENTATION_LAYER_ASSIGNMENT('1','Layer 1',(#32));
#325=STYLED_ITEM('',(#368),#521);
#326=STYLED_ITEM('',(#369),#522);
#327=STYLED_ITEM('',(#370),#523);
#328=STYLED_ITEM('',(#371),#524);
#329=STYLED_ITEM('',(#372),#525);
#330=STYLED_ITEM('',(#373),#526);
#331=STYLED_ITEM('',(#374),#210);
#332=STYLED_ITEM('',(#375),#211);
#333=STYLED_ITEM('',(#376),#212);
#334=STYLED_ITEM('',(#377),#213);
#335=STYLED_ITEM('',(#378),#214);
#336=STYLED_ITEM('',(#379),#215);
#337=STYLED_ITEM('',(#380),#216);
#338=STYLED_ITEM('',(#381),#217);
#339=STYLED_ITEM('',(#382),#218);
#340=STYLED_ITEM('',(#383),#219);
#341=STYLED_ITEM('',(#384),#220);
#342=STYLED_ITEM('',(#385),#221);
#343=STYLED_ITEM('',(#386),#222);
#344=STYLED_ITEM('',(#387),#223);
#345=STYLED_ITEM('',(#388),#224);
#346=STYLED_ITEM('',(#389),#225);
#347=STYLED_ITEM('',(#390),#226);
#348=STYLED_ITEM('',(#391),#227);
#349=STYLED_ITEM('',(#392),#228);
#350=STYLED_ITEM('',(#393),#229);
#351=STYLED_ITEM('',(#394),#230);
#352=STYLED_ITEM('',(#395),#231);
#353=STYLED_ITEM('',(#396),#232);
#354=STYLED_ITEM('',(#397),#233);
#355=STYLED_ITEM('',(#398),#234);
#356=STYLED_ITEM('',(#399),#235);
#357=STYLED_ITEM('',(#400),#236);
#358=STYLED_ITEM('',(#401),#237);
#359=STYLED_ITEM('',(#402),#238);
#360=STYLED_ITEM('',(#403),#239);
#361=STYLED_ITEM('',(#404),#240);
#362=STYLED_ITEM('',(#405),#241);
#363=STYLED_ITEM('',(#406),#242);
#364=STYLED_ITEM('',(#407),#243);
#365=STYLED_ITEM('',(#408),#244);
#366=STYLED_ITEM('',(#409),#245);
#367=STYLED_ITEM('',(#410),#32);
#368=PRESENTATION_STYLE_ASSIGNMENT((#411));
#369=PRESENTATION_STYLE_ASSIGNMENT((#412));
#370=PRESENTATION_STYLE_ASSIGNMENT((#413));
#371=PRESENTATION_STYLE_ASSIGNMENT((#414));
#372=PRESENTATION_STYLE_ASSIGNMENT((#415));
#373=PRESENTATION_STYLE_ASSIGNMENT((#416));
#374=PRESENTATION_STYLE_ASSIGNMENT((#138));
#375=PRESENTATION_STYLE_ASSIGNMENT((#139));
#376=PRESENTATION_STYLE_ASSIGNMENT((#140));
#377=PRESENTATION_STYLE_ASSIGNMENT((#141));
#378=PRESENTATION_STYLE_ASSIGNMENT((#142));
#379=PRESENTATION_STYLE_ASSIGNMENT((#143));
#380=PRESENTATION_STYLE_ASSIGNMENT((#144));
#381=PRESENTATION_STYLE_ASSIGNMENT((#145));
#382=PRESENTATION_STYLE_ASSIGNMENT((#146));
#383=PRESENTATION_STYLE_ASSIGNMENT((#147));
#384=PRESENTATION_STYLE_ASSIGNMENT((#148));
#385=PRESENTATION_STYLE_ASSIGNMENT((#149));
#386=PRESENTATION_STYLE_ASSIGNMENT((#150));
#387=PRESENTATION_STYLE_ASSIGNMENT((#151));
#388=PRESENTATION_STYLE_ASSIGNMENT((#152));
#389=PRESENTATION_STYLE_ASSIGNMENT((#153));
#390=PRESENTATION_STYLE_ASSIGNMENT((#154));
#391=PRESENTATION_STYLE_ASSIGNMENT((#155));
#392=PRESENTATION_STYLE_ASSIGNMENT((#156));
#393=PRESENTATION_STYLE_ASSIGNMENT((#157));
#394=PRESENTATION_STYLE_ASSIGNMENT((#158));
#395=PRESENTATION_STYLE_ASSIGNMENT((#159));
#396=PRESENTATION_STYLE_ASSIGNMENT((#160));
#397=PRESENTATION_STYLE_ASSIGNMENT((#161));
#398=PRESENTATION_STYLE_ASSIGNMENT((#162));
#399=PRESENTATION_STYLE_ASSIGNMENT((#163));
#400=PRESENTATION_STYLE_ASSIGNMENT((#164));
#401=PRESENTATION_STYLE_ASSIGNMENT((#165));
#402=PRESENTATION_STYLE_ASSIGNMENT((#166));
#403=PRESENTATION_STYLE_ASSIGNMENT((#167));
#404=PRESENTATION_STYLE_ASSIGNMENT((#168));
#405=PRESENTATION_STYLE_ASSIGNMENT((#169));
#406=PRESENTATION_STYLE_ASSIGNMENT((#170));
#407=PRESENTATION_STYLE_ASSIGNMENT((#171));
#408=PRESENTATION_STYLE_ASSIGNMENT((#172));
#409=PRESENTATION_STYLE_ASSIGNMENT((#173));
#410=PRESENTATION_STYLE_ASSIGNMENT((#26));
#411=POINT_STYLE('',#417,POSITIVE_LENGTH_MEASURE(3.),#423);
#412=POINT_STYLE('',#418,POSITIVE_LENGTH_MEASURE(3.),#423);
#413=POINT_STYLE('',#419,POSITIVE_LENGTH_MEASURE(3.),#423);
#414=POINT_STYLE('',#420,POSITIVE_LENGTH_MEASURE(3.),#423);
#415=POINT_STYLE('',#421,POSITIVE_LENGTH_MEASURE(3.),#423);
#416=POINT_STYLE('',#422,POSITIVE_LENGTH_MEASURE(3.),#423);
#417=PRE_DEFINED_POINT_MARKER_SYMBOL('plus');
#418=PRE_DEFINED_POINT_MARKER_SYMBOL('plus');
#419=PRE_DEFINED_POINT_MARKER_SYMBOL('plus');
#420=PRE_DEFINED_POINT_MARKER_SYMBOL('plus');
#421=PRE_DEFINED_POINT_MARKER_SYMBOL('plus');
#422=PRE_DEFINED_POINT_MARKER_SYMBOL('plus');
#423=DRAUGHTING_PRE_DEFINED_COLOUR('white');
#424=AXIS2_PLACEMENT_3D('',#520,#444,#445);
#425=AXIS2_PLACEMENT_3D('',#563,#482,#483);
#426=AXIS2_PLACEMENT_3D('',#565,#484,#485);
#427=AXIS2_PLACEMENT_3D('',#567,#486,#487);
#428=AXIS2_PLACEMENT_3D('',#568,#488,#489);
#429=AXIS2_PLACEMENT_3D('',#570,#490,#491);
#430=AXIS2_PLACEMENT_3D('',#572,#492,#493);
#431=AXIS2_PLACEMENT_3D('',#573,#494,#495);
#432=AXIS2_PLACEMENT_3D('',#574,#496,#497);
#433=AXIS2_PLACEMENT_3D('',#576,#498,#499);
#434=AXIS2_PLACEMENT_3D('',#577,#500,#501);
#435=AXIS2_PLACEMENT_3D('',#579,#502,#503);
#436=AXIS2_PLACEMENT_3D('',#580,#504,#505);
#437=AXIS2_PLACEMENT_3D('',#582,#506,#507);
#438=AXIS2_PLACEMENT_3D('',#583,#508,#509);
#439=AXIS2_PLACEMENT_3D('',#584,#510,#511);
#440=AXIS2_PLACEMENT_3D('',#586,#512,#513);
#441=AXIS2_PLACEMENT_3D('',#587,#514,#515);
#442=AXIS2_PLACEMENT_3D('',#590,#516,#517);
#443=AXIS2_PLACEMENT_3D('',#591,#518,#519);
#444=DIRECTION('',(0.,0.,1.));
#445=DIRECTION('',(1.,0.,0.));
#446=DIRECTION('',(0.,0.,1.));
#447=DIRECTION('',(-0.500000000000001,0.,0.866025403784438));
#448=DIRECTION('',(1.40762572548749E-16,0.,-1.));
#449=DIRECTION('',(1.,0.,0.));
#450=DIRECTION('',(-1.,0.,0.));
#451=DIRECTION('',(2.68699542375736E-16,0.,-1.));
#452=DIRECTION('',(-1.,0.,-1.40762572548749E-16));
#453=DIRECTION('',(1.,0.,0.));
#454=DIRECTION('',(8.95558788788915E-17,0.,-1.));
#455=DIRECTION('',(1.,0.,0.));
#456=DIRECTION('',(0.,0.,1.));
#457=DIRECTION('',(-1.,0.,0.));
#458=DIRECTION('',(5.63942880155384E-16,0.,-1.));
#459=DIRECTION('',(-0.707106781186546,0.,0.707106781186549));
#460=DIRECTION('',(-1.,0.,-8.41078048958452E-17));
#461=DIRECTION('',(1.59744320089951E-16,0.,-1.));
#462=DIRECTION('',(4.53152254949044E-17,0.,1.));
#463=DIRECTION('',(1.,0.,1.30614473485312E-16));
#464=DIRECTION('',(0.,0.,1.));
#465=DIRECTION('',(-0.707106781186548,0.,0.707106781186547));
#466=DIRECTION('',(0.,0.,-1.));
#467=DIRECTION('',(-1.,0.,1.66533453693773E-15));
#468=DIRECTION('',(-1.24354461485413E-17,0.,1.));
#469=DIRECTION('',(1.,0.,0.));
#470=DIRECTION('',(1.43007630708225E-16,0.,-1.));
#471=DIRECTION('',(-3.54014697435582E-16,0.,1.));
#472=DIRECTION('',(-0.707106781186547,0.,-0.707106781186548));
#473=DIRECTION('',(1.,0.,0.));
#474=DIRECTION('',(-0.14504283394899,0.,-0.989425376832455));
#475=DIRECTION('',(8.88178419700125E-17,0.,1.));
#476=DIRECTION('',(-0.14504283394899,0.,-0.989425376832455));
#477=DIRECTION('',(1.,0.,0.));
#478=DIRECTION('',(0.,0.,1.));
#479=DIRECTION('',(-1.,0.,0.));
#480=DIRECTION('',(1.23931872516297E-16,0.,-1.));
#481=DIRECTION('',(1.,0.,0.));
#482=DIRECTION('',(1.40762572548749E-16,0.,-1.));
#483=DIRECTION('',(1.,0.,0.));
#484=DIRECTION('',(0.,0.,1.));
#485=DIRECTION('',(1.,0.,0.));
#486=DIRECTION('',(-1.40762572548749E-16,0.,1.));
#487=DIRECTION('',(1.,0.,0.));
#488=DIRECTION('',(-1.40762572548749E-16,0.,1.));
#489=DIRECTION('',(1.,0.,0.));
#490=DIRECTION('',(0.,0.,1.));
#491=DIRECTION('',(1.,0.,0.));
#492=DIRECTION('',(-1.40762572548749E-16,0.,1.));
#493=DIRECTION('',(1.,0.,1.67389453941925E-16));
#494=DIRECTION('',(-1.40762572548749E-16,0.,1.));
#495=DIRECTION('',(1.,0.,0.));
#496=DIRECTION('',(0.,0.,-1.));
#497=DIRECTION('',(-1.,0.,0.));
#498=DIRECTION('',(-2.68699542375736E-16,0.,1.));
#499=DIRECTION('',(1.,0.,2.68699542375736E-16));
#500=DIRECTION('',(0.,0.,-1.));
#501=DIRECTION('',(1.,0.,0.));
#502=DIRECTION('',(0.,0.,1.));
#503=DIRECTION('',(1.,0.,0.));
#504=DIRECTION('',(0.,0.,-1.));
#505=DIRECTION('',(-1.,0.,0.));
#506=DIRECTION('',(0.,0.,-1.));
#507=DIRECTION('',(-1.,0.,0.));
#508=DIRECTION('',(0.,0.,1.));
#509=DIRECTION('',(1.,0.,-1.0364808659491E-16));
#510=DIRECTION('',(0.,0.,-1.));
#511=DIRECTION('',(-1.,0.,0.));
#512=DIRECTION('',(0.,0.,-1.));
#513=DIRECTION('',(-1.,0.,0.));
#514=DIRECTION('',(0.,0.,-1.));
#515=DIRECTION('',(1.,0.,0.));
#516=DIRECTION('',(3.54014697435582E-16,0.,-1.));
#517=DIRECTION('',(-1.,0.,-3.31662738365373E-16));
#518=DIRECTION('',(0.,0.,-1.));
#519=DIRECTION('',(-1.,0.,-1.85185549235092E-16));
#520=CARTESIAN_POINT('',(0.,0.,0.));
#521=CARTESIAN_POINT('VERTEX1_0',(-4.23372558851655,0.,72.));
#522=CARTESIAN_POINT('Vertex12_3',(-2.88,0.,1.2));
#523=CARTESIAN_POINT('Vertex3_0_1',(-4.05872558851655,0.,85.37));
#524=CARTESIAN_POINT('VERTEX2_1',(-4.25872558851656,0.,85.37));
#525=CARTESIAN_POINT('Vertex3_1',(-3.38,0.,90.));
#526=CARTESIAN_POINT('Vertex4_1',(-3.58,0.,90.));
#527=CARTESIAN_POINT('',(-3.,0.,69.4231245980915));
#528=CARTESIAN_POINT('',(-3.,0.,69.8631245980915));
#529=CARTESIAN_POINT('',(-7.86957779085605E-15,0.,71.6968911086755));
#530=CARTESIAN_POINT('',(-4.05872558851655,0.,71.6968911086755));
#531=CARTESIAN_POINT('',(-7.54951656745106E-15,0.,69.4231245980915));
#532=CARTESIAN_POINT('',(-2.22066754886014E-14,0.,69.4231245980915));
#533=CARTESIAN_POINT('',(-3.5527136788005E-15,0.,-5.00089116957088E-31));
#534=CARTESIAN_POINT('',(-3.20000000000001,0.,69.4231245980915));
#535=CARTESIAN_POINT('',(-3.20000000000001,0.,69.4231245980915));
#536=CARTESIAN_POINT('',(-4.23372558851655,0.,71.6968911086755));
#537=CARTESIAN_POINT('',(0.,0.,71.6968911086755));
#538=CARTESIAN_POINT('',(0.,0.,89.0212744114834));
#539=CARTESIAN_POINT('',(-4.23372558851656,0.,89.0212744114834));
#540=CARTESIAN_POINT('',(-2.88,0.,8.8));
#541=CARTESIAN_POINT('',(-2.88,0.,-0.999999999999997));
#542=CARTESIAN_POINT('',(-4.2,0.,10.12));
#543=CARTESIAN_POINT('',(-2.88,0.,-0.999999999999997));
#544=CARTESIAN_POINT('',(-3.38,0.,-1.));
#545=CARTESIAN_POINT('',(-1.68,0.,-1.));
#546=CARTESIAN_POINT('',(-1.68,0.,0.));
#547=CARTESIAN_POINT('',(-3.38,0.,1.7));
#548=CARTESIAN_POINT('',(-3.,0.,-2.));
#549=CARTESIAN_POINT('',(-5.,0.,-2.));
#550=CARTESIAN_POINT('',(-5.,0.,69.4231245980915));
#551=CARTESIAN_POINT('',(-3.00000000000001,0.,69.4231245980915));
#552=CARTESIAN_POINT('',(-2.62012633811537E-14,0.,89.0212744114834));
#553=CARTESIAN_POINT('',(-2.77000644643977E-14,0.,93.255));
#554=CARTESIAN_POINT('',(-4.23372558851655,0.,89.0212744114834));
#555=CARTESIAN_POINT('',(-3.0868140006408,0.,92.));
#556=CARTESIAN_POINT('',(-6.21867399423283,0.,72.));
#557=CARTESIAN_POINT('',(-3.2868140006408,0.,92.));
#558=CARTESIAN_POINT('',(-6.21867399423283,0.,92.));
#559=CARTESIAN_POINT('',(-4.05872558851655,0.,70.5));
#560=CARTESIAN_POINT('',(-4.05872558851655,0.,92.));
#561=CARTESIAN_POINT('',(-6.05872558851657,0.,92.));
#562=CARTESIAN_POINT('',(-6.05872558851656,0.,70.5));
#563=CARTESIAN_POINT('',(-7.56996315996965E-15,0.,69.5683804864173));
#564=CARTESIAN_POINT('',(2.99999999999998,0.,69.5683804864173));
#565=CARTESIAN_POINT('',(0.,0.,8.92));
#566=CARTESIAN_POINT('',(3.,0.,8.92));
#567=CARTESIAN_POINT('',(-7.54951656745106E-15,0.,69.4231245980915));
#568=CARTESIAN_POINT('',(-7.64738257487146E-15,0.,70.1183804864173));
#569=CARTESIAN_POINT('',(3.1473720558371,0.,70.1183804864173));
#570=CARTESIAN_POINT('',(0.,0.,71.6968911086754));
#571=CARTESIAN_POINT('',(4.05872558851655,0.,71.6968911086754));
#572=CARTESIAN_POINT('',(-7.61145209937251E-15,0.,69.8631245980915));
#573=CARTESIAN_POINT('',(-7.56996315996965E-15,0.,69.5683804864173));
#574=CARTESIAN_POINT('',(0.,0.,0.));
#575=CARTESIAN_POINT('',(-1.68,0.,0.));
#576=CARTESIAN_POINT('',(-3.2,0.,-4.29919267801178E-16));
#577=CARTESIAN_POINT('',(0.,0.,1.2));
#578=CARTESIAN_POINT('',(2.88,0.,1.2));
#579=CARTESIAN_POINT('',(0.,0.,0.));
#580=CARTESIAN_POINT('',(0.,0.,8.8));
#581=CARTESIAN_POINT('',(-2.88,0.,8.8));
#582=CARTESIAN_POINT('',(0.,0.,-20.9080749503476));
#583=CARTESIAN_POINT('',(0.,0.,10.12));
#584=CARTESIAN_POINT('',(0.,0.,86.7343216281618));
#585=CARTESIAN_POINT('',(-4.05872558851655,0.,86.7343216281618));
#586=CARTESIAN_POINT('',(0.,0.,-20.9080749503476));
#587=CARTESIAN_POINT('',(-2.64129284464898E-14,0.,89.6191735011806));
#588=CARTESIAN_POINT('',(3.63582649881939,0.,89.6191735011806));
#589=CARTESIAN_POINT('',(-2.75335310107039E-14,0.,93.255));
#590=CARTESIAN_POINT('',(-2.62012633811537E-14,0.,89.0212744114834));
#591=CARTESIAN_POINT('',(0.,0.,92.));
#592=MECHANICAL_DESIGN_GEOMETRIC_PRESENTATION_REPRESENTATION('',(#325,#326,
#327,#328,#329,#330,#331,#332,#333,#334,#335,#336,#337,#338,#339,#340,#341,
#342,#343,#344,#345,#346,#347,#348,#349,#350,#351,#352,#353,#354,#355,#356,
#357,#358,#359,#360,#361,#362,#363,#364,#365,#366,#367),#593);
#593=(
GEOMETRIC_REPRESENTATION_CONTEXT(3)
GLOBAL_UNCERTAINTY_ASSIGNED_CONTEXT((#594))
GLOBAL_UNIT_ASSIGNED_CONTEXT((#600,#596,#595))
REPRESENTATION_CONTEXT('d605_20220426_102001_tb_1',
'TOP_LEVEL_ASSEMBLY_PART')
);
#594=UNCERTAINTY_MEASURE_WITH_UNIT(LENGTH_MEASURE(2.E-5),#600,
'DISTANCE_ACCURACY_VALUE','Maximum Tolerance applied to model');
#595=(
NAMED_UNIT(*)
SI_UNIT($,.STERADIAN.)
SOLID_ANGLE_UNIT()
);
#596=(
CONVERSION_BASED_UNIT('DEGREE',#598)
NAMED_UNIT(#597)
PLANE_ANGLE_UNIT()
);
#597=DIMENSIONAL_EXPONENTS(0.,0.,0.,0.,0.,0.,0.);
#598=PLANE_ANGLE_MEASURE_WITH_UNIT(PLANE_ANGLE_MEASURE(0.0174532925),#599);
#599=(
NAMED_UNIT(*)
PLANE_ANGLE_UNIT()
SI_UNIT($,.RADIAN.)
);
#600=(
LENGTH_UNIT()
NAMED_UNIT(*)
SI_UNIT(.MILLI.,.METRE.)
);
ENDSEC;
END-ISO-10303-21;
