ISO-10303-21;
HEADER;
/* Generated by software containing ST-Developer
 * from STEP Tools, Inc. (www.steptools.com) 
 */
/* OPTION: using custom schema-name function */

FILE_DESCRIPTION(
/* description */ (''),
/* implementation_level */ '2;1');

FILE_NAME(
/* name */ 'tool.stp',
/* time_stamp */ '2022-04-26T10:15:47+02:00',
/* author */ (''),
/* organization */ ('SMS'),
/* preprocessor_version */ 'ST-DEVELOPER v16.7',
/* originating_system */ 'SIEMENS PLM Software NX 12.0',
/* authorisation */ '');

FILE_SCHEMA (('AUTOMOTIVE_DESIGN { 1 0 10303 214 3 1 1 1 }'));
ENDSEC;

DATA;
#10=CONSTRUCTIVE_GEOMETRY_REPRESENTATION_RELATIONSHIP(
'supplemental geometry','',#26,#11);
#11=CONSTRUCTIVE_GEOMETRY_REPRESENTATION('supplemental geometry',(#252,
#253,#254),#433);
#12=GEOMETRICALLY_BOUNDED_WIREFRAME_SHAPE_REPRESENTATION('Tool-None',(#27),
#433);
#13=SHAPE_REPRESENTATION_RELATIONSHIP('None',
'relationship between Tool-None and Tool-None',#26,#15);
#14=SHAPE_REPRESENTATION_RELATIONSHIP('None',
'relationship between Tool-None and Tool-None',#26,#12);
#15=ADVANCED_BREP_SHAPE_REPRESENTATION('Tool-None',(#38,#39),#433);
#16=SHAPE_DEFINITION_REPRESENTATION(#17,#26);
#17=PRODUCT_DEFINITION_SHAPE('','',#18);
#18=PRODUCT_DEFINITION(' ','',#20,#19);
#19=PRODUCT_DEFINITION_CONTEXT('part definition',#25,'design');
#20=PRODUCT_DEFINITION_FORMATION_WITH_SPECIFIED_SOURCE(' ',' ',#22,
 .NOT_KNOWN.);
#21=PRODUCT_RELATED_PRODUCT_CATEGORY('part','',(#22));
#22=PRODUCT('Tool','Tool',' ',(#23));
#23=PRODUCT_CONTEXT(' ',#25,'mechanical');
#24=APPLICATION_PROTOCOL_DEFINITION('international standard',
'automotive_design',2010,#25);
#25=APPLICATION_CONTEXT(
'core data for automotive mechanical design processes');
#26=SHAPE_REPRESENTATION('Tool-None',(#251),#433);
#27=GEOMETRIC_CURVE_SET('None',(#360,#361,#362,#219));
#28=SURFACE_STYLE_USAGE(.BOTH.,#30);
#29=SURFACE_STYLE_USAGE(.BOTH.,#31);
#30=SURFACE_SIDE_STYLE('',(#32));
#31=SURFACE_SIDE_STYLE('',(#33));
#32=SURFACE_STYLE_FILL_AREA(#34);
#33=SURFACE_STYLE_FILL_AREA(#35);
#34=FILL_AREA_STYLE('',(#36));
#35=FILL_AREA_STYLE('',(#37));
#36=FILL_AREA_STYLE_COLOUR('',#249);
#37=FILL_AREA_STYLE_COLOUR('',#250);
#38=MANIFOLD_SOLID_BREP('NOCUT',#40);
#39=MANIFOLD_SOLID_BREP('CUT',#41);
#40=CLOSED_SHELL('',(#58,#59,#60,#61,#62,#63,#64,#65,#66,#67,#68,#69));
#41=CLOSED_SHELL('',(#70,#71,#72,#73,#74));
#42=PLANE('',#271);
#43=PLANE('',#277);
#44=PLANE('',#279);
#45=PLANE('',#283);
#46=FACE_OUTER_BOUND('',#120,.T.);
#47=FACE_OUTER_BOUND('',#127,.T.);
#48=FACE_OUTER_BOUND('',#128,.T.);
#49=FACE_OUTER_BOUND('',#131,.T.);
#50=TOROIDAL_SURFACE('',#266,3.38704999999999,1.1);
#51=TOROIDAL_SURFACE('',#267,3.38704999999999,1.1);
#52=CONICAL_SURFACE('',#260,3.4385,10.);
#53=CONICAL_SURFACE('',#265,2.28704999999999,31.0000000000001);
#54=CONICAL_SURFACE('',#273,2.10896,45.);
#55=CONICAL_SURFACE('',#276,4.4385,45.);
#56=CONICAL_SURFACE('',#285,3.15706022818518,45.);
#57=CONICAL_SURFACE('',#286,2.10486528859258,13.6347392443569);
#58=ADVANCED_FACE('',(#80,#81),#75,.T.);
#59=ADVANCED_FACE('',(#82,#83),#52,.T.);
#60=ADVANCED_FACE('',(#84,#85),#76,.T.);
#61=ADVANCED_FACE('',(#86,#87),#53,.T.);
#62=ADVANCED_FACE('',(#88,#89),#50,.F.);
#63=ADVANCED_FACE('',(#90,#91),#51,.F.);
#64=ADVANCED_FACE('',(#92,#93),#77,.T.);
#65=ADVANCED_FACE('',(#46),#42,.F.);
#66=ADVANCED_FACE('',(#94,#95),#54,.T.);
#67=ADVANCED_FACE('',(#96,#97),#78,.T.);
#68=ADVANCED_FACE('',(#98,#99),#55,.T.);
#69=ADVANCED_FACE('',(#47),#43,.T.);
#70=ADVANCED_FACE('',(#48),#44,.T.);
#71=ADVANCED_FACE('',(#100,#101),#79,.T.);
#72=ADVANCED_FACE('',(#49),#45,.F.);
#73=ADVANCED_FACE('',(#102,#103),#56,.T.);
#74=ADVANCED_FACE('',(#104,#105),#57,.T.);
#75=CYLINDRICAL_SURFACE('',#257,3.05706022818521);
#76=CYLINDRICAL_SURFACE('',#263,2.28704999999999);
#77=CYLINDRICAL_SURFACE('',#269,3.2385);
#78=CYLINDRICAL_SURFACE('',#275,3.10896);
#79=CYLINDRICAL_SURFACE('',#281,3.05706022818521);
#80=FACE_BOUND('',#106,.T.);
#81=FACE_BOUND('',#107,.T.);
#82=FACE_BOUND('',#108,.T.);
#83=FACE_BOUND('',#109,.T.);
#84=FACE_BOUND('',#110,.T.);
#85=FACE_BOUND('',#111,.T.);
#86=FACE_BOUND('',#112,.T.);
#87=FACE_BOUND('',#113,.T.);
#88=FACE_BOUND('',#114,.T.);
#89=FACE_BOUND('',#115,.T.);
#90=FACE_BOUND('',#116,.T.);
#91=FACE_BOUND('',#117,.T.);
#92=FACE_BOUND('',#118,.T.);
#93=FACE_BOUND('',#119,.T.);
#94=FACE_BOUND('',#121,.T.);
#95=FACE_BOUND('',#122,.T.);
#96=FACE_BOUND('',#123,.T.);
#97=FACE_BOUND('',#124,.T.);
#98=FACE_BOUND('',#125,.T.);
#99=FACE_BOUND('',#126,.T.);
#100=FACE_BOUND('',#129,.T.);
#101=FACE_BOUND('',#130,.T.);
#102=FACE_BOUND('',#132,.T.);
#103=FACE_BOUND('',#133,.T.);
#104=FACE_BOUND('',#134,.T.);
#105=FACE_BOUND('',#135,.T.);
#106=EDGE_LOOP('',(#136));
#107=EDGE_LOOP('',(#137));
#108=EDGE_LOOP('',(#138));
#109=EDGE_LOOP('',(#139));
#110=EDGE_LOOP('',(#140));
#111=EDGE_LOOP('',(#141));
#112=EDGE_LOOP('',(#142));
#113=EDGE_LOOP('',(#143));
#114=EDGE_LOOP('',(#144));
#115=EDGE_LOOP('',(#145));
#116=EDGE_LOOP('',(#146));
#117=EDGE_LOOP('',(#147));
#118=EDGE_LOOP('',(#148));
#119=EDGE_LOOP('',(#149));
#120=EDGE_LOOP('',(#150));
#121=EDGE_LOOP('',(#151));
#122=EDGE_LOOP('',(#152));
#123=EDGE_LOOP('',(#153));
#124=EDGE_LOOP('',(#154));
#125=EDGE_LOOP('',(#155));
#126=EDGE_LOOP('',(#156));
#127=EDGE_LOOP('',(#157));
#128=EDGE_LOOP('',(#158));
#129=EDGE_LOOP('',(#159));
#130=EDGE_LOOP('',(#160));
#131=EDGE_LOOP('',(#161));
#132=EDGE_LOOP('',(#162));
#133=EDGE_LOOP('',(#163));
#134=EDGE_LOOP('',(#164));
#135=EDGE_LOOP('',(#165));
#136=ORIENTED_EDGE('',*,*,#181,.T.);
#137=ORIENTED_EDGE('',*,*,#182,.T.);
#138=ORIENTED_EDGE('',*,*,#183,.T.);
#139=ORIENTED_EDGE('',*,*,#184,.F.);
#140=ORIENTED_EDGE('',*,*,#185,.T.);
#141=ORIENTED_EDGE('',*,*,#186,.T.);
#142=ORIENTED_EDGE('',*,*,#187,.T.);
#143=ORIENTED_EDGE('',*,*,#181,.F.);
#144=ORIENTED_EDGE('',*,*,#186,.F.);
#145=ORIENTED_EDGE('',*,*,#187,.F.);
#146=ORIENTED_EDGE('',*,*,#183,.F.);
#147=ORIENTED_EDGE('',*,*,#185,.F.);
#148=ORIENTED_EDGE('',*,*,#184,.T.);
#149=ORIENTED_EDGE('',*,*,#188,.T.);
#150=ORIENTED_EDGE('',*,*,#189,.T.);
#151=ORIENTED_EDGE('',*,*,#189,.F.);
#152=ORIENTED_EDGE('',*,*,#190,.T.);
#153=ORIENTED_EDGE('',*,*,#191,.F.);
#154=ORIENTED_EDGE('',*,*,#190,.F.);
#155=ORIENTED_EDGE('',*,*,#191,.T.);
#156=ORIENTED_EDGE('',*,*,#188,.F.);
#157=ORIENTED_EDGE('',*,*,#182,.F.);
#158=ORIENTED_EDGE('',*,*,#192,.F.);
#159=ORIENTED_EDGE('',*,*,#193,.T.);
#160=ORIENTED_EDGE('',*,*,#192,.T.);
#161=ORIENTED_EDGE('',*,*,#194,.T.);
#162=ORIENTED_EDGE('',*,*,#194,.F.);
#163=ORIENTED_EDGE('',*,*,#195,.F.);
#164=ORIENTED_EDGE('',*,*,#195,.T.);
#165=ORIENTED_EDGE('',*,*,#193,.F.);
#166=VERTEX_POINT('',#386);
#167=VERTEX_POINT('',#388);
#168=VERTEX_POINT('',#391);
#169=VERTEX_POINT('',#393);
#170=VERTEX_POINT('',#396);
#171=VERTEX_POINT('',#398);
#172=VERTEX_POINT('',#401);
#173=VERTEX_POINT('',#406);
#174=VERTEX_POINT('',#409);
#175=VERTEX_POINT('',#412);
#176=VERTEX_POINT('',#415);
#177=VERTEX_POINT('',#420);
#178=VERTEX_POINT('',#423);
#179=VERTEX_POINT('',#426);
#180=VERTEX_POINT('',#429);
#181=EDGE_CURVE('',#166,#166,#196,.T.);
#182=EDGE_CURVE('',#167,#167,#197,.T.);
#183=EDGE_CURVE('',#168,#168,#198,.T.);
#184=EDGE_CURVE('',#169,#169,#199,.T.);
#185=EDGE_CURVE('',#170,#170,#200,.T.);
#186=EDGE_CURVE('',#171,#171,#201,.T.);
#187=EDGE_CURVE('',#172,#172,#202,.T.);
#188=EDGE_CURVE('',#173,#173,#203,.T.);
#189=EDGE_CURVE('',#174,#174,#204,.T.);
#190=EDGE_CURVE('',#175,#175,#205,.T.);
#191=EDGE_CURVE('',#176,#176,#206,.T.);
#192=EDGE_CURVE('',#177,#177,#207,.T.);
#193=EDGE_CURVE('',#178,#178,#208,.T.);
#194=EDGE_CURVE('',#179,#179,#209,.T.);
#195=EDGE_CURVE('',#180,#180,#210,.T.);
#196=CIRCLE('',#255,3.05706022818521);
#197=CIRCLE('',#256,3.05706022818521);
#198=CIRCLE('',#258,2.30376147168657);
#199=CIRCLE('',#259,3.23850000000001);
#200=CIRCLE('',#261,2.28704999999999);
#201=CIRCLE('',#262,2.28704999999999);
#202=CIRCLE('',#264,2.44416596922767);
#203=CIRCLE('',#268,3.2385);
#204=CIRCLE('',#270,2.10896);
#205=CIRCLE('',#272,3.10896);
#206=CIRCLE('',#274,3.10896);
#207=CIRCLE('',#278,3.05706022818521);
#208=CIRCLE('',#280,3.05706022818521);
#209=CIRCLE('',#282,1.98999999999998);
#210=CIRCLE('',#284,2.71809976307746);
#211=CURVE_STYLE('',#215,POSITIVE_LENGTH_MEASURE(0.18),#221);
#212=CURVE_STYLE('',#216,POSITIVE_LENGTH_MEASURE(0.13),#248);
#213=CURVE_STYLE('',#217,POSITIVE_LENGTH_MEASURE(0.18),#247);
#214=CURVE_STYLE('',#218,POSITIVE_LENGTH_MEASURE(0.18),#247);
#215=DRAUGHTING_PRE_DEFINED_CURVE_FONT('continuous');
#216=DRAUGHTING_PRE_DEFINED_CURVE_FONT('continuous');
#217=DRAUGHTING_PRE_DEFINED_CURVE_FONT('continuous');
#218=DRAUGHTING_PRE_DEFINED_CURVE_FONT('continuous');
#219=B_SPLINE_CURVE_WITH_KNOTS('CUTTING PART LINE',3,(#363,#364,#365,#366,
#367,#368,#369,#370,#371,#372,#373,#374,#375,#376,#377,#378,#379,#380,#381),
 .UNSPECIFIED.,.T.,.F.,(4,3,3,3,3,3,4),(0.,0.106930702492046,0.512678727181327,
0.582285500378836,0.618302233063614,0.668597841545855,1.),.UNSPECIFIED.);
#220=DRAUGHTING_PRE_DEFINED_COLOUR('white');
#221=DRAUGHTING_PRE_DEFINED_COLOUR('blue');
#222=PRESENTATION_LAYER_ASSIGNMENT('1','Layer 1',(#360,#361,#362,#219,#252,
#253,#254,#38,#39));
#223=STYLED_ITEM('',(#232),#360);
#224=STYLED_ITEM('',(#233),#361);
#225=STYLED_ITEM('',(#234),#362);
#226=STYLED_ITEM('',(#235),#219);
#227=STYLED_ITEM('',(#236),#252);
#228=STYLED_ITEM('',(#237),#253);
#229=STYLED_ITEM('',(#238),#254);
#230=STYLED_ITEM('',(#239),#38);
#231=STYLED_ITEM('',(#240),#39);
#232=PRESENTATION_STYLE_ASSIGNMENT((#241));
#233=PRESENTATION_STYLE_ASSIGNMENT((#242));
#234=PRESENTATION_STYLE_ASSIGNMENT((#243));
#235=PRESENTATION_STYLE_ASSIGNMENT((#211));
#236=PRESENTATION_STYLE_ASSIGNMENT((#212));
#237=PRESENTATION_STYLE_ASSIGNMENT((#213));
#238=PRESENTATION_STYLE_ASSIGNMENT((#214));
#239=PRESENTATION_STYLE_ASSIGNMENT((#28));
#240=PRESENTATION_STYLE_ASSIGNMENT((#29));
#241=POINT_STYLE('',#244,POSITIVE_LENGTH_MEASURE(3.),#247);
#242=POINT_STYLE('',#245,POSITIVE_LENGTH_MEASURE(3.),#220);
#243=POINT_STYLE('',#246,POSITIVE_LENGTH_MEASURE(3.),#247);
#244=PRE_DEFINED_POINT_MARKER_SYMBOL('plus');
#245=PRE_DEFINED_POINT_MARKER_SYMBOL('plus');
#246=PRE_DEFINED_POINT_MARKER_SYMBOL('plus');
#247=COLOUR_RGB('Medium Maroon',0.6,0.4,0.4);
#248=COLOUR_RGB('Silver Gray',0.6,0.6,0.6);
#249=COLOUR_RGB('TLS_NOCUT',0.498023956664378,0.498023956664378,0.498023956664378);
#250=COLOUR_RGB('TLS_CUT',0.8,0.8,0.8);
#251=AXIS2_PLACEMENT_3D('',#359,#287,#288);
#252=AXIS2_PLACEMENT_3D('PCS',#382,#289,#290);
#253=AXIS2_PLACEMENT_3D('MCS',#383,#291,#292);
#254=AXIS2_PLACEMENT_3D('CIP',#384,#293,#294);
#255=AXIS2_PLACEMENT_3D('',#385,#295,#296);
#256=AXIS2_PLACEMENT_3D('',#387,#297,#298);
#257=AXIS2_PLACEMENT_3D('',#389,#299,#300);
#258=AXIS2_PLACEMENT_3D('',#390,#301,#302);
#259=AXIS2_PLACEMENT_3D('',#392,#303,#304);
#260=AXIS2_PLACEMENT_3D('',#394,#305,#306);
#261=AXIS2_PLACEMENT_3D('',#395,#307,#308);
#262=AXIS2_PLACEMENT_3D('',#397,#309,#310);
#263=AXIS2_PLACEMENT_3D('',#399,#311,#312);
#264=AXIS2_PLACEMENT_3D('',#400,#313,#314);
#265=AXIS2_PLACEMENT_3D('',#402,#315,#316);
#266=AXIS2_PLACEMENT_3D('',#403,#317,#318);
#267=AXIS2_PLACEMENT_3D('',#404,#319,#320);
#268=AXIS2_PLACEMENT_3D('',#405,#321,#322);
#269=AXIS2_PLACEMENT_3D('',#407,#323,#324);
#270=AXIS2_PLACEMENT_3D('',#408,#325,#326);
#271=AXIS2_PLACEMENT_3D('',#410,#327,#328);
#272=AXIS2_PLACEMENT_3D('',#411,#329,#330);
#273=AXIS2_PLACEMENT_3D('',#413,#331,#332);
#274=AXIS2_PLACEMENT_3D('',#414,#333,#334);
#275=AXIS2_PLACEMENT_3D('',#416,#335,#336);
#276=AXIS2_PLACEMENT_3D('',#417,#337,#338);
#277=AXIS2_PLACEMENT_3D('',#418,#339,#340);
#278=AXIS2_PLACEMENT_3D('',#419,#341,#342);
#279=AXIS2_PLACEMENT_3D('',#421,#343,#344);
#280=AXIS2_PLACEMENT_3D('',#422,#345,#346);
#281=AXIS2_PLACEMENT_3D('',#424,#347,#348);
#282=AXIS2_PLACEMENT_3D('',#425,#349,#350);
#283=AXIS2_PLACEMENT_3D('',#427,#351,#352);
#284=AXIS2_PLACEMENT_3D('',#428,#353,#354);
#285=AXIS2_PLACEMENT_3D('',#430,#355,#356);
#286=AXIS2_PLACEMENT_3D('',#431,#357,#358);
#287=DIRECTION('',(0.,0.,1.));
#288=DIRECTION('',(1.,0.,0.));
#289=DIRECTION('',(0.,0.,1.));
#290=DIRECTION('',(1.,0.,0.));
#291=DIRECTION('',(0.,0.,1.));
#292=DIRECTION('',(1.,0.,0.));
#293=DIRECTION('',(0.,0.,1.));
#294=DIRECTION('',(1.,0.,0.));
#295=DIRECTION('',(0.,0.,-1.));
#296=DIRECTION('',(-1.,0.,0.));
#297=DIRECTION('',(0.,0.,1.));
#298=DIRECTION('',(-1.,0.,0.));
#299=DIRECTION('',(0.,0.,1.));
#300=DIRECTION('',(1.,0.,0.));
#301=DIRECTION('',(-1.18409788359499E-16,0.,1.));
#302=DIRECTION('',(1.,0.,0.));
#303=DIRECTION('',(0.,0.,1.));
#304=DIRECTION('',(1.,0.,0.));
#305=DIRECTION('',(-1.18409788359499E-16,0.,1.));
#306=DIRECTION('',(1.,0.,7.71994030951958E-17));
#307=DIRECTION('',(1.18409788359499E-16,0.,-1.));
#308=DIRECTION('',(-1.,0.,0.));
#309=DIRECTION('',(-1.18409788359499E-16,0.,1.));
#310=DIRECTION('',(-1.,0.,0.));
#311=DIRECTION('',(1.18409788359499E-16,0.,-1.));
#312=DIRECTION('',(-1.,0.,0.));
#313=DIRECTION('',(1.18409788359499E-16,0.,-1.));
#314=DIRECTION('',(-1.,0.,0.));
#315=DIRECTION('',(1.18409788359499E-16,0.,-1.));
#316=DIRECTION('',(-1.,0.,-1.61062571644063E-16));
#317=DIRECTION('',(1.18409788359499E-16,0.,-1.));
#318=DIRECTION('',(-1.,0.,0.));
#319=DIRECTION('',(1.18409788359499E-16,0.,-1.));
#320=DIRECTION('',(-1.,0.,0.));
#321=DIRECTION('',(0.,0.,-1.));
#322=DIRECTION('',(-1.,0.,0.));
#323=DIRECTION('',(0.,0.,1.));
#324=DIRECTION('',(1.,0.,0.));
#325=DIRECTION('',(0.,0.,1.));
#326=DIRECTION('',(1.,0.,0.));
#327=DIRECTION('',(2.49382503729639E-16,0.,-1.));
#328=DIRECTION('',(-1.,0.,-2.49382503729639E-16));
#329=DIRECTION('',(0.,0.,1.));
#330=DIRECTION('',(-1.,0.,0.));
#331=DIRECTION('',(0.,0.,-1.));
#332=DIRECTION('',(-1.,0.,0.));
#333=DIRECTION('',(0.,0.,-1.));
#334=DIRECTION('',(1.,0.,0.));
#335=DIRECTION('',(0.,0.,1.));
#336=DIRECTION('',(1.,0.,0.));
#337=DIRECTION('',(0.,0.,-1.));
#338=DIRECTION('',(-1.,0.,-9.67152440440118E-17));
#339=DIRECTION('',(0.,0.,-1.));
#340=DIRECTION('',(-1.,0.,0.));
#341=DIRECTION('',(0.,0.,-1.));
#342=DIRECTION('',(1.,0.,0.));
#343=DIRECTION('',(0.,0.,1.));
#344=DIRECTION('',(1.,0.,0.));
#345=DIRECTION('',(0.,0.,1.));
#346=DIRECTION('',(1.,0.,0.));
#347=DIRECTION('',(0.,0.,1.));
#348=DIRECTION('',(1.,0.,0.));
#349=DIRECTION('',(1.43229163121432E-16,0.,-1.));
#350=DIRECTION('',(1.,0.,0.));
#351=DIRECTION('',(-1.43229163121432E-16,0.,1.));
#352=DIRECTION('',(1.,0.,1.38777878078145E-16));
#353=DIRECTION('',(0.,0.,1.));
#354=DIRECTION('',(-1.,0.,0.));
#355=DIRECTION('',(-3.3408037768104E-16,0.,1.));
#356=DIRECTION('',(1.,0.,3.32018704341058E-16));
#357=DIRECTION('',(0.,0.,1.));
#358=DIRECTION('',(1.,0.,1.13439831882271E-16));
#359=CARTESIAN_POINT('',(0.,0.,0.));
#360=CARTESIAN_POINT('',(0.,0.,-22.87));
#361=CARTESIAN_POINT('CRP',(-3.05706022818521,0.,-80.));
#362=CARTESIAN_POINT('CIP_DCSYS',(0.,0.,-80.));
#363=CARTESIAN_POINT('',(-3.05706022818521,0.,-68.6));
#364=CARTESIAN_POINT('',(-2.03804015212347,0.,-68.6));
#365=CARTESIAN_POINT('',(-1.01902007606174,0.,-68.6));
#366=CARTESIAN_POINT('',(0.,0.,-68.6));
#367=CARTESIAN_POINT('',(0.,0.,-72.4666666666667));
#368=CARTESIAN_POINT('',(0.,0.,-76.3333333333333));
#369=CARTESIAN_POINT('',(0.,0.,-80.2));
#370=CARTESIAN_POINT('',(-0.663333333333318,0.,-80.2));
#371=CARTESIAN_POINT('',(-1.32666666666664,0.,-80.2));
#372=CARTESIAN_POINT('',(-1.98999999999995,0.,-80.2));
#373=CARTESIAN_POINT('',(-2.23269992102578,0.,-79.9573000789742));
#374=CARTESIAN_POINT('',(-2.47539984205161,0.,-79.7146001579484));
#375=CARTESIAN_POINT('',(-2.71809976307744,0.,-79.4719002369225));
#376=CARTESIAN_POINT('',(-2.83108658478004,0.,-79.0061045762707));
#377=CARTESIAN_POINT('',(-2.94407340648262,0.,-78.5403089156188));
#378=CARTESIAN_POINT('',(-3.05706022818521,0.,-78.074513254967));
#379=CARTESIAN_POINT('',(-3.05706022818521,0.,-74.916342169978));
#380=CARTESIAN_POINT('',(-3.05706022818521,0.,-71.758171084989));
#381=CARTESIAN_POINT('',(-3.05706022818521,0.,-68.6));
#382=CARTESIAN_POINT('',(0.,0.,0.));
#383=CARTESIAN_POINT('',(0.,0.,-22.87));
#384=CARTESIAN_POINT('',(0.,0.,-80.));
#385=CARTESIAN_POINT('',(0.,0.,-68.433572051765));
#386=CARTESIAN_POINT('',(-3.05706022818521,0.,-68.433572051765));
#387=CARTESIAN_POINT('',(0.,0.,-68.6));
#388=CARTESIAN_POINT('',(-3.05706022818521,0.,-68.6));
#389=CARTESIAN_POINT('',(0.,0.,20.9080749503476));
#390=CARTESIAN_POINT('',(6.10235309559644E-15,0.,-53.9052245344449));
#391=CARTESIAN_POINT('',(2.30376147168657,0.,-53.9052245344449));
#392=CARTESIAN_POINT('',(0.,0.,-48.6040589127247));
#393=CARTESIAN_POINT('',(3.23850000000001,0.,-48.6040589127247));
#394=CARTESIAN_POINT('',(5.3403361402723E-15,0.,-47.4698025488012));
#395=CARTESIAN_POINT('',(6.12497090395965E-15,0.,-54.0962375298785));
#396=CARTESIAN_POINT('',(-2.28704999999999,0.,-54.0962375298785));
#397=CARTESIAN_POINT('',(7.63478632448939E-15,0.,-66.8470028293304));
#398=CARTESIAN_POINT('',(-2.28704999999998,0.,-66.8470028293304));
#399=CARTESIAN_POINT('',(5.3403361402723E-15,0.,-47.4698025488012));
#400=CARTESIAN_POINT('',(7.7018704288813E-15,0.,-67.4135447117315));
#401=CARTESIAN_POINT('',(-2.44416596922766,0.,-67.4135447117315));
#402=CARTESIAN_POINT('',(7.67090805911532E-15,0.,-67.1520598277963));
#403=CARTESIAN_POINT('',(7.6347863244894E-15,0.,-66.8470028293304));
#404=CARTESIAN_POINT('',(6.12497090395965E-15,0.,-54.0962375298785));
#405=CARTESIAN_POINT('',(0.,0.,-8.78654));
#406=CARTESIAN_POINT('',(-3.2385,0.,-8.78654));
#407=CARTESIAN_POINT('',(0.,0.,20.9080749503476));
#408=CARTESIAN_POINT('',(0.,0.,0.));
#409=CARTESIAN_POINT('',(2.10896,0.,0.));
#410=CARTESIAN_POINT('',(3.4385,0.,4.28750869537182E-16));
#411=CARTESIAN_POINT('',(0.,0.,-1.));
#412=CARTESIAN_POINT('',(-3.10896,0.,-1.));
#413=CARTESIAN_POINT('',(0.,0.,0.));
#414=CARTESIAN_POINT('',(0.,0.,-8.657));
#415=CARTESIAN_POINT('',(3.10896,0.,-8.657));
#416=CARTESIAN_POINT('',(0.,0.,20.9080749503476));
#417=CARTESIAN_POINT('',(0.,0.,-9.98654));
#418=CARTESIAN_POINT('',(0.,0.,-68.6));
#419=CARTESIAN_POINT('',(0.,0.,-68.6));
#420=CARTESIAN_POINT('',(3.05706022818521,0.,-68.6));
#421=CARTESIAN_POINT('',(0.,0.,-68.6));
#422=CARTESIAN_POINT('',(0.,0.,-78.074513254967));
#423=CARTESIAN_POINT('',(3.05706022818521,0.,-78.074513254967));
#424=CARTESIAN_POINT('',(0.,0.,20.9080749503476));
#425=CARTESIAN_POINT('',(2.34168550269588E-14,0.,-80.2));
#426=CARTESIAN_POINT('',(1.99,0.,-80.2));
#427=CARTESIAN_POINT('',(10.5,0.,-80.2));
#428=CARTESIAN_POINT('',(2.32392869901735E-14,0.,-79.4719002369225));
#429=CARTESIAN_POINT('',(-2.71809976307743,0.,-79.4719002369225));
#430=CARTESIAN_POINT('',(2.30926389122033E-14,0.,-79.0329397718148));
#431=CARTESIAN_POINT('',(0.,0.,-82.));
#432=MECHANICAL_DESIGN_GEOMETRIC_PRESENTATION_REPRESENTATION('',(#223,#224,
#225,#226,#227,#228,#229,#230,#231),#433);
#433=(
GEOMETRIC_REPRESENTATION_CONTEXT(3)
GLOBAL_UNCERTAINTY_ASSIGNED_CONTEXT((#434))
GLOBAL_UNIT_ASSIGNED_CONTEXT((#440,#436,#435))
REPRESENTATION_CONTEXT('tool','TOP_LEVEL_ASSEMBLY_PART')
);
#434=UNCERTAINTY_MEASURE_WITH_UNIT(LENGTH_MEASURE(2.E-5),#440,
'DISTANCE_ACCURACY_VALUE','Maximum Tolerance applied to model');
#435=(
NAMED_UNIT(*)
SI_UNIT($,.STERADIAN.)
SOLID_ANGLE_UNIT()
);
#436=(
CONVERSION_BASED_UNIT('DEGREE',#438)
NAMED_UNIT(#437)
PLANE_ANGLE_UNIT()
);
#437=DIMENSIONAL_EXPONENTS(0.,0.,0.,0.,0.,0.,0.);
#438=PLANE_ANGLE_MEASURE_WITH_UNIT(PLANE_ANGLE_MEASURE(0.0174532925),#439);
#439=(
NAMED_UNIT(*)
PLANE_ANGLE_UNIT()
SI_UNIT($,.RADIAN.)
);
#440=(
LENGTH_UNIT()
NAMED_UNIT(*)
SI_UNIT(.MILLI.,.METRE.)
);
ENDSEC;
END-ISO-10303-21;
