ISO-10303-21;
HEADER;
/* Generated by software containing ST-Developer
 * from STEP Tools, Inc. (www.steptools.com) 
 */
/* OPTION: using custom schema-name function */

FILE_DESCRIPTION(
/* description */ (''),
/* implementation_level */ '2;1');

FILE_NAME(
/* name */ 'tool.stp',
/* time_stamp */ '2022-04-26T06:06:53+02:00',
/* author */ (''),
/* organization */ ('SMS'),
/* preprocessor_version */ 'ST-DEVELOPER v16.7',
/* originating_system */ 'SIEMENS PLM Software NX 12.0',
/* authorisation */ '');

FILE_SCHEMA (('AUTOMOTIVE_DESIGN { 1 0 10303 214 3 1 1 1 }'));
ENDSEC;

DATA;
#10=CONSTRUCTIVE_GEOMETRY_REPRESENTATION_RELATIONSHIP(
'supplemental geometry','',#26,#11);
#11=CONSTRUCTIVE_GEOMETRY_REPRESENTATION('supplemental geometry',(#324,
#325,#326),#570);
#12=GEOMETRICALLY_BOUNDED_WIREFRAME_SHAPE_REPRESENTATION('Tool-None',(#27),
#570);
#13=SHAPE_REPRESENTATION_RELATIONSHIP('None',
'relationship between Tool-None and Tool-None',#26,#15);
#14=SHAPE_REPRESENTATION_RELATIONSHIP('None',
'relationship between Tool-None and Tool-None',#26,#12);
#15=ADVANCED_BREP_SHAPE_REPRESENTATION('Tool-None',(#38,#39),#570);
#16=SHAPE_DEFINITION_REPRESENTATION(#17,#26);
#17=PRODUCT_DEFINITION_SHAPE('','',#18);
#18=PRODUCT_DEFINITION(' ','',#20,#19);
#19=PRODUCT_DEFINITION_CONTEXT('part definition',#25,'design');
#20=PRODUCT_DEFINITION_FORMATION_WITH_SPECIFIED_SOURCE(' ',' ',#22,
 .NOT_KNOWN.);
#21=PRODUCT_RELATED_PRODUCT_CATEGORY('part','',(#22));
#22=PRODUCT('Tool','Tool',' ',(#23));
#23=PRODUCT_CONTEXT(' ',#25,'mechanical');
#24=APPLICATION_PROTOCOL_DEFINITION('international standard',
'automotive_design',2010,#25);
#25=APPLICATION_CONTEXT(
'core data for automotive mechanical design processes');
#26=SHAPE_REPRESENTATION('Tool-None',(#323),#570);
#27=GEOMETRIC_CURVE_SET('None',(#468,#469,#470,#291));
#28=SURFACE_STYLE_USAGE(.BOTH.,#30);
#29=SURFACE_STYLE_USAGE(.BOTH.,#31);
#30=SURFACE_SIDE_STYLE('',(#32));
#31=SURFACE_SIDE_STYLE('',(#33));
#32=SURFACE_STYLE_FILL_AREA(#34);
#33=SURFACE_STYLE_FILL_AREA(#35);
#34=FILL_AREA_STYLE('',(#36));
#35=FILL_AREA_STYLE('',(#37));
#36=FILL_AREA_STYLE_COLOUR('',#321);
#37=FILL_AREA_STYLE_COLOUR('',#322);
#38=MANIFOLD_SOLID_BREP('NOCUT',#40);
#39=MANIFOLD_SOLID_BREP('CUT',#41);
#40=CLOSED_SHELL('',(#62,#63,#64,#65,#66,#67,#68,#69,#70,#71,#72,#73,#74,
#75,#76));
#41=CLOSED_SHELL('',(#77,#78,#79,#80,#81,#82,#83,#84));
#42=FACE_OUTER_BOUND('',#161,.T.);
#43=FACE_OUTER_BOUND('',#162,.T.);
#44=VERTEX_LOOP('',#232);
#45=VERTEX_LOOP('',#238);
#46=PLANE('',#339);
#47=PLANE('',#344);
#48=PLANE('',#355);
#49=PLANE('',#357);
#50=PLANE('',#370);
#51=CONICAL_SURFACE('',#337,5.84999999999999,60.0000000000001);
#52=CONICAL_SURFACE('',#346,3.96,45.);
#53=CONICAL_SURFACE('',#349,7.2,45.0000000000002);
#54=CONICAL_SURFACE('',#351,1.,30.0000000000001);
#55=CONICAL_SURFACE('',#354,1.73472347597681E-15,59.9999999999999);
#56=CONICAL_SURFACE('',#361,7.64,17.853525545884);
#57=CONICAL_SURFACE('',#363,6.64000000000002,44.9999999999995);
#58=CONICAL_SURFACE('',#365,0.,60.0000000000003);
#59=CONICAL_SURFACE('',#369,1.,30.0000000000003);
#60=TOROIDAL_SURFACE('',#332,7.34999999999999,1.5);
#61=TOROIDAL_SURFACE('',#338,7.24999999999999,1.4);
#62=ADVANCED_FACE('FACE1',(#92,#93),#85,.T.);
#63=ADVANCED_FACE('',(#94,#95),#60,.F.);
#64=ADVANCED_FACE('',(#96,#97),#86,.T.);
#65=ADVANCED_FACE('',(#98,#99),#51,.T.);
#66=ADVANCED_FACE('',(#100,#101),#61,.F.);
#67=ADVANCED_FACE('',(#102,#103),#46,.F.);
#68=ADVANCED_FACE('',(#104,#105),#87,.T.);
#69=ADVANCED_FACE('',(#106,#107),#47,.F.);
#70=ADVANCED_FACE('',(#108,#109),#52,.T.);
#71=ADVANCED_FACE('',(#110,#111),#88,.T.);
#72=ADVANCED_FACE('',(#112,#113),#53,.T.);
#73=ADVANCED_FACE('',(#114,#115),#54,.F.);
#74=ADVANCED_FACE('',(#116,#117),#89,.F.);
#75=ADVANCED_FACE('',(#118,#119),#55,.F.);
#76=ADVANCED_FACE('',(#42),#48,.T.);
#77=ADVANCED_FACE('',(#43),#49,.T.);
#78=ADVANCED_FACE('FACE1',(#120,#121),#90,.T.);
#79=ADVANCED_FACE('',(#122,#123),#56,.T.);
#80=ADVANCED_FACE('',(#124,#125),#57,.T.);
#81=ADVANCED_FACE('',(#126,#127),#58,.F.);
#82=ADVANCED_FACE('',(#128,#129),#91,.F.);
#83=ADVANCED_FACE('',(#130,#131),#59,.F.);
#84=ADVANCED_FACE('',(#132,#133),#50,.F.);
#85=CYLINDRICAL_SURFACE('',#329,8.57321642646872);
#86=CYLINDRICAL_SURFACE('',#334,5.84999999999999);
#87=CYLINDRICAL_SURFACE('',#341,6.);
#88=CYLINDRICAL_SURFACE('',#348,5.76);
#89=CYLINDRICAL_SURFACE('',#353,1.);
#90=CYLINDRICAL_SURFACE('',#359,8.57321642646872);
#91=CYLINDRICAL_SURFACE('',#367,1.);
#92=FACE_BOUND('',#134,.T.);
#93=FACE_BOUND('',#135,.T.);
#94=FACE_BOUND('',#136,.T.);
#95=FACE_BOUND('',#137,.T.);
#96=FACE_BOUND('',#138,.T.);
#97=FACE_BOUND('',#139,.T.);
#98=FACE_BOUND('',#140,.T.);
#99=FACE_BOUND('',#141,.T.);
#100=FACE_BOUND('',#142,.T.);
#101=FACE_BOUND('',#143,.T.);
#102=FACE_BOUND('',#144,.T.);
#103=FACE_BOUND('',#145,.T.);
#104=FACE_BOUND('',#146,.T.);
#105=FACE_BOUND('',#147,.T.);
#106=FACE_BOUND('',#148,.T.);
#107=FACE_BOUND('',#149,.T.);
#108=FACE_BOUND('',#150,.T.);
#109=FACE_BOUND('',#151,.T.);
#110=FACE_BOUND('',#152,.T.);
#111=FACE_BOUND('',#153,.T.);
#112=FACE_BOUND('',#154,.T.);
#113=FACE_BOUND('',#155,.T.);
#114=FACE_BOUND('',#156,.T.);
#115=FACE_BOUND('',#157,.T.);
#116=FACE_BOUND('',#158,.T.);
#117=FACE_BOUND('',#159,.T.);
#118=FACE_BOUND('',#160,.T.);
#119=FACE_BOUND('',#44,.T.);
#120=FACE_BOUND('',#163,.T.);
#121=FACE_BOUND('',#164,.T.);
#122=FACE_BOUND('',#165,.T.);
#123=FACE_BOUND('',#166,.T.);
#124=FACE_BOUND('',#167,.T.);
#125=FACE_BOUND('',#168,.T.);
#126=FACE_BOUND('',#169,.T.);
#127=FACE_BOUND('',#45,.T.);
#128=FACE_BOUND('',#170,.T.);
#129=FACE_BOUND('',#171,.T.);
#130=FACE_BOUND('',#172,.T.);
#131=FACE_BOUND('',#173,.T.);
#132=FACE_BOUND('',#174,.T.);
#133=FACE_BOUND('',#175,.T.);
#134=EDGE_LOOP('',(#176));
#135=EDGE_LOOP('',(#177));
#136=EDGE_LOOP('',(#178));
#137=EDGE_LOOP('',(#179));
#138=EDGE_LOOP('',(#180));
#139=EDGE_LOOP('',(#181));
#140=EDGE_LOOP('',(#182));
#141=EDGE_LOOP('',(#183));
#142=EDGE_LOOP('',(#184));
#143=EDGE_LOOP('',(#185));
#144=EDGE_LOOP('',(#186));
#145=EDGE_LOOP('',(#187));
#146=EDGE_LOOP('',(#188));
#147=EDGE_LOOP('',(#189));
#148=EDGE_LOOP('',(#190));
#149=EDGE_LOOP('',(#191));
#150=EDGE_LOOP('',(#192));
#151=EDGE_LOOP('',(#193));
#152=EDGE_LOOP('',(#194));
#153=EDGE_LOOP('',(#195));
#154=EDGE_LOOP('',(#196));
#155=EDGE_LOOP('',(#197));
#156=EDGE_LOOP('',(#198));
#157=EDGE_LOOP('',(#199));
#158=EDGE_LOOP('',(#200));
#159=EDGE_LOOP('',(#201));
#160=EDGE_LOOP('',(#202));
#161=EDGE_LOOP('',(#203));
#162=EDGE_LOOP('',(#204));
#163=EDGE_LOOP('',(#205));
#164=EDGE_LOOP('',(#206));
#165=EDGE_LOOP('',(#207));
#166=EDGE_LOOP('',(#208));
#167=EDGE_LOOP('',(#209));
#168=EDGE_LOOP('',(#210));
#169=EDGE_LOOP('',(#211));
#170=EDGE_LOOP('',(#212));
#171=EDGE_LOOP('',(#213));
#172=EDGE_LOOP('',(#214));
#173=EDGE_LOOP('',(#215));
#174=EDGE_LOOP('',(#216));
#175=EDGE_LOOP('',(#217));
#176=ORIENTED_EDGE('',*,*,#241,.F.);
#177=ORIENTED_EDGE('',*,*,#242,.F.);
#178=ORIENTED_EDGE('',*,*,#243,.F.);
#179=ORIENTED_EDGE('',*,*,#244,.F.);
#180=ORIENTED_EDGE('',*,*,#245,.T.);
#181=ORIENTED_EDGE('',*,*,#243,.T.);
#182=ORIENTED_EDGE('',*,*,#246,.T.);
#183=ORIENTED_EDGE('',*,*,#247,.F.);
#184=ORIENTED_EDGE('',*,*,#245,.F.);
#185=ORIENTED_EDGE('',*,*,#246,.F.);
#186=ORIENTED_EDGE('',*,*,#247,.T.);
#187=ORIENTED_EDGE('',*,*,#241,.T.);
#188=ORIENTED_EDGE('',*,*,#244,.T.);
#189=ORIENTED_EDGE('',*,*,#248,.T.);
#190=ORIENTED_EDGE('',*,*,#249,.T.);
#191=ORIENTED_EDGE('',*,*,#250,.T.);
#192=ORIENTED_EDGE('',*,*,#250,.F.);
#193=ORIENTED_EDGE('',*,*,#251,.T.);
#194=ORIENTED_EDGE('',*,*,#252,.F.);
#195=ORIENTED_EDGE('',*,*,#251,.F.);
#196=ORIENTED_EDGE('',*,*,#252,.T.);
#197=ORIENTED_EDGE('',*,*,#248,.F.);
#198=ORIENTED_EDGE('',*,*,#253,.F.);
#199=ORIENTED_EDGE('',*,*,#249,.F.);
#200=ORIENTED_EDGE('',*,*,#253,.T.);
#201=ORIENTED_EDGE('',*,*,#254,.F.);
#202=ORIENTED_EDGE('',*,*,#254,.T.);
#203=ORIENTED_EDGE('',*,*,#242,.T.);
#204=ORIENTED_EDGE('',*,*,#255,.T.);
#205=ORIENTED_EDGE('',*,*,#256,.T.);
#206=ORIENTED_EDGE('',*,*,#255,.F.);
#207=ORIENTED_EDGE('',*,*,#257,.F.);
#208=ORIENTED_EDGE('',*,*,#256,.F.);
#209=ORIENTED_EDGE('',*,*,#257,.T.);
#210=ORIENTED_EDGE('',*,*,#258,.T.);
#211=ORIENTED_EDGE('',*,*,#259,.F.);
#212=ORIENTED_EDGE('',*,*,#260,.F.);
#213=ORIENTED_EDGE('',*,*,#259,.T.);
#214=ORIENTED_EDGE('',*,*,#260,.T.);
#215=ORIENTED_EDGE('',*,*,#261,.T.);
#216=ORIENTED_EDGE('',*,*,#261,.F.);
#217=ORIENTED_EDGE('',*,*,#258,.F.);
#218=VERTEX_POINT('',#503);
#219=VERTEX_POINT('',#505);
#220=VERTEX_POINT('',#508);
#221=VERTEX_POINT('',#510);
#222=VERTEX_POINT('',#513);
#223=VERTEX_POINT('',#516);
#224=VERTEX_POINT('',#518);
#225=VERTEX_POINT('',#523);
#226=VERTEX_POINT('',#526);
#227=VERTEX_POINT('',#528);
#228=VERTEX_POINT('',#531);
#229=VERTEX_POINT('',#534);
#230=VERTEX_POINT('',#538);
#231=VERTEX_POINT('',#541);
#232=VERTEX_POINT('',#543);
#233=VERTEX_POINT('',#547);
#234=VERTEX_POINT('',#550);
#235=VERTEX_POINT('',#553);
#236=VERTEX_POINT('',#556);
#237=VERTEX_POINT('',#559);
#238=VERTEX_POINT('',#560);
#239=VERTEX_POINT('',#563);
#240=VERTEX_POINT('',#566);
#241=EDGE_CURVE('',#218,#218,#262,.T.);
#242=EDGE_CURVE('',#219,#219,#263,.T.);
#243=EDGE_CURVE('',#220,#220,#264,.T.);
#244=EDGE_CURVE('',#221,#221,#265,.T.);
#245=EDGE_CURVE('',#222,#222,#266,.T.);
#246=EDGE_CURVE('',#223,#223,#267,.T.);
#247=EDGE_CURVE('',#224,#224,#268,.T.);
#248=EDGE_CURVE('',#225,#225,#269,.T.);
#249=EDGE_CURVE('',#226,#226,#270,.T.);
#250=EDGE_CURVE('',#227,#227,#271,.T.);
#251=EDGE_CURVE('',#228,#228,#272,.T.);
#252=EDGE_CURVE('',#229,#229,#273,.T.);
#253=EDGE_CURVE('',#230,#230,#274,.T.);
#254=EDGE_CURVE('',#231,#231,#275,.T.);
#255=EDGE_CURVE('',#233,#233,#276,.T.);
#256=EDGE_CURVE('',#234,#234,#277,.T.);
#257=EDGE_CURVE('',#235,#235,#278,.T.);
#258=EDGE_CURVE('',#236,#236,#279,.T.);
#259=EDGE_CURVE('',#237,#237,#280,.T.);
#260=EDGE_CURVE('',#239,#239,#281,.T.);
#261=EDGE_CURVE('',#240,#240,#282,.T.);
#262=CIRCLE('',#327,8.57321642646871);
#263=CIRCLE('',#328,8.57321642646872);
#264=CIRCLE('',#330,5.85);
#265=CIRCLE('',#331,6.00000000000001);
#266=CIRCLE('',#333,5.84999999999999);
#267=CIRCLE('',#335,6.54999999999999);
#268=CIRCLE('',#336,8.37321642646871);
#269=CIRCLE('',#340,6.);
#270=CIRCLE('',#342,1.55);
#271=CIRCLE('',#343,3.96);
#272=CIRCLE('',#345,5.76);
#273=CIRCLE('',#347,5.76);
#274=CIRCLE('',#350,1.);
#275=CIRCLE('',#352,1.);
#276=CIRCLE('',#356,8.57321642646872);
#277=CIRCLE('',#358,8.57321642646872);
#278=CIRCLE('',#360,7.64);
#279=CIRCLE('',#362,6.64000000000002);
#280=CIRCLE('',#364,1.);
#281=CIRCLE('',#366,1.);
#282=CIRCLE('',#368,1.55);
#283=CURVE_STYLE('',#287,POSITIVE_LENGTH_MEASURE(0.18),#293);
#284=CURVE_STYLE('',#288,POSITIVE_LENGTH_MEASURE(0.13),#320);
#285=CURVE_STYLE('',#289,POSITIVE_LENGTH_MEASURE(0.18),#319);
#286=CURVE_STYLE('',#290,POSITIVE_LENGTH_MEASURE(0.18),#319);
#287=DRAUGHTING_PRE_DEFINED_CURVE_FONT('continuous');
#288=DRAUGHTING_PRE_DEFINED_CURVE_FONT('continuous');
#289=DRAUGHTING_PRE_DEFINED_CURVE_FONT('continuous');
#290=DRAUGHTING_PRE_DEFINED_CURVE_FONT('continuous');
#291=B_SPLINE_CURVE_WITH_KNOTS('CUTTING PART LINE',3,(#471,#472,#473,#474,
#475,#476,#477,#478,#479,#480,#481,#482,#483,#484,#485,#486,#487,#488,#489,
#490,#491,#492,#493,#494,#495,#496,#497,#498),.UNSPECIFIED.,.T.,.F.,(4,
3,3,3,3,3,3,3,3,4),(0.,0.0611223419289156,0.0868116186974107,0.325364479365243,
0.51609768011203,0.76310513974149,0.83082475470766,0.862287564680167,0.975527677085542,
1.),.UNSPECIFIED.);
#292=DRAUGHTING_PRE_DEFINED_COLOUR('white');
#293=DRAUGHTING_PRE_DEFINED_COLOUR('blue');
#294=PRESENTATION_LAYER_ASSIGNMENT('1','Layer 1',(#468,#469,#470,#291,#324,
#325,#326,#38,#39));
#295=STYLED_ITEM('',(#304),#468);
#296=STYLED_ITEM('',(#305),#469);
#297=STYLED_ITEM('',(#306),#470);
#298=STYLED_ITEM('',(#307),#291);
#299=STYLED_ITEM('',(#308),#324);
#300=STYLED_ITEM('',(#309),#325);
#301=STYLED_ITEM('',(#310),#326);
#302=STYLED_ITEM('',(#311),#38);
#303=STYLED_ITEM('',(#312),#39);
#304=PRESENTATION_STYLE_ASSIGNMENT((#313));
#305=PRESENTATION_STYLE_ASSIGNMENT((#314));
#306=PRESENTATION_STYLE_ASSIGNMENT((#315));
#307=PRESENTATION_STYLE_ASSIGNMENT((#283));
#308=PRESENTATION_STYLE_ASSIGNMENT((#284));
#309=PRESENTATION_STYLE_ASSIGNMENT((#285));
#310=PRESENTATION_STYLE_ASSIGNMENT((#286));
#311=PRESENTATION_STYLE_ASSIGNMENT((#28));
#312=PRESENTATION_STYLE_ASSIGNMENT((#29));
#313=POINT_STYLE('',#316,POSITIVE_LENGTH_MEASURE(3.),#319);
#314=POINT_STYLE('',#317,POSITIVE_LENGTH_MEASURE(3.),#292);
#315=POINT_STYLE('',#318,POSITIVE_LENGTH_MEASURE(3.),#319);
#316=PRE_DEFINED_POINT_MARKER_SYMBOL('plus');
#317=PRE_DEFINED_POINT_MARKER_SYMBOL('plus');
#318=PRE_DEFINED_POINT_MARKER_SYMBOL('plus');
#319=COLOUR_RGB('Medium Maroon',0.6,0.4,0.4);
#320=COLOUR_RGB('Silver Gray',0.6,0.6,0.6);
#321=COLOUR_RGB('TLS_NOCUT',0.498023956664378,0.498023956664378,0.498023956664378);
#322=COLOUR_RGB('TLS_CUT',0.8,0.8,0.8);
#323=AXIS2_PLACEMENT_3D('',#467,#371,#372);
#324=AXIS2_PLACEMENT_3D('PCS',#499,#373,#374);
#325=AXIS2_PLACEMENT_3D('MCS',#500,#375,#376);
#326=AXIS2_PLACEMENT_3D('CIP',#501,#377,#378);
#327=AXIS2_PLACEMENT_3D('',#502,#379,#380);
#328=AXIS2_PLACEMENT_3D('',#504,#381,#382);
#329=AXIS2_PLACEMENT_3D('',#506,#383,#384);
#330=AXIS2_PLACEMENT_3D('',#507,#385,#386);
#331=AXIS2_PLACEMENT_3D('',#509,#387,#388);
#332=AXIS2_PLACEMENT_3D('',#511,#389,#390);
#333=AXIS2_PLACEMENT_3D('',#512,#391,#392);
#334=AXIS2_PLACEMENT_3D('',#514,#393,#394);
#335=AXIS2_PLACEMENT_3D('',#515,#395,#396);
#336=AXIS2_PLACEMENT_3D('',#517,#397,#398);
#337=AXIS2_PLACEMENT_3D('',#519,#399,#400);
#338=AXIS2_PLACEMENT_3D('',#520,#401,#402);
#339=AXIS2_PLACEMENT_3D('',#521,#403,#404);
#340=AXIS2_PLACEMENT_3D('',#522,#405,#406);
#341=AXIS2_PLACEMENT_3D('',#524,#407,#408);
#342=AXIS2_PLACEMENT_3D('',#525,#409,#410);
#343=AXIS2_PLACEMENT_3D('',#527,#411,#412);
#344=AXIS2_PLACEMENT_3D('',#529,#413,#414);
#345=AXIS2_PLACEMENT_3D('',#530,#415,#416);
#346=AXIS2_PLACEMENT_3D('',#532,#417,#418);
#347=AXIS2_PLACEMENT_3D('',#533,#419,#420);
#348=AXIS2_PLACEMENT_3D('',#535,#421,#422);
#349=AXIS2_PLACEMENT_3D('',#536,#423,#424);
#350=AXIS2_PLACEMENT_3D('',#537,#425,#426);
#351=AXIS2_PLACEMENT_3D('',#539,#427,#428);
#352=AXIS2_PLACEMENT_3D('',#540,#429,#430);
#353=AXIS2_PLACEMENT_3D('',#542,#431,#432);
#354=AXIS2_PLACEMENT_3D('',#544,#433,#434);
#355=AXIS2_PLACEMENT_3D('',#545,#435,#436);
#356=AXIS2_PLACEMENT_3D('',#546,#437,#438);
#357=AXIS2_PLACEMENT_3D('',#548,#439,#440);
#358=AXIS2_PLACEMENT_3D('',#549,#441,#442);
#359=AXIS2_PLACEMENT_3D('',#551,#443,#444);
#360=AXIS2_PLACEMENT_3D('',#552,#445,#446);
#361=AXIS2_PLACEMENT_3D('',#554,#447,#448);
#362=AXIS2_PLACEMENT_3D('',#555,#449,#450);
#363=AXIS2_PLACEMENT_3D('',#557,#451,#452);
#364=AXIS2_PLACEMENT_3D('',#558,#453,#454);
#365=AXIS2_PLACEMENT_3D('',#561,#455,#456);
#366=AXIS2_PLACEMENT_3D('',#562,#457,#458);
#367=AXIS2_PLACEMENT_3D('',#564,#459,#460);
#368=AXIS2_PLACEMENT_3D('',#565,#461,#462);
#369=AXIS2_PLACEMENT_3D('',#567,#463,#464);
#370=AXIS2_PLACEMENT_3D('',#568,#465,#466);
#371=DIRECTION('',(0.,0.,1.));
#372=DIRECTION('',(1.,0.,0.));
#373=DIRECTION('',(0.,0.,1.));
#374=DIRECTION('',(1.,0.,0.));
#375=DIRECTION('',(0.,0.,1.));
#376=DIRECTION('',(1.,0.,0.));
#377=DIRECTION('',(0.,0.,1.));
#378=DIRECTION('',(1.,0.,0.));
#379=DIRECTION('',(0.,0.,1.));
#380=DIRECTION('',(1.,0.,0.));
#381=DIRECTION('',(0.,0.,-1.));
#382=DIRECTION('',(-1.,0.,0.));
#383=DIRECTION('',(0.,0.,1.));
#384=DIRECTION('',(1.,0.,0.));
#385=DIRECTION('',(1.20239122127996E-16,0.,-1.));
#386=DIRECTION('',(-1.,0.,0.));
#387=DIRECTION('',(0.,0.,1.));
#388=DIRECTION('',(1.,0.,0.));
#389=DIRECTION('',(1.20239122127996E-16,0.,-1.));
#390=DIRECTION('',(-1.,0.,0.));
#391=DIRECTION('',(-1.20239122127996E-16,0.,1.));
#392=DIRECTION('',(-1.,0.,0.));
#393=DIRECTION('',(1.20239122127996E-16,0.,-1.));
#394=DIRECTION('',(-1.,0.,0.));
#395=DIRECTION('',(1.20239122127996E-16,0.,-1.));
#396=DIRECTION('',(-1.,0.,0.));
#397=DIRECTION('',(1.20239122127996E-16,0.,-1.));
#398=DIRECTION('',(-1.,0.,0.));
#399=DIRECTION('',(1.20239122127996E-16,0.,-1.));
#400=DIRECTION('',(-1.,0.,-1.19780609002891E-16));
#401=DIRECTION('',(1.20239122127996E-16,0.,-1.));
#402=DIRECTION('',(-1.,0.,0.));
#403=DIRECTION('',(0.,0.,-1.));
#404=DIRECTION('',(-1.,0.,0.));
#405=DIRECTION('',(0.,0.,-1.));
#406=DIRECTION('',(-1.,0.,0.));
#407=DIRECTION('',(0.,0.,1.));
#408=DIRECTION('',(1.,0.,0.));
#409=DIRECTION('',(2.45357918533505E-16,0.,-1.));
#410=DIRECTION('',(-1.,0.,-2.45357918533505E-16));
#411=DIRECTION('',(0.,0.,1.));
#412=DIRECTION('',(1.,0.,0.));
#413=DIRECTION('',(2.45357918533505E-16,0.,-1.));
#414=DIRECTION('',(-1.,0.,-2.45357918533505E-16));
#415=DIRECTION('',(0.,0.,1.));
#416=DIRECTION('',(-1.,0.,0.));
#417=DIRECTION('',(0.,0.,-1.));
#418=DIRECTION('',(-1.,0.,0.));
#419=DIRECTION('',(0.,0.,-1.));
#420=DIRECTION('',(1.,0.,0.));
#421=DIRECTION('',(0.,0.,1.));
#422=DIRECTION('',(1.,0.,0.));
#423=DIRECTION('',(0.,0.,-1.));
#424=DIRECTION('',(-1.,0.,-7.57822010950944E-17));
#425=DIRECTION('',(0.,0.,1.));
#426=DIRECTION('',(-1.,0.,0.));
#427=DIRECTION('',(0.,0.,1.));
#428=DIRECTION('',(1.,0.,6.59875485576661E-17));
#429=DIRECTION('',(0.,0.,1.));
#430=DIRECTION('',(-1.,0.,0.));
#431=DIRECTION('',(0.,0.,-1.));
#432=DIRECTION('',(-1.,0.,0.));
#433=DIRECTION('',(0.,0.,1.));
#434=DIRECTION('',(1.,0.,0.));
#435=DIRECTION('',(0.,0.,-1.));
#436=DIRECTION('',(-1.,0.,0.));
#437=DIRECTION('',(0.,0.,1.));
#438=DIRECTION('',(1.,0.,0.));
#439=DIRECTION('',(0.,0.,1.));
#440=DIRECTION('',(1.,0.,0.));
#441=DIRECTION('',(0.,0.,1.));
#442=DIRECTION('',(1.,0.,0.));
#443=DIRECTION('',(0.,0.,1.));
#444=DIRECTION('',(1.,0.,0.));
#445=DIRECTION('',(0.,0.,-1.));
#446=DIRECTION('',(1.,0.,0.));
#447=DIRECTION('',(0.,0.,1.));
#448=DIRECTION('',(1.,0.,8.41752263141072E-17));
#449=DIRECTION('',(0.,0.,1.));
#450=DIRECTION('',(1.,0.,0.));
#451=DIRECTION('',(0.,0.,1.));
#452=DIRECTION('',(1.,0.,2.75724942537843E-17));
#453=DIRECTION('',(0.,0.,1.));
#454=DIRECTION('',(-1.,0.,0.));
#455=DIRECTION('',(0.,0.,-1.));
#456=DIRECTION('',(-1.,0.,1.60246890531962E-17));
#457=DIRECTION('',(0.,0.,1.));
#458=DIRECTION('',(-1.,0.,0.));
#459=DIRECTION('',(0.,0.,-1.));
#460=DIRECTION('',(-1.,0.,0.));
#461=DIRECTION('',(0.,0.,-1.));
#462=DIRECTION('',(1.,0.,0.));
#463=DIRECTION('',(0.,0.,-1.));
#464=DIRECTION('',(-1.,0.,0.));
#465=DIRECTION('',(0.,0.,1.));
#466=DIRECTION('',(1.,0.,0.));
#467=CARTESIAN_POINT('',(0.,0.,0.));
#468=CARTESIAN_POINT('',(0.,0.,-42.));
#469=CARTESIAN_POINT('CRP',(-8.37321642646872,0.,-100.));
#470=CARTESIAN_POINT('CIP_DCSYS',(0.,0.,-100.));
#471=CARTESIAN_POINT('',(-1.,0.,-99.0473720558371));
#472=CARTESIAN_POINT('',(-1.,0.,-98.1315813705581));
#473=CARTESIAN_POINT('',(-1.,0.,-97.2157906852791));
#474=CARTESIAN_POINT('',(-1.,0.,-96.3));
#475=CARTESIAN_POINT('',(-0.666666666666667,0.,-96.1075499102701));
#476=CARTESIAN_POINT('',(-0.333333333333333,0.,-95.9150998205402));
#477=CARTESIAN_POINT('',(0.,0.,-95.7226497308104));
#478=CARTESIAN_POINT('',(0.,0.,-92.1484331538736));
#479=CARTESIAN_POINT('',(0.,0.,-88.5742165769368));
#480=CARTESIAN_POINT('',(0.,0.,-85.));
#481=CARTESIAN_POINT('',(-2.85773880882291,0.,-85.));
#482=CARTESIAN_POINT('',(-5.71547761764582,0.,-85.));
#483=CARTESIAN_POINT('',(-8.57321642646872,0.,-85.));
#484=CARTESIAN_POINT('',(-8.57321642646872,0.,-88.7008910912537));
#485=CARTESIAN_POINT('',(-8.57321642646872,0.,-92.4017821825075));
#486=CARTESIAN_POINT('',(-8.57321642646873,0.,-96.1026732737612));
#487=CARTESIAN_POINT('',(-8.26214428431248,0.,-97.0684488491741));
#488=CARTESIAN_POINT('',(-7.95107214215624,0.,-98.0342244245871));
#489=CARTESIAN_POINT('',(-7.64,0.,-99.));
#490=CARTESIAN_POINT('',(-7.30666666666667,0.,-99.3333333333334));
#491=CARTESIAN_POINT('',(-6.97333333333334,0.,-99.6666666666667));
#492=CARTESIAN_POINT('',(-6.64000000000002,0.,-100.));
#493=CARTESIAN_POINT('',(-4.94333333333335,0.,-100.));
#494=CARTESIAN_POINT('',(-3.24666666666667,0.,-100.));
#495=CARTESIAN_POINT('',(-1.55,0.,-100.));
#496=CARTESIAN_POINT('',(-1.36666666666667,0.,-99.6824573519457));
#497=CARTESIAN_POINT('',(-1.18333333333333,0.,-99.3649147038914));
#498=CARTESIAN_POINT('',(-1.,0.,-99.0473720558371));
#499=CARTESIAN_POINT('',(0.,0.,0.));
#500=CARTESIAN_POINT('',(0.,0.,-42.));
#501=CARTESIAN_POINT('',(0.,0.,-100.));
#502=CARTESIAN_POINT('',(0.,0.,-84.8845299461621));
#503=CARTESIAN_POINT('',(8.57321642646871,0.,-84.8845299461621));
#504=CARTESIAN_POINT('',(0.,0.,-85.));
#505=CARTESIAN_POINT('',(-8.57321642646872,0.,-85.));
#506=CARTESIAN_POINT('',(0.,0.,-100.));
#507=CARTESIAN_POINT('',(5.44486897077927E-15,0.,-50.6538348415311));
#508=CARTESIAN_POINT('',(-5.84999999999999,0.,-50.6538348415311));
#509=CARTESIAN_POINT('',(0.,0.,-50.));
#510=CARTESIAN_POINT('',(6.00000000000001,0.,-50.));
#511=CARTESIAN_POINT('',(5.20417042793042E-15,0.,-50.6538348415311));
#512=CARTESIAN_POINT('',(9.28838766442908E-15,0.,-82.6194598862512));
#513=CARTESIAN_POINT('',(-5.84999999999998,0.,-82.6194598862512));
#514=CARTESIAN_POINT('',(5.32907051820075E-15,0.,-49.6907668273182));
#515=CARTESIAN_POINT('',(9.4341698524373E-15,0.,-83.8318954515494));
#516=CARTESIAN_POINT('',(-6.54999999999998,0.,-83.8318954515494));
#517=CARTESIAN_POINT('',(9.56073769999117E-15,0.,-84.8845299461621));
#518=CARTESIAN_POINT('',(-8.3732164264687,0.,-84.8845299461621));
#519=CARTESIAN_POINT('',(9.38557578976789E-15,0.,-83.4277502631167));
#520=CARTESIAN_POINT('',(9.28838766442908E-15,0.,-82.6194598862512));
#521=CARTESIAN_POINT('',(8.57321642646871,0.,-84.8845299461621));
#522=CARTESIAN_POINT('',(0.,0.,-14.64));
#523=CARTESIAN_POINT('',(-6.,0.,-14.64));
#524=CARTESIAN_POINT('',(0.,0.,20.9080749503476));
#525=CARTESIAN_POINT('',(-6.87038682518658E-16,0.,-7.58941520739853E-16));
#526=CARTESIAN_POINT('',(-1.55,0.,-1.13924629446679E-15));
#527=CARTESIAN_POINT('',(0.,0.,0.));
#528=CARTESIAN_POINT('',(3.96,0.,0.));
#529=CARTESIAN_POINT('',(6.20000000000001,0.,7.60609547453867E-16));
#530=CARTESIAN_POINT('',(0.,0.,-1.8));
#531=CARTESIAN_POINT('',(-5.76,0.,-1.8));
#532=CARTESIAN_POINT('',(0.,0.,0.));
#533=CARTESIAN_POINT('',(0.,0.,-14.4));
#534=CARTESIAN_POINT('',(5.76,0.,-14.4));
#535=CARTESIAN_POINT('',(0.,0.,20.9080749503476));
#536=CARTESIAN_POINT('',(0.,0.,-15.84));
#537=CARTESIAN_POINT('',(0.,0.,-0.952627944162881));
#538=CARTESIAN_POINT('',(-1.,0.,-0.952627944162881));
#539=CARTESIAN_POINT('',(0.,0.,-0.952627944162881));
#540=CARTESIAN_POINT('',(0.,0.,-3.7));
#541=CARTESIAN_POINT('',(-1.,0.,-3.7));
#542=CARTESIAN_POINT('',(0.,0.,20.9080749503476));
#543=CARTESIAN_POINT('',(0.,0.,-4.27735026918963));
#544=CARTESIAN_POINT('',(0.,0.,-4.27735026918963));
#545=CARTESIAN_POINT('',(0.,0.,-85.));
#546=CARTESIAN_POINT('',(0.,0.,-85.));
#547=CARTESIAN_POINT('',(8.57321642646872,0.,-85.));
#548=CARTESIAN_POINT('',(0.,0.,-85.));
#549=CARTESIAN_POINT('',(0.,0.,-96.1026732737612));
#550=CARTESIAN_POINT('',(8.57321642646872,0.,-96.1026732737612));
#551=CARTESIAN_POINT('',(0.,0.,-100.));
#552=CARTESIAN_POINT('',(0.,0.,-99.));
#553=CARTESIAN_POINT('',(7.64,0.,-99.));
#554=CARTESIAN_POINT('',(0.,0.,-99.));
#555=CARTESIAN_POINT('',(0.,0.,-100.));
#556=CARTESIAN_POINT('',(6.64000000000002,0.,-100.));
#557=CARTESIAN_POINT('',(0.,0.,-100.));
#558=CARTESIAN_POINT('',(0.,0.,-96.3));
#559=CARTESIAN_POINT('',(-1.,0.,-96.3));
#560=CARTESIAN_POINT('',(0.,0.,-95.7226497308104));
#561=CARTESIAN_POINT('',(0.,0.,-95.7226497308104));
#562=CARTESIAN_POINT('',(0.,0.,-99.0473720558371));
#563=CARTESIAN_POINT('',(-1.,0.,-99.0473720558371));
#564=CARTESIAN_POINT('',(0.,0.,20.9080749503476));
#565=CARTESIAN_POINT('',(0.,0.,-100.));
#566=CARTESIAN_POINT('',(1.55,0.,-100.));
#567=CARTESIAN_POINT('',(0.,0.,-99.0473720558371));
#568=CARTESIAN_POINT('',(0.,0.,-100.));
#569=MECHANICAL_DESIGN_GEOMETRIC_PRESENTATION_REPRESENTATION('',(#295,#296,
#297,#298,#299,#300,#301,#302,#303),#570);
#570=(
GEOMETRIC_REPRESENTATION_CONTEXT(3)
GLOBAL_UNCERTAINTY_ASSIGNED_CONTEXT((#571))
GLOBAL_UNIT_ASSIGNED_CONTEXT((#577,#573,#572))
REPRESENTATION_CONTEXT('tool','TOP_LEVEL_ASSEMBLY_PART')
);
#571=UNCERTAINTY_MEASURE_WITH_UNIT(LENGTH_MEASURE(2.E-5),#577,
'DISTANCE_ACCURACY_VALUE','Maximum Tolerance applied to model');
#572=(
NAMED_UNIT(*)
SI_UNIT($,.STERADIAN.)
SOLID_ANGLE_UNIT()
);
#573=(
CONVERSION_BASED_UNIT('DEGREE',#575)
NAMED_UNIT(#574)
PLANE_ANGLE_UNIT()
);
#574=DIMENSIONAL_EXPONENTS(0.,0.,0.,0.,0.,0.,0.);
#575=PLANE_ANGLE_MEASURE_WITH_UNIT(PLANE_ANGLE_MEASURE(0.0174532925),#576);
#576=(
NAMED_UNIT(*)
PLANE_ANGLE_UNIT()
SI_UNIT($,.RADIAN.)
);
#577=(
LENGTH_UNIT()
NAMED_UNIT(*)
SI_UNIT(.MILLI.,.METRE.)
);
ENDSEC;
END-ISO-10303-21;
