ISO-10303-21;
HEADER;
/* Generated by software containing ST-Developer
 * from STEP Tools, Inc. (www.steptools.com) 
 */
/* OPTION: using custom schema-name function */

FILE_DESCRIPTION(
/* description */ (''),
/* implementation_level */ '2;1');

FILE_NAME(
/* name */ 'tool.stp',
/* time_stamp */ '2022-04-26T06:06:41+02:00',
/* author */ (''),
/* organization */ ('SMS'),
/* preprocessor_version */ 'ST-DEVELOPER v16.7',
/* originating_system */ 'SIEMENS PLM Software NX 12.0',
/* authorisation */ '');

FILE_SCHEMA (('AUTOMOTIVE_DESIGN { 1 0 10303 214 3 1 1 1 }'));
ENDSEC;

DATA;
#10=CONSTRUCTIVE_GEOMETRY_REPRESENTATION_RELATIONSHIP(
'supplemental geometry','',#26,#11);
#11=CONSTRUCTIVE_GEOMETRY_REPRESENTATION('supplemental geometry',(#255,
#256,#257),#440);
#12=GEOMETRICALLY_BOUNDED_WIREFRAME_SHAPE_REPRESENTATION('Tool-None',(#27),
#440);
#13=SHAPE_REPRESENTATION_RELATIONSHIP('None',
'relationship between Tool-None and Tool-None',#26,#15);
#14=SHAPE_REPRESENTATION_RELATIONSHIP('None',
'relationship between Tool-None and Tool-None',#26,#12);
#15=ADVANCED_BREP_SHAPE_REPRESENTATION('Tool-None',(#39,#40),#440);
#16=SHAPE_DEFINITION_REPRESENTATION(#17,#26);
#17=PRODUCT_DEFINITION_SHAPE('','',#18);
#18=PRODUCT_DEFINITION(' ','',#20,#19);
#19=PRODUCT_DEFINITION_CONTEXT('part definition',#25,'design');
#20=PRODUCT_DEFINITION_FORMATION_WITH_SPECIFIED_SOURCE(' ',' ',#22,
 .NOT_KNOWN.);
#21=PRODUCT_RELATED_PRODUCT_CATEGORY('part','',(#22));
#22=PRODUCT('Tool','Tool',' ',(#23));
#23=PRODUCT_CONTEXT(' ',#25,'mechanical');
#24=APPLICATION_PROTOCOL_DEFINITION('international standard',
'automotive_design',2010,#25);
#25=APPLICATION_CONTEXT(
'core data for automotive mechanical design processes');
#26=SHAPE_REPRESENTATION('Tool-None',(#254),#440);
#27=GEOMETRIC_CURVE_SET('None',(#363,#364,#365,#222));
#28=VERTEX_LOOP('',#180);
#29=SURFACE_STYLE_USAGE(.BOTH.,#31);
#30=SURFACE_STYLE_USAGE(.BOTH.,#32);
#31=SURFACE_SIDE_STYLE('',(#33));
#32=SURFACE_SIDE_STYLE('',(#34));
#33=SURFACE_STYLE_FILL_AREA(#35);
#34=SURFACE_STYLE_FILL_AREA(#36);
#35=FILL_AREA_STYLE('',(#37));
#36=FILL_AREA_STYLE('',(#38));
#37=FILL_AREA_STYLE_COLOUR('',#252);
#38=FILL_AREA_STYLE_COLOUR('',#253);
#39=MANIFOLD_SOLID_BREP('NOCUT',#41);
#40=MANIFOLD_SOLID_BREP('CUT',#42);
#41=CLOSED_SHELL('',(#58,#59,#60,#61,#62,#63,#64,#65,#66,#67,#68));
#42=CLOSED_SHELL('',(#69,#70,#71,#72,#73,#74));
#43=PLANE('',#272);
#44=PLANE('',#278);
#45=PLANE('',#280);
#46=PLANE('',#286);
#47=FACE_OUTER_BOUND('',#120,.T.);
#48=FACE_OUTER_BOUND('',#127,.T.);
#49=FACE_OUTER_BOUND('',#128,.T.);
#50=CONICAL_SURFACE('',#267,2.84999999999999,60.0000000000001);
#51=CONICAL_SURFACE('',#274,1.68,45.);
#52=CONICAL_SURFACE('',#277,4.2,45.);
#53=CONICAL_SURFACE('',#284,1.55000000000002,45.0000000000001);
#54=CONICAL_SURFACE('',#288,2.87000000000002,44.999999999999);
#55=CONICAL_SURFACE('',#289,3.37,15.6604669435356);
#56=TOROIDAL_SURFACE('',#263,3.95,1.1);
#57=TOROIDAL_SURFACE('',#268,3.84999999999999,1.);
#58=ADVANCED_FACE('',(#80,#81),#75,.T.);
#59=ADVANCED_FACE('',(#82,#83),#56,.F.);
#60=ADVANCED_FACE('',(#84,#85),#76,.T.);
#61=ADVANCED_FACE('',(#86,#87),#50,.T.);
#62=ADVANCED_FACE('',(#88,#89),#57,.F.);
#63=ADVANCED_FACE('',(#90,#91),#77,.T.);
#64=ADVANCED_FACE('',(#47),#43,.F.);
#65=ADVANCED_FACE('',(#92,#93),#51,.T.);
#66=ADVANCED_FACE('',(#94,#95),#78,.T.);
#67=ADVANCED_FACE('',(#96,#97),#52,.T.);
#68=ADVANCED_FACE('',(#48),#44,.T.);
#69=ADVANCED_FACE('',(#49),#45,.T.);
#70=ADVANCED_FACE('',(#98,#99),#79,.T.);
#71=ADVANCED_FACE('',(#100,#101),#53,.T.);
#72=ADVANCED_FACE('',(#102,#103),#46,.F.);
#73=ADVANCED_FACE('',(#104,#105),#54,.T.);
#74=ADVANCED_FACE('',(#106,#107),#55,.T.);
#75=CYLINDRICAL_SURFACE('',#260,4.064208331254);
#76=CYLINDRICAL_SURFACE('',#265,2.84999999999999);
#77=CYLINDRICAL_SURFACE('',#270,3.);
#78=CYLINDRICAL_SURFACE('',#276,2.88);
#79=CYLINDRICAL_SURFACE('',#282,4.064208331254);
#80=FACE_BOUND('',#108,.T.);
#81=FACE_BOUND('',#109,.T.);
#82=FACE_BOUND('',#110,.T.);
#83=FACE_BOUND('',#111,.T.);
#84=FACE_BOUND('',#112,.T.);
#85=FACE_BOUND('',#113,.T.);
#86=FACE_BOUND('',#114,.T.);
#87=FACE_BOUND('',#115,.T.);
#88=FACE_BOUND('',#116,.T.);
#89=FACE_BOUND('',#117,.T.);
#90=FACE_BOUND('',#118,.T.);
#91=FACE_BOUND('',#119,.T.);
#92=FACE_BOUND('',#121,.T.);
#93=FACE_BOUND('',#122,.T.);
#94=FACE_BOUND('',#123,.T.);
#95=FACE_BOUND('',#124,.T.);
#96=FACE_BOUND('',#125,.T.);
#97=FACE_BOUND('',#126,.T.);
#98=FACE_BOUND('',#129,.T.);
#99=FACE_BOUND('',#130,.T.);
#100=FACE_BOUND('',#28,.T.);
#101=FACE_BOUND('',#131,.T.);
#102=FACE_BOUND('',#132,.T.);
#103=FACE_BOUND('',#133,.T.);
#104=FACE_BOUND('',#134,.T.);
#105=FACE_BOUND('',#135,.T.);
#106=FACE_BOUND('',#136,.T.);
#107=FACE_BOUND('',#137,.T.);
#108=EDGE_LOOP('',(#138));
#109=EDGE_LOOP('',(#139));
#110=EDGE_LOOP('',(#140));
#111=EDGE_LOOP('',(#141));
#112=EDGE_LOOP('',(#142));
#113=EDGE_LOOP('',(#143));
#114=EDGE_LOOP('',(#144));
#115=EDGE_LOOP('',(#145));
#116=EDGE_LOOP('',(#146));
#117=EDGE_LOOP('',(#147));
#118=EDGE_LOOP('',(#148));
#119=EDGE_LOOP('',(#149));
#120=EDGE_LOOP('',(#150));
#121=EDGE_LOOP('',(#151));
#122=EDGE_LOOP('',(#152));
#123=EDGE_LOOP('',(#153));
#124=EDGE_LOOP('',(#154));
#125=EDGE_LOOP('',(#155));
#126=EDGE_LOOP('',(#156));
#127=EDGE_LOOP('',(#157));
#128=EDGE_LOOP('',(#158));
#129=EDGE_LOOP('',(#159));
#130=EDGE_LOOP('',(#160));
#131=EDGE_LOOP('',(#161));
#132=EDGE_LOOP('',(#162));
#133=EDGE_LOOP('',(#163));
#134=EDGE_LOOP('',(#164));
#135=EDGE_LOOP('',(#165));
#136=EDGE_LOOP('',(#166));
#137=EDGE_LOOP('',(#167));
#138=ORIENTED_EDGE('',*,*,#184,.T.);
#139=ORIENTED_EDGE('',*,*,#185,.T.);
#140=ORIENTED_EDGE('',*,*,#186,.F.);
#141=ORIENTED_EDGE('',*,*,#187,.F.);
#142=ORIENTED_EDGE('',*,*,#188,.T.);
#143=ORIENTED_EDGE('',*,*,#186,.T.);
#144=ORIENTED_EDGE('',*,*,#189,.T.);
#145=ORIENTED_EDGE('',*,*,#184,.F.);
#146=ORIENTED_EDGE('',*,*,#188,.F.);
#147=ORIENTED_EDGE('',*,*,#189,.F.);
#148=ORIENTED_EDGE('',*,*,#187,.T.);
#149=ORIENTED_EDGE('',*,*,#190,.T.);
#150=ORIENTED_EDGE('',*,*,#191,.T.);
#151=ORIENTED_EDGE('',*,*,#191,.F.);
#152=ORIENTED_EDGE('',*,*,#192,.T.);
#153=ORIENTED_EDGE('',*,*,#193,.F.);
#154=ORIENTED_EDGE('',*,*,#192,.F.);
#155=ORIENTED_EDGE('',*,*,#193,.T.);
#156=ORIENTED_EDGE('',*,*,#190,.F.);
#157=ORIENTED_EDGE('',*,*,#185,.F.);
#158=ORIENTED_EDGE('',*,*,#194,.F.);
#159=ORIENTED_EDGE('',*,*,#195,.T.);
#160=ORIENTED_EDGE('',*,*,#194,.T.);
#161=ORIENTED_EDGE('',*,*,#196,.F.);
#162=ORIENTED_EDGE('',*,*,#196,.T.);
#163=ORIENTED_EDGE('',*,*,#197,.F.);
#164=ORIENTED_EDGE('',*,*,#198,.T.);
#165=ORIENTED_EDGE('',*,*,#197,.T.);
#166=ORIENTED_EDGE('',*,*,#198,.F.);
#167=ORIENTED_EDGE('',*,*,#195,.F.);
#168=VERTEX_POINT('',#392);
#169=VERTEX_POINT('',#394);
#170=VERTEX_POINT('',#397);
#171=VERTEX_POINT('',#399);
#172=VERTEX_POINT('',#402);
#173=VERTEX_POINT('',#405);
#174=VERTEX_POINT('',#409);
#175=VERTEX_POINT('',#412);
#176=VERTEX_POINT('',#415);
#177=VERTEX_POINT('',#418);
#178=VERTEX_POINT('',#423);
#179=VERTEX_POINT('',#426);
#180=VERTEX_POINT('',#428);
#181=VERTEX_POINT('',#430);
#182=VERTEX_POINT('',#433);
#183=VERTEX_POINT('',#436);
#184=EDGE_CURVE('',#168,#168,#199,.T.);
#185=EDGE_CURVE('',#169,#169,#200,.T.);
#186=EDGE_CURVE('',#170,#170,#201,.T.);
#187=EDGE_CURVE('',#171,#171,#202,.T.);
#188=EDGE_CURVE('',#172,#172,#203,.T.);
#189=EDGE_CURVE('',#173,#173,#204,.T.);
#190=EDGE_CURVE('',#174,#174,#205,.T.);
#191=EDGE_CURVE('',#175,#175,#206,.T.);
#192=EDGE_CURVE('',#176,#176,#207,.T.);
#193=EDGE_CURVE('',#177,#177,#208,.T.);
#194=EDGE_CURVE('',#178,#178,#209,.T.);
#195=EDGE_CURVE('',#179,#179,#210,.T.);
#196=EDGE_CURVE('',#181,#181,#211,.T.);
#197=EDGE_CURVE('',#182,#182,#212,.T.);
#198=EDGE_CURVE('',#183,#183,#213,.T.);
#199=CIRCLE('',#258,4.064208331254);
#200=CIRCLE('',#259,4.064208331254);
#201=CIRCLE('',#261,2.84999999999999);
#202=CIRCLE('',#262,3.00000000000001);
#203=CIRCLE('',#264,2.84999999999999);
#204=CIRCLE('',#266,3.34999999999999);
#205=CIRCLE('',#269,3.);
#206=CIRCLE('',#271,1.68);
#207=CIRCLE('',#273,2.88);
#208=CIRCLE('',#275,2.88);
#209=CIRCLE('',#279,4.064208331254);
#210=CIRCLE('',#281,4.064208331254);
#211=CIRCLE('',#283,1.55000000000002);
#212=CIRCLE('',#285,2.87000000000002);
#213=CIRCLE('',#287,3.37);
#214=CURVE_STYLE('',#218,POSITIVE_LENGTH_MEASURE(0.18),#224);
#215=CURVE_STYLE('',#219,POSITIVE_LENGTH_MEASURE(0.13),#251);
#216=CURVE_STYLE('',#220,POSITIVE_LENGTH_MEASURE(0.18),#250);
#217=CURVE_STYLE('',#221,POSITIVE_LENGTH_MEASURE(0.18),#250);
#218=DRAUGHTING_PRE_DEFINED_CURVE_FONT('continuous');
#219=DRAUGHTING_PRE_DEFINED_CURVE_FONT('continuous');
#220=DRAUGHTING_PRE_DEFINED_CURVE_FONT('continuous');
#221=DRAUGHTING_PRE_DEFINED_CURVE_FONT('continuous');
#222=B_SPLINE_CURVE_WITH_KNOTS('CUTTING PART LINE',3,(#366,#367,#368,#369,
#370,#371,#372,#373,#374,#375,#376,#377,#378,#379,#380,#381,#382,#383,#384,
#385,#386,#387),.UNSPECIFIED.,.T.,.F.,(4,3,3,3,3,3,3,4),(0.,0.0769321404492374,
0.0980847538736945,0.137571646754071,0.203144748375571,0.60848368665519,
0.730061685910967,1.),.UNSPECIFIED.);
#223=DRAUGHTING_PRE_DEFINED_COLOUR('white');
#224=DRAUGHTING_PRE_DEFINED_COLOUR('blue');
#225=PRESENTATION_LAYER_ASSIGNMENT('1','Layer 1',(#363,#364,#365,#222,#255,
#256,#257,#39,#40));
#226=STYLED_ITEM('',(#235),#363);
#227=STYLED_ITEM('',(#236),#364);
#228=STYLED_ITEM('',(#237),#365);
#229=STYLED_ITEM('',(#238),#222);
#230=STYLED_ITEM('',(#239),#255);
#231=STYLED_ITEM('',(#240),#256);
#232=STYLED_ITEM('',(#241),#257);
#233=STYLED_ITEM('',(#242),#39);
#234=STYLED_ITEM('',(#243),#40);
#235=PRESENTATION_STYLE_ASSIGNMENT((#244));
#236=PRESENTATION_STYLE_ASSIGNMENT((#245));
#237=PRESENTATION_STYLE_ASSIGNMENT((#246));
#238=PRESENTATION_STYLE_ASSIGNMENT((#214));
#239=PRESENTATION_STYLE_ASSIGNMENT((#215));
#240=PRESENTATION_STYLE_ASSIGNMENT((#216));
#241=PRESENTATION_STYLE_ASSIGNMENT((#217));
#242=PRESENTATION_STYLE_ASSIGNMENT((#29));
#243=PRESENTATION_STYLE_ASSIGNMENT((#30));
#244=POINT_STYLE('',#247,POSITIVE_LENGTH_MEASURE(3.),#250);
#245=POINT_STYLE('',#248,POSITIVE_LENGTH_MEASURE(3.),#223);
#246=POINT_STYLE('',#249,POSITIVE_LENGTH_MEASURE(3.),#250);
#247=PRE_DEFINED_POINT_MARKER_SYMBOL('plus');
#248=PRE_DEFINED_POINT_MARKER_SYMBOL('plus');
#249=PRE_DEFINED_POINT_MARKER_SYMBOL('plus');
#250=COLOUR_RGB('Medium Maroon',0.6,0.4,0.4);
#251=COLOUR_RGB('Silver Gray',0.6,0.6,0.6);
#252=COLOUR_RGB('TLS_NOCUT',0.498023956664378,0.498023956664378,0.498023956664378);
#253=COLOUR_RGB('TLS_CUT',0.8,0.8,0.8);
#254=AXIS2_PLACEMENT_3D('',#362,#290,#291);
#255=AXIS2_PLACEMENT_3D('PCS',#388,#292,#293);
#256=AXIS2_PLACEMENT_3D('MCS',#389,#294,#295);
#257=AXIS2_PLACEMENT_3D('CIP',#390,#296,#297);
#258=AXIS2_PLACEMENT_3D('',#391,#298,#299);
#259=AXIS2_PLACEMENT_3D('',#393,#300,#301);
#260=AXIS2_PLACEMENT_3D('',#395,#302,#303);
#261=AXIS2_PLACEMENT_3D('',#396,#304,#305);
#262=AXIS2_PLACEMENT_3D('',#398,#306,#307);
#263=AXIS2_PLACEMENT_3D('',#400,#308,#309);
#264=AXIS2_PLACEMENT_3D('',#401,#310,#311);
#265=AXIS2_PLACEMENT_3D('',#403,#312,#313);
#266=AXIS2_PLACEMENT_3D('',#404,#314,#315);
#267=AXIS2_PLACEMENT_3D('',#406,#316,#317);
#268=AXIS2_PLACEMENT_3D('',#407,#318,#319);
#269=AXIS2_PLACEMENT_3D('',#408,#320,#321);
#270=AXIS2_PLACEMENT_3D('',#410,#322,#323);
#271=AXIS2_PLACEMENT_3D('',#411,#324,#325);
#272=AXIS2_PLACEMENT_3D('',#413,#326,#327);
#273=AXIS2_PLACEMENT_3D('',#414,#328,#329);
#274=AXIS2_PLACEMENT_3D('',#416,#330,#331);
#275=AXIS2_PLACEMENT_3D('',#417,#332,#333);
#276=AXIS2_PLACEMENT_3D('',#419,#334,#335);
#277=AXIS2_PLACEMENT_3D('',#420,#336,#337);
#278=AXIS2_PLACEMENT_3D('',#421,#338,#339);
#279=AXIS2_PLACEMENT_3D('',#422,#340,#341);
#280=AXIS2_PLACEMENT_3D('',#424,#342,#343);
#281=AXIS2_PLACEMENT_3D('',#425,#344,#345);
#282=AXIS2_PLACEMENT_3D('',#427,#346,#347);
#283=AXIS2_PLACEMENT_3D('',#429,#348,#349);
#284=AXIS2_PLACEMENT_3D('',#431,#350,#351);
#285=AXIS2_PLACEMENT_3D('',#432,#352,#353);
#286=AXIS2_PLACEMENT_3D('',#434,#354,#355);
#287=AXIS2_PLACEMENT_3D('',#435,#356,#357);
#288=AXIS2_PLACEMENT_3D('',#437,#358,#359);
#289=AXIS2_PLACEMENT_3D('',#438,#360,#361);
#290=DIRECTION('',(0.,0.,1.));
#291=DIRECTION('',(1.,0.,0.));
#292=DIRECTION('',(0.,0.,1.));
#293=DIRECTION('',(1.,0.,0.));
#294=DIRECTION('',(0.,0.,1.));
#295=DIRECTION('',(1.,0.,0.));
#296=DIRECTION('',(0.,0.,1.));
#297=DIRECTION('',(1.,0.,0.));
#298=DIRECTION('',(0.,0.,-1.));
#299=DIRECTION('',(-1.,0.,0.));
#300=DIRECTION('',(0.,0.,1.));
#301=DIRECTION('',(-1.,0.,0.));
#302=DIRECTION('',(0.,0.,1.));
#303=DIRECTION('',(1.,0.,0.));
#304=DIRECTION('',(1.28723500722804E-16,0.,-1.));
#305=DIRECTION('',(-1.,0.,0.));
#306=DIRECTION('',(0.,0.,1.));
#307=DIRECTION('',(1.,0.,0.));
#308=DIRECTION('',(1.28723500722804E-16,0.,-1.));
#309=DIRECTION('',(-1.,0.,0.));
#310=DIRECTION('',(-1.28723500722804E-16,0.,1.));
#311=DIRECTION('',(-1.,0.,0.));
#312=DIRECTION('',(1.28723500722804E-16,0.,-1.));
#313=DIRECTION('',(-1.,0.,0.));
#314=DIRECTION('',(1.28723500722804E-16,0.,-1.));
#315=DIRECTION('',(-1.,0.,0.));
#316=DIRECTION('',(1.28723500722804E-16,0.,-1.));
#317=DIRECTION('',(-1.,0.,-1.83981192577236E-16));
#318=DIRECTION('',(1.28723500722804E-16,0.,-1.));
#319=DIRECTION('',(-1.,0.,0.));
#320=DIRECTION('',(0.,0.,-1.));
#321=DIRECTION('',(-1.,0.,0.));
#322=DIRECTION('',(0.,0.,1.));
#323=DIRECTION('',(1.,0.,0.));
#324=DIRECTION('',(0.,0.,1.));
#325=DIRECTION('',(1.,0.,0.));
#326=DIRECTION('',(2.23716143813196E-16,0.,-1.));
#327=DIRECTION('',(-1.,0.,-2.23716143813196E-16));
#328=DIRECTION('',(0.,0.,1.));
#329=DIRECTION('',(-1.,0.,0.));
#330=DIRECTION('',(0.,0.,-1.));
#331=DIRECTION('',(-1.,0.,0.));
#332=DIRECTION('',(0.,0.,-1.));
#333=DIRECTION('',(1.,0.,0.));
#334=DIRECTION('',(0.,0.,1.));
#335=DIRECTION('',(1.,0.,0.));
#336=DIRECTION('',(0.,0.,-1.));
#337=DIRECTION('',(-1.,0.,9.67382141552491E-17));
#338=DIRECTION('',(0.,0.,-1.));
#339=DIRECTION('',(-1.,0.,0.));
#340=DIRECTION('',(0.,0.,-1.));
#341=DIRECTION('',(1.,0.,0.));
#342=DIRECTION('',(0.,0.,1.));
#343=DIRECTION('',(1.,0.,0.));
#344=DIRECTION('',(0.,0.,1.));
#345=DIRECTION('',(1.,0.,0.));
#346=DIRECTION('',(0.,0.,1.));
#347=DIRECTION('',(1.,0.,0.));
#348=DIRECTION('',(3.581364595565E-17,0.,1.));
#349=DIRECTION('',(1.,0.,0.));
#350=DIRECTION('',(3.581364595565E-17,0.,1.));
#351=DIRECTION('',(1.,0.,2.77126210529966E-17));
#352=DIRECTION('',(0.,0.,1.));
#353=DIRECTION('',(1.,0.,0.));
#354=DIRECTION('',(0.,0.,1.));
#355=DIRECTION('',(1.,0.,0.));
#356=DIRECTION('',(0.,0.,-1.));
#357=DIRECTION('',(1.,0.,0.));
#358=DIRECTION('',(0.,0.,1.));
#359=DIRECTION('',(1.,0.,2.76761450792525E-17));
#360=DIRECTION('',(0.,0.,1.));
#361=DIRECTION('',(1.,0.,-9.78297736398779E-17));
#362=CARTESIAN_POINT('',(0.,0.,0.));
#363=CARTESIAN_POINT('',(0.,0.,-23.));
#364=CARTESIAN_POINT('CRP',(-4.064208331254,0.,-90.));
#365=CARTESIAN_POINT('CIP_DCSYS',(0.,0.,-90.));
#366=CARTESIAN_POINT('',(-4.064208331254,0.,-87.0237177100825));
#367=CARTESIAN_POINT('',(-3.83280555416933,0.,-87.849145140055));
#368=CARTESIAN_POINT('',(-3.60140277708467,0.,-88.6745725700275));
#369=CARTESIAN_POINT('',(-3.37,0.,-89.5));
#370=CARTESIAN_POINT('',(-3.20333333333334,0.,-89.6666666666667));
#371=CARTESIAN_POINT('',(-3.03666666666668,0.,-89.8333333333333));
#372=CARTESIAN_POINT('',(-2.87000000000002,0.,-90.));
#373=CARTESIAN_POINT('',(-2.43000000000002,0.,-90.));
#374=CARTESIAN_POINT('',(-1.99000000000002,0.,-90.));
#375=CARTESIAN_POINT('',(-1.55000000000002,0.,-90.));
#376=CARTESIAN_POINT('',(-1.03333333333334,0.,-90.5166666666667));
#377=CARTESIAN_POINT('',(-0.516666666666672,0.,-91.0333333333333));
#378=CARTESIAN_POINT('',(0.,0.,-91.55));
#379=CARTESIAN_POINT('',(0.,0.,-87.0333333333333));
#380=CARTESIAN_POINT('',(0.,0.,-82.5166666666667));
#381=CARTESIAN_POINT('',(0.,0.,-78.));
#382=CARTESIAN_POINT('',(-1.354736110418,0.,-78.));
#383=CARTESIAN_POINT('',(-2.709472220836,0.,-78.));
#384=CARTESIAN_POINT('',(-4.064208331254,0.,-78.));
#385=CARTESIAN_POINT('',(-4.064208331254,0.,-81.0079059033608));
#386=CARTESIAN_POINT('',(-4.064208331254,0.,-84.0158118067217));
#387=CARTESIAN_POINT('',(-4.064208331254,0.,-87.0237177100825));
#388=CARTESIAN_POINT('',(0.,0.,0.));
#389=CARTESIAN_POINT('',(0.,0.,-23.));
#390=CARTESIAN_POINT('',(0.,0.,-90.));
#391=CARTESIAN_POINT('',(0.,0.,-77.8989637028918));
#392=CARTESIAN_POINT('',(-4.064208331254,0.,-77.8989637028918));
#393=CARTESIAN_POINT('',(0.,0.,-78.));
#394=CARTESIAN_POINT('',(-4.064208331254,0.,-78.));
#395=CARTESIAN_POINT('',(0.,0.,20.9080749503476));
#396=CARTESIAN_POINT('',(4.98856174287295E-15,0.,-47.5545268253205));
#397=CARTESIAN_POINT('',(-2.84999999999999,0.,-47.5545268253205));
#398=CARTESIAN_POINT('',(0.,0.,-47.));
#399=CARTESIAN_POINT('',(3.00000000000001,0.,-47.));
#400=CARTESIAN_POINT('',(5.20417042793042E-15,0.,-47.5545268253205));
#401=CARTESIAN_POINT('',(8.73004713752536E-15,0.,-76.6205899268004));
#402=CARTESIAN_POINT('',(-2.84999999999998,0.,-76.6205899268004));
#403=CARTESIAN_POINT('',(4.88498130835069E-15,0.,-46.7498529783489));
#404=CARTESIAN_POINT('',(8.84152495921537E-15,0.,-77.4866153305849));
#405=CARTESIAN_POINT('',(-3.34999999999998,0.,-77.4866153305849));
#406=CARTESIAN_POINT('',(8.8043656853187E-15,0.,-77.19794019599));
#407=CARTESIAN_POINT('',(8.73004713752536E-15,0.,-76.6205899268004));
#408=CARTESIAN_POINT('',(0.,0.,-8.92000000000001));
#409=CARTESIAN_POINT('',(-3.,0.,-8.92000000000001));
#410=CARTESIAN_POINT('',(0.,0.,20.9080749503476));
#411=CARTESIAN_POINT('',(0.,0.,0.));
#412=CARTESIAN_POINT('',(1.68,0.,0.));
#413=CARTESIAN_POINT('',(3.2,0.,3.57945830101114E-16));
#414=CARTESIAN_POINT('',(0.,0.,-1.2));
#415=CARTESIAN_POINT('',(-2.88,0.,-1.2));
#416=CARTESIAN_POINT('',(0.,0.,0.));
#417=CARTESIAN_POINT('',(0.,0.,-8.8));
#418=CARTESIAN_POINT('',(2.88,0.,-8.8));
#419=CARTESIAN_POINT('',(0.,0.,20.9080749503476));
#420=CARTESIAN_POINT('',(0.,0.,-10.12));
#421=CARTESIAN_POINT('',(0.,0.,-78.));
#422=CARTESIAN_POINT('',(0.,0.,-78.));
#423=CARTESIAN_POINT('',(4.064208331254,0.,-78.));
#424=CARTESIAN_POINT('',(0.,0.,-78.));
#425=CARTESIAN_POINT('',(0.,0.,-87.0237177100825));
#426=CARTESIAN_POINT('',(4.064208331254,0.,-87.0237177100825));
#427=CARTESIAN_POINT('',(0.,0.,20.9080749503476));
#428=CARTESIAN_POINT('',(0.,0.,-91.55));
#429=CARTESIAN_POINT('',(-4.81482486096809E-32,0.,-90.));
#430=CARTESIAN_POINT('',(1.55000000000002,0.,-90.));
#431=CARTESIAN_POINT('',(-4.81482486096809E-32,0.,-90.));
#432=CARTESIAN_POINT('',(0.,0.,-90.));
#433=CARTESIAN_POINT('',(2.87000000000002,0.,-90.));
#434=CARTESIAN_POINT('',(0.,0.,-90.));
#435=CARTESIAN_POINT('',(0.,0.,-89.5));
#436=CARTESIAN_POINT('',(3.37,0.,-89.5));
#437=CARTESIAN_POINT('',(0.,0.,-90.));
#438=CARTESIAN_POINT('',(0.,0.,-89.5));
#439=MECHANICAL_DESIGN_GEOMETRIC_PRESENTATION_REPRESENTATION('',(#226,#227,
#228,#229,#230,#231,#232,#233,#234),#440);
#440=(
GEOMETRIC_REPRESENTATION_CONTEXT(3)
GLOBAL_UNCERTAINTY_ASSIGNED_CONTEXT((#441))
GLOBAL_UNIT_ASSIGNED_CONTEXT((#447,#443,#442))
REPRESENTATION_CONTEXT('tool','TOP_LEVEL_ASSEMBLY_PART')
);
#441=UNCERTAINTY_MEASURE_WITH_UNIT(LENGTH_MEASURE(2.E-5),#447,
'DISTANCE_ACCURACY_VALUE','Maximum Tolerance applied to model');
#442=(
NAMED_UNIT(*)
SI_UNIT($,.STERADIAN.)
SOLID_ANGLE_UNIT()
);
#443=(
CONVERSION_BASED_UNIT('DEGREE',#445)
NAMED_UNIT(#444)
PLANE_ANGLE_UNIT()
);
#444=DIMENSIONAL_EXPONENTS(0.,0.,0.,0.,0.,0.,0.);
#445=PLANE_ANGLE_MEASURE_WITH_UNIT(PLANE_ANGLE_MEASURE(0.0174532925),#446);
#446=(
NAMED_UNIT(*)
PLANE_ANGLE_UNIT()
SI_UNIT($,.RADIAN.)
);
#447=(
LENGTH_UNIT()
NAMED_UNIT(*)
SI_UNIT(.MILLI.,.METRE.)
);
ENDSEC;
END-ISO-10303-21;
