ISO-10303-21;
HEADER;
/* Generated by software containing ST-Developer
 * from STEP Tools, Inc. (www.steptools.com) 
 */
/* OPTION: using custom schema-name function */

FILE_DESCRIPTION(
/* description */ (''),
/* implementation_level */ '2;1');

FILE_NAME(
/* name */ 'tool.stp',
/* time_stamp */ '2022-04-26T06:06:36+02:00',
/* author */ (''),
/* organization */ ('SMS'),
/* preprocessor_version */ 'ST-DEVELOPER v16.7',
/* originating_system */ 'SIEMENS PLM Software NX 12.0',
/* authorisation */ '');

FILE_SCHEMA (('AUTOMOTIVE_DESIGN { 1 0 10303 214 3 1 1 1 }'));
ENDSEC;

DATA;
#10=CONSTRUCTIVE_GEOMETRY_REPRESENTATION_RELATIONSHIP(
'supplemental geometry','',#26,#11);
#11=CONSTRUCTIVE_GEOMETRY_REPRESENTATION('supplemental geometry',(#266,
#267,#268),#460);
#12=GEOMETRICALLY_BOUNDED_WIREFRAME_SHAPE_REPRESENTATION('Tool-None',(#27),
#460);
#13=SHAPE_REPRESENTATION_RELATIONSHIP('None',
'relationship between Tool-None and Tool-None',#26,#15);
#14=SHAPE_REPRESENTATION_RELATIONSHIP('None',
'relationship between Tool-None and Tool-None',#26,#12);
#15=ADVANCED_BREP_SHAPE_REPRESENTATION('Tool-None',(#39,#40),#460);
#16=SHAPE_DEFINITION_REPRESENTATION(#17,#26);
#17=PRODUCT_DEFINITION_SHAPE('','',#18);
#18=PRODUCT_DEFINITION(' ','',#20,#19);
#19=PRODUCT_DEFINITION_CONTEXT('part definition',#25,'design');
#20=PRODUCT_DEFINITION_FORMATION_WITH_SPECIFIED_SOURCE(' ',' ',#22,
 .NOT_KNOWN.);
#21=PRODUCT_RELATED_PRODUCT_CATEGORY('part','',(#22));
#22=PRODUCT('Tool','Tool',' ',(#23));
#23=PRODUCT_CONTEXT(' ',#25,'mechanical');
#24=APPLICATION_PROTOCOL_DEFINITION('international standard',
'automotive_design',2010,#25);
#25=APPLICATION_CONTEXT(
'core data for automotive mechanical design processes');
#26=SHAPE_REPRESENTATION('Tool-None',(#265),#460);
#27=GEOMETRIC_CURVE_SET('None',(#380,#381,#382,#233));
#28=VERTEX_LOOP('',#191);
#29=SURFACE_STYLE_USAGE(.BOTH.,#31);
#30=SURFACE_STYLE_USAGE(.BOTH.,#32);
#31=SURFACE_SIDE_STYLE('',(#33));
#32=SURFACE_SIDE_STYLE('',(#34));
#33=SURFACE_STYLE_FILL_AREA(#35);
#34=SURFACE_STYLE_FILL_AREA(#36);
#35=FILL_AREA_STYLE('',(#37));
#36=FILL_AREA_STYLE('',(#38));
#37=FILL_AREA_STYLE_COLOUR('',#263);
#38=FILL_AREA_STYLE_COLOUR('',#264);
#39=MANIFOLD_SOLID_BREP('NOCUT',#41);
#40=MANIFOLD_SOLID_BREP('CUT',#42);
#41=CLOSED_SHELL('',(#59,#60,#61,#62,#63,#64,#65,#66,#67,#68,#69,#70));
#42=CLOSED_SHELL('',(#71,#72,#73,#74,#75,#76));
#43=FACE_OUTER_BOUND('',#126,.T.);
#44=FACE_OUTER_BOUND('',#133,.T.);
#45=FACE_OUTER_BOUND('',#134,.T.);
#46=PLANE('',#281);
#47=PLANE('',#285);
#48=PLANE('',#291);
#49=PLANE('',#293);
#50=PLANE('',#302);
#51=CONICAL_SURFACE('',#279,3.34999999999999,60.0000000000006);
#52=CONICAL_SURFACE('',#287,1.96,45.);
#53=CONICAL_SURFACE('',#290,4.7,45.);
#54=CONICAL_SURFACE('',#297,4.425,16.9580623516078);
#55=CONICAL_SURFACE('',#299,3.92500000000002,44.999999999999);
#56=CONICAL_SURFACE('',#301,1.65000000000002,44.9999999999998);
#57=TOROIDAL_SURFACE('',#274,4.85,1.5);
#58=TOROIDAL_SURFACE('',#280,4.74999999999999,1.4);
#59=ADVANCED_FACE('FACE1',(#82,#83),#77,.T.);
#60=ADVANCED_FACE('',(#84,#85),#57,.F.);
#61=ADVANCED_FACE('',(#86,#87),#78,.T.);
#62=ADVANCED_FACE('',(#88,#89),#51,.T.);
#63=ADVANCED_FACE('',(#90,#91),#58,.F.);
#64=ADVANCED_FACE('',(#92,#93),#46,.F.);
#65=ADVANCED_FACE('',(#94,#95),#79,.T.);
#66=ADVANCED_FACE('',(#43),#47,.F.);
#67=ADVANCED_FACE('',(#96,#97),#52,.T.);
#68=ADVANCED_FACE('',(#98,#99),#80,.T.);
#69=ADVANCED_FACE('',(#100,#101),#53,.T.);
#70=ADVANCED_FACE('',(#44),#48,.T.);
#71=ADVANCED_FACE('',(#45),#49,.T.);
#72=ADVANCED_FACE('FACE1',(#102,#103),#81,.T.);
#73=ADVANCED_FACE('',(#104,#105),#54,.T.);
#74=ADVANCED_FACE('',(#106,#107),#55,.T.);
#75=ADVANCED_FACE('',(#108,#109),#56,.T.);
#76=ADVANCED_FACE('',(#110,#111),#50,.F.);
#77=CYLINDRICAL_SURFACE('',#271,5.07681168316158);
#78=CYLINDRICAL_SURFACE('',#276,3.34999999999999);
#79=CYLINDRICAL_SURFACE('',#283,3.5);
#80=CYLINDRICAL_SURFACE('',#289,3.36);
#81=CYLINDRICAL_SURFACE('',#295,5.07681168316158);
#82=FACE_BOUND('',#112,.T.);
#83=FACE_BOUND('',#113,.T.);
#84=FACE_BOUND('',#114,.T.);
#85=FACE_BOUND('',#115,.T.);
#86=FACE_BOUND('',#116,.T.);
#87=FACE_BOUND('',#117,.T.);
#88=FACE_BOUND('',#118,.T.);
#89=FACE_BOUND('',#119,.T.);
#90=FACE_BOUND('',#120,.T.);
#91=FACE_BOUND('',#121,.T.);
#92=FACE_BOUND('',#122,.T.);
#93=FACE_BOUND('',#123,.T.);
#94=FACE_BOUND('',#124,.T.);
#95=FACE_BOUND('',#125,.T.);
#96=FACE_BOUND('',#127,.T.);
#97=FACE_BOUND('',#128,.T.);
#98=FACE_BOUND('',#129,.T.);
#99=FACE_BOUND('',#130,.T.);
#100=FACE_BOUND('',#131,.T.);
#101=FACE_BOUND('',#132,.T.);
#102=FACE_BOUND('',#135,.T.);
#103=FACE_BOUND('',#136,.T.);
#104=FACE_BOUND('',#137,.T.);
#105=FACE_BOUND('',#138,.T.);
#106=FACE_BOUND('',#139,.T.);
#107=FACE_BOUND('',#140,.T.);
#108=FACE_BOUND('',#28,.T.);
#109=FACE_BOUND('',#141,.T.);
#110=FACE_BOUND('',#142,.T.);
#111=FACE_BOUND('',#143,.T.);
#112=EDGE_LOOP('',(#144));
#113=EDGE_LOOP('',(#145));
#114=EDGE_LOOP('',(#146));
#115=EDGE_LOOP('',(#147));
#116=EDGE_LOOP('',(#148));
#117=EDGE_LOOP('',(#149));
#118=EDGE_LOOP('',(#150));
#119=EDGE_LOOP('',(#151));
#120=EDGE_LOOP('',(#152));
#121=EDGE_LOOP('',(#153));
#122=EDGE_LOOP('',(#154));
#123=EDGE_LOOP('',(#155));
#124=EDGE_LOOP('',(#156));
#125=EDGE_LOOP('',(#157));
#126=EDGE_LOOP('',(#158));
#127=EDGE_LOOP('',(#159));
#128=EDGE_LOOP('',(#160));
#129=EDGE_LOOP('',(#161));
#130=EDGE_LOOP('',(#162));
#131=EDGE_LOOP('',(#163));
#132=EDGE_LOOP('',(#164));
#133=EDGE_LOOP('',(#165));
#134=EDGE_LOOP('',(#166));
#135=EDGE_LOOP('',(#167));
#136=EDGE_LOOP('',(#168));
#137=EDGE_LOOP('',(#169));
#138=EDGE_LOOP('',(#170));
#139=EDGE_LOOP('',(#171));
#140=EDGE_LOOP('',(#172));
#141=EDGE_LOOP('',(#173));
#142=EDGE_LOOP('',(#174));
#143=EDGE_LOOP('',(#175));
#144=ORIENTED_EDGE('',*,*,#193,.F.);
#145=ORIENTED_EDGE('',*,*,#194,.F.);
#146=ORIENTED_EDGE('',*,*,#195,.F.);
#147=ORIENTED_EDGE('',*,*,#196,.F.);
#148=ORIENTED_EDGE('',*,*,#197,.T.);
#149=ORIENTED_EDGE('',*,*,#195,.T.);
#150=ORIENTED_EDGE('',*,*,#198,.T.);
#151=ORIENTED_EDGE('',*,*,#199,.F.);
#152=ORIENTED_EDGE('',*,*,#197,.F.);
#153=ORIENTED_EDGE('',*,*,#198,.F.);
#154=ORIENTED_EDGE('',*,*,#199,.T.);
#155=ORIENTED_EDGE('',*,*,#193,.T.);
#156=ORIENTED_EDGE('',*,*,#196,.T.);
#157=ORIENTED_EDGE('',*,*,#200,.T.);
#158=ORIENTED_EDGE('',*,*,#201,.T.);
#159=ORIENTED_EDGE('',*,*,#201,.F.);
#160=ORIENTED_EDGE('',*,*,#202,.T.);
#161=ORIENTED_EDGE('',*,*,#203,.F.);
#162=ORIENTED_EDGE('',*,*,#202,.F.);
#163=ORIENTED_EDGE('',*,*,#203,.T.);
#164=ORIENTED_EDGE('',*,*,#200,.F.);
#165=ORIENTED_EDGE('',*,*,#194,.T.);
#166=ORIENTED_EDGE('',*,*,#204,.T.);
#167=ORIENTED_EDGE('',*,*,#205,.T.);
#168=ORIENTED_EDGE('',*,*,#204,.F.);
#169=ORIENTED_EDGE('',*,*,#206,.F.);
#170=ORIENTED_EDGE('',*,*,#205,.F.);
#171=ORIENTED_EDGE('',*,*,#206,.T.);
#172=ORIENTED_EDGE('',*,*,#207,.T.);
#173=ORIENTED_EDGE('',*,*,#208,.F.);
#174=ORIENTED_EDGE('',*,*,#208,.T.);
#175=ORIENTED_EDGE('',*,*,#207,.F.);
#176=VERTEX_POINT('',#409);
#177=VERTEX_POINT('',#411);
#178=VERTEX_POINT('',#414);
#179=VERTEX_POINT('',#416);
#180=VERTEX_POINT('',#419);
#181=VERTEX_POINT('',#422);
#182=VERTEX_POINT('',#424);
#183=VERTEX_POINT('',#429);
#184=VERTEX_POINT('',#432);
#185=VERTEX_POINT('',#435);
#186=VERTEX_POINT('',#438);
#187=VERTEX_POINT('',#443);
#188=VERTEX_POINT('',#446);
#189=VERTEX_POINT('',#449);
#190=VERTEX_POINT('',#452);
#191=VERTEX_POINT('',#454);
#192=VERTEX_POINT('',#456);
#193=EDGE_CURVE('',#176,#176,#209,.T.);
#194=EDGE_CURVE('',#177,#177,#210,.T.);
#195=EDGE_CURVE('',#178,#178,#211,.T.);
#196=EDGE_CURVE('',#179,#179,#212,.T.);
#197=EDGE_CURVE('',#180,#180,#213,.T.);
#198=EDGE_CURVE('',#181,#181,#214,.T.);
#199=EDGE_CURVE('',#182,#182,#215,.T.);
#200=EDGE_CURVE('',#183,#183,#216,.T.);
#201=EDGE_CURVE('',#184,#184,#217,.T.);
#202=EDGE_CURVE('',#185,#185,#218,.T.);
#203=EDGE_CURVE('',#186,#186,#219,.T.);
#204=EDGE_CURVE('',#187,#187,#220,.T.);
#205=EDGE_CURVE('',#188,#188,#221,.T.);
#206=EDGE_CURVE('',#189,#189,#222,.T.);
#207=EDGE_CURVE('',#190,#190,#223,.T.);
#208=EDGE_CURVE('',#192,#192,#224,.T.);
#209=CIRCLE('',#269,5.07681168316157);
#210=CIRCLE('',#270,5.07681168316158);
#211=CIRCLE('',#272,3.35);
#212=CIRCLE('',#273,3.50000000000001);
#213=CIRCLE('',#275,3.34999999999999);
#214=CIRCLE('',#277,4.05000000000001);
#215=CIRCLE('',#278,4.90181168316156);
#216=CIRCLE('',#282,3.5);
#217=CIRCLE('',#284,1.96);
#218=CIRCLE('',#286,3.36);
#219=CIRCLE('',#288,3.36);
#220=CIRCLE('',#292,5.07681168316158);
#221=CIRCLE('',#294,5.07681168316158);
#222=CIRCLE('',#296,4.425);
#223=CIRCLE('',#298,3.92500000000002);
#224=CIRCLE('',#300,1.65000000000002);
#225=CURVE_STYLE('',#229,POSITIVE_LENGTH_MEASURE(0.18),#235);
#226=CURVE_STYLE('',#230,POSITIVE_LENGTH_MEASURE(0.13),#262);
#227=CURVE_STYLE('',#231,POSITIVE_LENGTH_MEASURE(0.18),#261);
#228=CURVE_STYLE('',#232,POSITIVE_LENGTH_MEASURE(0.18),#261);
#229=DRAUGHTING_PRE_DEFINED_CURVE_FONT('continuous');
#230=DRAUGHTING_PRE_DEFINED_CURVE_FONT('continuous');
#231=DRAUGHTING_PRE_DEFINED_CURVE_FONT('continuous');
#232=DRAUGHTING_PRE_DEFINED_CURVE_FONT('continuous');
#233=B_SPLINE_CURVE_WITH_KNOTS('CUTTING PART LINE',3,(#383,#384,#385,#386,
#387,#388,#389,#390,#391,#392,#393,#394,#395,#396,#397,#398,#399,#400,#401,
#402,#403,#404),.UNSPECIFIED.,.T.,.F.,(4,3,3,3,3,3,3,4),(0.,0.389218350009247,
0.524098095169919,0.79940499692794,0.858777258345221,0.877563533745909,
0.938005291170554,1.),.UNSPECIFIED.);
#234=DRAUGHTING_PRE_DEFINED_COLOUR('white');
#235=DRAUGHTING_PRE_DEFINED_COLOUR('blue');
#236=PRESENTATION_LAYER_ASSIGNMENT('1','Layer 1',(#380,#381,#382,#233,#266,
#267,#268,#39,#40));
#237=STYLED_ITEM('',(#246),#380);
#238=STYLED_ITEM('',(#247),#381);
#239=STYLED_ITEM('',(#248),#382);
#240=STYLED_ITEM('',(#249),#233);
#241=STYLED_ITEM('',(#250),#266);
#242=STYLED_ITEM('',(#251),#267);
#243=STYLED_ITEM('',(#252),#268);
#244=STYLED_ITEM('',(#253),#39);
#245=STYLED_ITEM('',(#254),#40);
#246=PRESENTATION_STYLE_ASSIGNMENT((#255));
#247=PRESENTATION_STYLE_ASSIGNMENT((#256));
#248=PRESENTATION_STYLE_ASSIGNMENT((#257));
#249=PRESENTATION_STYLE_ASSIGNMENT((#225));
#250=PRESENTATION_STYLE_ASSIGNMENT((#226));
#251=PRESENTATION_STYLE_ASSIGNMENT((#227));
#252=PRESENTATION_STYLE_ASSIGNMENT((#228));
#253=PRESENTATION_STYLE_ASSIGNMENT((#29));
#254=PRESENTATION_STYLE_ASSIGNMENT((#30));
#255=POINT_STYLE('',#258,POSITIVE_LENGTH_MEASURE(3.),#261);
#256=POINT_STYLE('',#259,POSITIVE_LENGTH_MEASURE(3.),#234);
#257=POINT_STYLE('',#260,POSITIVE_LENGTH_MEASURE(3.),#261);
#258=PRE_DEFINED_POINT_MARKER_SYMBOL('plus');
#259=PRE_DEFINED_POINT_MARKER_SYMBOL('plus');
#260=PRE_DEFINED_POINT_MARKER_SYMBOL('plus');
#261=COLOUR_RGB('Medium Maroon',0.6,0.4,0.4);
#262=COLOUR_RGB('Silver Gray',0.6,0.6,0.6);
#263=COLOUR_RGB('TLS_NOCUT',0.498023956664378,0.498023956664378,0.498023956664378);
#264=COLOUR_RGB('TLS_CUT',0.8,0.8,0.8);
#265=AXIS2_PLACEMENT_3D('',#379,#303,#304);
#266=AXIS2_PLACEMENT_3D('PCS',#405,#305,#306);
#267=AXIS2_PLACEMENT_3D('MCS',#406,#307,#308);
#268=AXIS2_PLACEMENT_3D('CIP',#407,#309,#310);
#269=AXIS2_PLACEMENT_3D('',#408,#311,#312);
#270=AXIS2_PLACEMENT_3D('',#410,#313,#314);
#271=AXIS2_PLACEMENT_3D('',#412,#315,#316);
#272=AXIS2_PLACEMENT_3D('',#413,#317,#318);
#273=AXIS2_PLACEMENT_3D('',#415,#319,#320);
#274=AXIS2_PLACEMENT_3D('',#417,#321,#322);
#275=AXIS2_PLACEMENT_3D('',#418,#323,#324);
#276=AXIS2_PLACEMENT_3D('',#420,#325,#326);
#277=AXIS2_PLACEMENT_3D('',#421,#327,#328);
#278=AXIS2_PLACEMENT_3D('',#423,#329,#330);
#279=AXIS2_PLACEMENT_3D('',#425,#331,#332);
#280=AXIS2_PLACEMENT_3D('',#426,#333,#334);
#281=AXIS2_PLACEMENT_3D('',#427,#335,#336);
#282=AXIS2_PLACEMENT_3D('',#428,#337,#338);
#283=AXIS2_PLACEMENT_3D('',#430,#339,#340);
#284=AXIS2_PLACEMENT_3D('',#431,#341,#342);
#285=AXIS2_PLACEMENT_3D('',#433,#343,#344);
#286=AXIS2_PLACEMENT_3D('',#434,#345,#346);
#287=AXIS2_PLACEMENT_3D('',#436,#347,#348);
#288=AXIS2_PLACEMENT_3D('',#437,#349,#350);
#289=AXIS2_PLACEMENT_3D('',#439,#351,#352);
#290=AXIS2_PLACEMENT_3D('',#440,#353,#354);
#291=AXIS2_PLACEMENT_3D('',#441,#355,#356);
#292=AXIS2_PLACEMENT_3D('',#442,#357,#358);
#293=AXIS2_PLACEMENT_3D('',#444,#359,#360);
#294=AXIS2_PLACEMENT_3D('',#445,#361,#362);
#295=AXIS2_PLACEMENT_3D('',#447,#363,#364);
#296=AXIS2_PLACEMENT_3D('',#448,#365,#366);
#297=AXIS2_PLACEMENT_3D('',#450,#367,#368);
#298=AXIS2_PLACEMENT_3D('',#451,#369,#370);
#299=AXIS2_PLACEMENT_3D('',#453,#371,#372);
#300=AXIS2_PLACEMENT_3D('',#455,#373,#374);
#301=AXIS2_PLACEMENT_3D('',#457,#375,#376);
#302=AXIS2_PLACEMENT_3D('',#458,#377,#378);
#303=DIRECTION('',(0.,0.,1.));
#304=DIRECTION('',(1.,0.,0.));
#305=DIRECTION('',(0.,0.,1.));
#306=DIRECTION('',(1.,0.,0.));
#307=DIRECTION('',(0.,0.,1.));
#308=DIRECTION('',(1.,0.,0.));
#309=DIRECTION('',(0.,0.,1.));
#310=DIRECTION('',(1.,0.,0.));
#311=DIRECTION('',(0.,0.,1.));
#312=DIRECTION('',(1.,0.,0.));
#313=DIRECTION('',(0.,0.,-1.));
#314=DIRECTION('',(-1.,0.,0.));
#315=DIRECTION('',(0.,0.,1.));
#316=DIRECTION('',(1.,0.,0.));
#317=DIRECTION('',(1.3273293316317E-16,0.,-1.));
#318=DIRECTION('',(-1.,0.,0.));
#319=DIRECTION('',(0.,0.,1.));
#320=DIRECTION('',(1.,0.,0.));
#321=DIRECTION('',(1.3273293316317E-16,0.,-1.));
#322=DIRECTION('',(-1.,0.,0.));
#323=DIRECTION('',(-1.3273293316317E-16,0.,1.));
#324=DIRECTION('',(-1.,0.,0.));
#325=DIRECTION('',(1.3273293316317E-16,0.,-1.));
#326=DIRECTION('',(-1.,0.,0.));
#327=DIRECTION('',(1.3273293316317E-16,0.,-1.));
#328=DIRECTION('',(-1.,0.,0.));
#329=DIRECTION('',(1.3273293316317E-16,0.,-1.));
#330=DIRECTION('',(-1.,0.,0.));
#331=DIRECTION('',(1.3273293316317E-16,0.,-1.));
#332=DIRECTION('',(-1.,0.,-1.03959408520918E-16));
#333=DIRECTION('',(1.3273293316317E-16,0.,-1.));
#334=DIRECTION('',(-1.,0.,0.));
#335=DIRECTION('',(0.,0.,-1.));
#336=DIRECTION('',(-1.,0.,0.));
#337=DIRECTION('',(0.,0.,-1.));
#338=DIRECTION('',(-1.,0.,0.));
#339=DIRECTION('',(0.,0.,1.));
#340=DIRECTION('',(1.,0.,0.));
#341=DIRECTION('',(0.,0.,1.));
#342=DIRECTION('',(1.,0.,0.));
#343=DIRECTION('',(2.27845787379612E-16,0.,-1.));
#344=DIRECTION('',(-1.,0.,-2.27845787379612E-16));
#345=DIRECTION('',(0.,0.,1.));
#346=DIRECTION('',(-1.,0.,0.));
#347=DIRECTION('',(0.,0.,-1.));
#348=DIRECTION('',(-1.,0.,0.));
#349=DIRECTION('',(0.,0.,-1.));
#350=DIRECTION('',(1.,0.,0.));
#351=DIRECTION('',(0.,0.,1.));
#352=DIRECTION('',(1.,0.,0.));
#353=DIRECTION('',(0.,0.,-1.));
#354=DIRECTION('',(-1.,0.,-3.45321683283927E-17));
#355=DIRECTION('',(0.,0.,-1.));
#356=DIRECTION('',(-1.,0.,0.));
#357=DIRECTION('',(0.,0.,1.));
#358=DIRECTION('',(1.,0.,0.));
#359=DIRECTION('',(0.,0.,1.));
#360=DIRECTION('',(1.,0.,0.));
#361=DIRECTION('',(0.,0.,1.));
#362=DIRECTION('',(1.,0.,0.));
#363=DIRECTION('',(0.,0.,1.));
#364=DIRECTION('',(1.,0.,0.));
#365=DIRECTION('',(0.,0.,-1.));
#366=DIRECTION('',(1.,0.,0.));
#367=DIRECTION('',(0.,0.,1.));
#368=DIRECTION('',(1.,0.,-8.97206487338139E-17));
#369=DIRECTION('',(0.,0.,1.));
#370=DIRECTION('',(1.,0.,0.));
#371=DIRECTION('',(0.,0.,1.));
#372=DIRECTION('',(1.,0.,2.76470609015911E-17));
#373=DIRECTION('',(3.36431219583377E-17,0.,1.));
#374=DIRECTION('',(1.,0.,0.));
#375=DIRECTION('',(3.36431219583377E-17,0.,1.));
#376=DIRECTION('',(1.,0.,2.77098543559418E-17));
#377=DIRECTION('',(0.,0.,1.));
#378=DIRECTION('',(1.,0.,0.));
#379=CARTESIAN_POINT('',(0.,0.,0.));
#380=CARTESIAN_POINT('',(0.,0.,-23.));
#381=CARTESIAN_POINT('CRP',(-4.90181168316157,0.,-90.));
#382=CARTESIAN_POINT('CIP_DCSYS',(0.,0.,-90.));
#383=CARTESIAN_POINT('',(0.,0.,-91.65));
#384=CARTESIAN_POINT('',(0.,0.,-86.7666666666667));
#385=CARTESIAN_POINT('',(0.,0.,-81.8833333333333));
#386=CARTESIAN_POINT('',(0.,0.,-77.));
#387=CARTESIAN_POINT('',(-1.69227056105386,0.,-77.));
#388=CARTESIAN_POINT('',(-3.38454112210772,0.,-77.));
#389=CARTESIAN_POINT('',(-5.07681168316158,0.,-77.));
#390=CARTESIAN_POINT('',(-5.07681168316158,0.,-80.4541417952857));
#391=CARTESIAN_POINT('',(-5.07681168316158,0.,-83.9082835905713));
#392=CARTESIAN_POINT('',(-5.07681168316158,0.,-87.362425385857));
#393=CARTESIAN_POINT('',(-4.85954112210772,0.,-88.074950257238));
#394=CARTESIAN_POINT('',(-4.64227056105386,0.,-88.787475128619));
#395=CARTESIAN_POINT('',(-4.425,0.,-89.5));
#396=CARTESIAN_POINT('',(-4.25833333333334,0.,-89.6666666666667));
#397=CARTESIAN_POINT('',(-4.09166666666668,0.,-89.8333333333333));
#398=CARTESIAN_POINT('',(-3.92500000000002,0.,-90.));
#399=CARTESIAN_POINT('',(-3.16666666666668,0.,-90.));
#400=CARTESIAN_POINT('',(-2.40833333333335,0.,-90.));
#401=CARTESIAN_POINT('',(-1.65000000000002,0.,-90.));
#402=CARTESIAN_POINT('',(-1.10000000000001,0.,-90.55));
#403=CARTESIAN_POINT('',(-0.550000000000011,0.,-91.1));
#404=CARTESIAN_POINT('',(-8.65973959207622E-15,0.,-91.65));
#405=CARTESIAN_POINT('',(0.,0.,0.));
#406=CARTESIAN_POINT('',(0.,0.,-23.));
#407=CARTESIAN_POINT('',(0.,0.,-90.));
#408=CARTESIAN_POINT('',(0.,0.,-76.8989637028918));
#409=CARTESIAN_POINT('',(5.07681168316157,0.,-76.8989637028918));
#410=CARTESIAN_POINT('',(0.,0.,-77.));
#411=CARTESIAN_POINT('',(-5.07681168316158,0.,-77.));
#412=CARTESIAN_POINT('',(0.,0.,-90.));
#413=CARTESIAN_POINT('',(5.0128121507128E-15,0.,-47.6538348415311));
#414=CARTESIAN_POINT('',(-3.34999999999999,0.,-47.6538348415311));
#415=CARTESIAN_POINT('',(0.,0.,-47.));
#416=CARTESIAN_POINT('',(3.50000000000001,0.,-47.));
#417=CARTESIAN_POINT('',(5.20417042793042E-15,0.,-47.6538348415311));
#418=CARTESIAN_POINT('',(8.66839653544365E-15,0.,-75.1947344330214));
#419=CARTESIAN_POINT('',(-3.34999999999998,0.,-75.1947344330214));
#420=CARTESIAN_POINT('',(4.88498130835069E-15,0.,-46.6907668273182));
#421=CARTESIAN_POINT('',(8.82932666429703E-15,0.,-76.4071699983196));
#422=CARTESIAN_POINT('',(-4.05,0.,-76.4071699983196));
#423=CARTESIAN_POINT('',(8.89460388521607E-15,0.,-76.8989637028918));
#424=CARTESIAN_POINT('',(-4.90181168316155,0.,-76.8989637028918));
#425=CARTESIAN_POINT('',(8.77568328801257E-15,0.,-76.0030248098869));
#426=CARTESIAN_POINT('',(8.66839653544365E-15,0.,-75.1947344330214));
#427=CARTESIAN_POINT('',(5.07681168316157,0.,-76.8989637028918));
#428=CARTESIAN_POINT('',(0.,0.,-8.94));
#429=CARTESIAN_POINT('',(-3.5,0.,-8.94));
#430=CARTESIAN_POINT('',(0.,0.,20.9080749503476));
#431=CARTESIAN_POINT('',(0.,0.,0.));
#432=CARTESIAN_POINT('',(1.96,0.,0.));
#433=CARTESIAN_POINT('',(3.7,0.,4.21514706652283E-16));
#434=CARTESIAN_POINT('',(0.,0.,-1.4));
#435=CARTESIAN_POINT('',(-3.36,0.,-1.4));
#436=CARTESIAN_POINT('',(0.,0.,0.));
#437=CARTESIAN_POINT('',(0.,0.,-8.8));
#438=CARTESIAN_POINT('',(3.36,0.,-8.8));
#439=CARTESIAN_POINT('',(0.,0.,20.9080749503476));
#440=CARTESIAN_POINT('',(0.,0.,-10.14));
#441=CARTESIAN_POINT('',(0.,0.,-77.));
#442=CARTESIAN_POINT('',(0.,0.,-77.));
#443=CARTESIAN_POINT('',(5.07681168316158,0.,-77.));
#444=CARTESIAN_POINT('',(0.,0.,-77.));
#445=CARTESIAN_POINT('',(0.,0.,-87.362425385857));
#446=CARTESIAN_POINT('',(5.07681168316158,0.,-87.362425385857));
#447=CARTESIAN_POINT('',(0.,0.,-90.));
#448=CARTESIAN_POINT('',(0.,0.,-89.5));
#449=CARTESIAN_POINT('',(4.425,0.,-89.5));
#450=CARTESIAN_POINT('',(0.,0.,-89.5));
#451=CARTESIAN_POINT('',(0.,0.,-90.));
#452=CARTESIAN_POINT('',(3.92500000000002,0.,-90.));
#453=CARTESIAN_POINT('',(0.,0.,-90.));
#454=CARTESIAN_POINT('',(0.,0.,-91.65));
#455=CARTESIAN_POINT('',(2.16667118743564E-31,0.,-90.));
#456=CARTESIAN_POINT('',(1.65000000000002,0.,-90.));
#457=CARTESIAN_POINT('',(2.16667118743564E-31,0.,-90.));
#458=CARTESIAN_POINT('',(0.,0.,-90.));
#459=MECHANICAL_DESIGN_GEOMETRIC_PRESENTATION_REPRESENTATION('',(#237,#238,
#239,#240,#241,#242,#243,#244,#245),#460);
#460=(
GEOMETRIC_REPRESENTATION_CONTEXT(3)
GLOBAL_UNCERTAINTY_ASSIGNED_CONTEXT((#461))
GLOBAL_UNIT_ASSIGNED_CONTEXT((#467,#463,#462))
REPRESENTATION_CONTEXT('tool','TOP_LEVEL_ASSEMBLY_PART')
);
#461=UNCERTAINTY_MEASURE_WITH_UNIT(LENGTH_MEASURE(2.E-5),#467,
'DISTANCE_ACCURACY_VALUE','Maximum Tolerance applied to model');
#462=(
NAMED_UNIT(*)
SI_UNIT($,.STERADIAN.)
SOLID_ANGLE_UNIT()
);
#463=(
CONVERSION_BASED_UNIT('DEGREE',#465)
NAMED_UNIT(#464)
PLANE_ANGLE_UNIT()
);
#464=DIMENSIONAL_EXPONENTS(0.,0.,0.,0.,0.,0.,0.);
#465=PLANE_ANGLE_MEASURE_WITH_UNIT(PLANE_ANGLE_MEASURE(0.0174532925),#466);
#466=(
NAMED_UNIT(*)
PLANE_ANGLE_UNIT()
SI_UNIT($,.RADIAN.)
);
#467=(
LENGTH_UNIT()
NAMED_UNIT(*)
SI_UNIT(.MILLI.,.METRE.)
);
ENDSEC;
END-ISO-10303-21;
