ISO-10303-21;
HEADER;
/* Generated by software containing ST-Developer
 * from STEP Tools, Inc. (www.steptools.com) 
 */
/* OPTION: using custom schema-name function */

FILE_DESCRIPTION(
/* description */ (''),
/* implementation_level */ '2;1');

FILE_NAME(
/* name */ 'tool.stp',
/* time_stamp */ '2022-04-26T05:29:45+02:00',
/* author */ (''),
/* organization */ ('SMS'),
/* preprocessor_version */ 'ST-DEVELOPER v16.7',
/* originating_system */ 'SIEMENS PLM Software NX 12.0',
/* authorisation */ '');

FILE_SCHEMA (('AUTOMOTIVE_DESIGN { 1 0 10303 214 3 1 1 1 }'));
ENDSEC;

DATA;
#10=CONSTRUCTIVE_GEOMETRY_REPRESENTATION_RELATIONSHIP(
'supplemental geometry','',#26,#11);
#11=CONSTRUCTIVE_GEOMETRY_REPRESENTATION('supplemental geometry',(#313,
#314,#315),#550);
#12=GEOMETRICALLY_BOUNDED_WIREFRAME_SHAPE_REPRESENTATION('Tool-None',(#27),
#550);
#13=SHAPE_REPRESENTATION_RELATIONSHIP('None',
'relationship between Tool-None and Tool-None',#26,#15);
#14=SHAPE_REPRESENTATION_RELATIONSHIP('None',
'relationship between Tool-None and Tool-None',#26,#12);
#15=ADVANCED_BREP_SHAPE_REPRESENTATION('Tool-None',(#38,#39),#550);
#16=SHAPE_DEFINITION_REPRESENTATION(#17,#26);
#17=PRODUCT_DEFINITION_SHAPE('','',#18);
#18=PRODUCT_DEFINITION(' ','',#20,#19);
#19=PRODUCT_DEFINITION_CONTEXT('part definition',#25,'design');
#20=PRODUCT_DEFINITION_FORMATION_WITH_SPECIFIED_SOURCE(' ',' ',#22,
 .NOT_KNOWN.);
#21=PRODUCT_RELATED_PRODUCT_CATEGORY('part','',(#22));
#22=PRODUCT('Tool','Tool',' ',(#23));
#23=PRODUCT_CONTEXT(' ',#25,'mechanical');
#24=APPLICATION_PROTOCOL_DEFINITION('international standard',
'automotive_design',2010,#25);
#25=APPLICATION_CONTEXT(
'core data for automotive mechanical design processes');
#26=SHAPE_REPRESENTATION('Tool-None',(#312),#550);
#27=GEOMETRIC_CURVE_SET('None',(#451,#452,#453,#280));
#28=SURFACE_STYLE_USAGE(.BOTH.,#30);
#29=SURFACE_STYLE_USAGE(.BOTH.,#31);
#30=SURFACE_SIDE_STYLE('',(#32));
#31=SURFACE_SIDE_STYLE('',(#33));
#32=SURFACE_STYLE_FILL_AREA(#34);
#33=SURFACE_STYLE_FILL_AREA(#35);
#34=FILL_AREA_STYLE('',(#36));
#35=FILL_AREA_STYLE('',(#37));
#36=FILL_AREA_STYLE_COLOUR('',#310);
#37=FILL_AREA_STYLE_COLOUR('',#311);
#38=MANIFOLD_SOLID_BREP('NOCUT',#40);
#39=MANIFOLD_SOLID_BREP('CUT',#41);
#40=CLOSED_SHELL('',(#61,#62,#63,#64,#65,#66,#67,#68,#69,#70,#71,#72,#73,
#74));
#41=CLOSED_SHELL('',(#75,#76,#77,#78,#79,#80,#81,#82));
#42=FACE_OUTER_BOUND('',#155,.T.);
#43=FACE_OUTER_BOUND('',#156,.T.);
#44=VERTEX_LOOP('',#223);
#45=VERTEX_LOOP('',#227);
#46=PLANE('',#331);
#47=PLANE('',#342);
#48=PLANE('',#344);
#49=PLANE('',#354);
#50=CONICAL_SURFACE('',#325,7.84999999999999,60.);
#51=CONICAL_SURFACE('',#333,5.58,45.);
#52=CONICAL_SURFACE('',#336,9.2,45.);
#53=CONICAL_SURFACE('',#338,1.,30.0000000000001);
#54=CONICAL_SURFACE('',#341,1.73472347597681E-15,59.9999999999999);
#55=CONICAL_SURFACE('',#348,0.,60.0000000000003);
#56=CONICAL_SURFACE('',#352,1.,29.9999999999989);
#57=CONICAL_SURFACE('',#356,7.64999999999998,45.0000000000005);
#58=CONICAL_SURFACE('',#357,8.65,14.9755599238729);
#59=TOROIDAL_SURFACE('',#321,9.34999999999999,1.5);
#60=TOROIDAL_SURFACE('',#326,9.24999999999999,1.4);
#61=ADVANCED_FACE('',(#90,#91),#83,.T.);
#62=ADVANCED_FACE('',(#92,#93),#59,.F.);
#63=ADVANCED_FACE('',(#94,#95),#84,.T.);
#64=ADVANCED_FACE('',(#96,#97),#50,.T.);
#65=ADVANCED_FACE('',(#98,#99),#60,.F.);
#66=ADVANCED_FACE('',(#100,#101),#85,.T.);
#67=ADVANCED_FACE('',(#102,#103),#46,.F.);
#68=ADVANCED_FACE('',(#104,#105),#51,.T.);
#69=ADVANCED_FACE('',(#106,#107),#86,.T.);
#70=ADVANCED_FACE('',(#108,#109),#52,.T.);
#71=ADVANCED_FACE('',(#110,#111),#53,.F.);
#72=ADVANCED_FACE('',(#112,#113),#87,.F.);
#73=ADVANCED_FACE('',(#114,#115),#54,.F.);
#74=ADVANCED_FACE('',(#42),#47,.T.);
#75=ADVANCED_FACE('',(#43),#48,.T.);
#76=ADVANCED_FACE('',(#116,#117),#88,.T.);
#77=ADVANCED_FACE('',(#118,#119),#55,.F.);
#78=ADVANCED_FACE('',(#120,#121),#89,.F.);
#79=ADVANCED_FACE('',(#122,#123),#56,.F.);
#80=ADVANCED_FACE('',(#124,#125),#49,.F.);
#81=ADVANCED_FACE('',(#126,#127),#57,.T.);
#82=ADVANCED_FACE('',(#128,#129),#58,.T.);
#83=CYLINDRICAL_SURFACE('',#318,10.0928533083231);
#84=CYLINDRICAL_SURFACE('',#323,7.84999999999999);
#85=CYLINDRICAL_SURFACE('',#328,8.00000000000001);
#86=CYLINDRICAL_SURFACE('',#335,7.68);
#87=CYLINDRICAL_SURFACE('',#340,1.);
#88=CYLINDRICAL_SURFACE('',#346,10.0928533083231);
#89=CYLINDRICAL_SURFACE('',#350,1.);
#90=FACE_BOUND('',#130,.T.);
#91=FACE_BOUND('',#131,.T.);
#92=FACE_BOUND('',#132,.T.);
#93=FACE_BOUND('',#133,.T.);
#94=FACE_BOUND('',#134,.T.);
#95=FACE_BOUND('',#135,.T.);
#96=FACE_BOUND('',#136,.T.);
#97=FACE_BOUND('',#137,.T.);
#98=FACE_BOUND('',#138,.T.);
#99=FACE_BOUND('',#139,.T.);
#100=FACE_BOUND('',#140,.T.);
#101=FACE_BOUND('',#141,.T.);
#102=FACE_BOUND('',#142,.T.);
#103=FACE_BOUND('',#143,.T.);
#104=FACE_BOUND('',#144,.T.);
#105=FACE_BOUND('',#145,.T.);
#106=FACE_BOUND('',#146,.T.);
#107=FACE_BOUND('',#147,.T.);
#108=FACE_BOUND('',#148,.T.);
#109=FACE_BOUND('',#149,.T.);
#110=FACE_BOUND('',#150,.T.);
#111=FACE_BOUND('',#151,.T.);
#112=FACE_BOUND('',#152,.T.);
#113=FACE_BOUND('',#153,.T.);
#114=FACE_BOUND('',#154,.T.);
#115=FACE_BOUND('',#44,.T.);
#116=FACE_BOUND('',#157,.T.);
#117=FACE_BOUND('',#158,.T.);
#118=FACE_BOUND('',#159,.T.);
#119=FACE_BOUND('',#45,.T.);
#120=FACE_BOUND('',#160,.T.);
#121=FACE_BOUND('',#161,.T.);
#122=FACE_BOUND('',#162,.T.);
#123=FACE_BOUND('',#163,.T.);
#124=FACE_BOUND('',#164,.T.);
#125=FACE_BOUND('',#165,.T.);
#126=FACE_BOUND('',#166,.T.);
#127=FACE_BOUND('',#167,.T.);
#128=FACE_BOUND('',#168,.T.);
#129=FACE_BOUND('',#169,.T.);
#130=EDGE_LOOP('',(#170));
#131=EDGE_LOOP('',(#171));
#132=EDGE_LOOP('',(#172));
#133=EDGE_LOOP('',(#173));
#134=EDGE_LOOP('',(#174));
#135=EDGE_LOOP('',(#175));
#136=EDGE_LOOP('',(#176));
#137=EDGE_LOOP('',(#177));
#138=EDGE_LOOP('',(#178));
#139=EDGE_LOOP('',(#179));
#140=EDGE_LOOP('',(#180));
#141=EDGE_LOOP('',(#181));
#142=EDGE_LOOP('',(#182));
#143=EDGE_LOOP('',(#183));
#144=EDGE_LOOP('',(#184));
#145=EDGE_LOOP('',(#185));
#146=EDGE_LOOP('',(#186));
#147=EDGE_LOOP('',(#187));
#148=EDGE_LOOP('',(#188));
#149=EDGE_LOOP('',(#189));
#150=EDGE_LOOP('',(#190));
#151=EDGE_LOOP('',(#191));
#152=EDGE_LOOP('',(#192));
#153=EDGE_LOOP('',(#193));
#154=EDGE_LOOP('',(#194));
#155=EDGE_LOOP('',(#195));
#156=EDGE_LOOP('',(#196));
#157=EDGE_LOOP('',(#197));
#158=EDGE_LOOP('',(#198));
#159=EDGE_LOOP('',(#199));
#160=EDGE_LOOP('',(#200));
#161=EDGE_LOOP('',(#201));
#162=EDGE_LOOP('',(#202));
#163=EDGE_LOOP('',(#203));
#164=EDGE_LOOP('',(#204));
#165=EDGE_LOOP('',(#205));
#166=EDGE_LOOP('',(#206));
#167=EDGE_LOOP('',(#207));
#168=EDGE_LOOP('',(#208));
#169=EDGE_LOOP('',(#209));
#170=ORIENTED_EDGE('',*,*,#232,.T.);
#171=ORIENTED_EDGE('',*,*,#233,.T.);
#172=ORIENTED_EDGE('',*,*,#234,.F.);
#173=ORIENTED_EDGE('',*,*,#235,.F.);
#174=ORIENTED_EDGE('',*,*,#236,.T.);
#175=ORIENTED_EDGE('',*,*,#234,.T.);
#176=ORIENTED_EDGE('',*,*,#237,.T.);
#177=ORIENTED_EDGE('',*,*,#232,.F.);
#178=ORIENTED_EDGE('',*,*,#236,.F.);
#179=ORIENTED_EDGE('',*,*,#237,.F.);
#180=ORIENTED_EDGE('',*,*,#235,.T.);
#181=ORIENTED_EDGE('',*,*,#238,.T.);
#182=ORIENTED_EDGE('',*,*,#239,.T.);
#183=ORIENTED_EDGE('',*,*,#240,.T.);
#184=ORIENTED_EDGE('',*,*,#240,.F.);
#185=ORIENTED_EDGE('',*,*,#241,.T.);
#186=ORIENTED_EDGE('',*,*,#242,.F.);
#187=ORIENTED_EDGE('',*,*,#241,.F.);
#188=ORIENTED_EDGE('',*,*,#242,.T.);
#189=ORIENTED_EDGE('',*,*,#238,.F.);
#190=ORIENTED_EDGE('',*,*,#243,.F.);
#191=ORIENTED_EDGE('',*,*,#239,.F.);
#192=ORIENTED_EDGE('',*,*,#243,.T.);
#193=ORIENTED_EDGE('',*,*,#244,.F.);
#194=ORIENTED_EDGE('',*,*,#244,.T.);
#195=ORIENTED_EDGE('',*,*,#233,.F.);
#196=ORIENTED_EDGE('',*,*,#245,.F.);
#197=ORIENTED_EDGE('',*,*,#246,.T.);
#198=ORIENTED_EDGE('',*,*,#245,.T.);
#199=ORIENTED_EDGE('',*,*,#247,.F.);
#200=ORIENTED_EDGE('',*,*,#248,.F.);
#201=ORIENTED_EDGE('',*,*,#247,.T.);
#202=ORIENTED_EDGE('',*,*,#248,.T.);
#203=ORIENTED_EDGE('',*,*,#249,.T.);
#204=ORIENTED_EDGE('',*,*,#249,.F.);
#205=ORIENTED_EDGE('',*,*,#250,.F.);
#206=ORIENTED_EDGE('',*,*,#251,.T.);
#207=ORIENTED_EDGE('',*,*,#250,.T.);
#208=ORIENTED_EDGE('',*,*,#251,.F.);
#209=ORIENTED_EDGE('',*,*,#246,.F.);
#210=VERTEX_POINT('',#486);
#211=VERTEX_POINT('',#488);
#212=VERTEX_POINT('',#491);
#213=VERTEX_POINT('',#493);
#214=VERTEX_POINT('',#496);
#215=VERTEX_POINT('',#499);
#216=VERTEX_POINT('',#503);
#217=VERTEX_POINT('',#506);
#218=VERTEX_POINT('',#508);
#219=VERTEX_POINT('',#511);
#220=VERTEX_POINT('',#514);
#221=VERTEX_POINT('',#518);
#222=VERTEX_POINT('',#521);
#223=VERTEX_POINT('',#523);
#224=VERTEX_POINT('',#527);
#225=VERTEX_POINT('',#530);
#226=VERTEX_POINT('',#533);
#227=VERTEX_POINT('',#534);
#228=VERTEX_POINT('',#537);
#229=VERTEX_POINT('',#540);
#230=VERTEX_POINT('',#543);
#231=VERTEX_POINT('',#546);
#232=EDGE_CURVE('',#210,#210,#252,.T.);
#233=EDGE_CURVE('',#211,#211,#253,.T.);
#234=EDGE_CURVE('',#212,#212,#254,.T.);
#235=EDGE_CURVE('',#213,#213,#255,.T.);
#236=EDGE_CURVE('',#214,#214,#256,.T.);
#237=EDGE_CURVE('',#215,#215,#257,.T.);
#238=EDGE_CURVE('',#216,#216,#258,.T.);
#239=EDGE_CURVE('',#217,#217,#259,.T.);
#240=EDGE_CURVE('',#218,#218,#260,.T.);
#241=EDGE_CURVE('',#219,#219,#261,.T.);
#242=EDGE_CURVE('',#220,#220,#262,.T.);
#243=EDGE_CURVE('',#221,#221,#263,.T.);
#244=EDGE_CURVE('',#222,#222,#264,.T.);
#245=EDGE_CURVE('',#224,#224,#265,.T.);
#246=EDGE_CURVE('',#225,#225,#266,.T.);
#247=EDGE_CURVE('',#226,#226,#267,.T.);
#248=EDGE_CURVE('',#228,#228,#268,.T.);
#249=EDGE_CURVE('',#229,#229,#269,.T.);
#250=EDGE_CURVE('',#230,#230,#270,.T.);
#251=EDGE_CURVE('',#231,#231,#271,.T.);
#252=CIRCLE('',#316,10.0928533083231);
#253=CIRCLE('',#317,10.0928533083231);
#254=CIRCLE('',#319,7.84999999999999);
#255=CIRCLE('',#320,8.00000000000001);
#256=CIRCLE('',#322,7.84999999999999);
#257=CIRCLE('',#324,8.54999999999999);
#258=CIRCLE('',#327,8.00000000000001);
#259=CIRCLE('',#329,1.55);
#260=CIRCLE('',#330,5.58);
#261=CIRCLE('',#332,7.68);
#262=CIRCLE('',#334,7.68);
#263=CIRCLE('',#337,1.);
#264=CIRCLE('',#339,1.);
#265=CIRCLE('',#343,10.0928533083231);
#266=CIRCLE('',#345,10.0928533083231);
#267=CIRCLE('',#347,1.);
#268=CIRCLE('',#349,1.);
#269=CIRCLE('',#351,1.55);
#270=CIRCLE('',#353,7.64999999999998);
#271=CIRCLE('',#355,8.65);
#272=CURVE_STYLE('',#276,POSITIVE_LENGTH_MEASURE(0.18),#282);
#273=CURVE_STYLE('',#277,POSITIVE_LENGTH_MEASURE(0.13),#309);
#274=CURVE_STYLE('',#278,POSITIVE_LENGTH_MEASURE(0.18),#308);
#275=CURVE_STYLE('',#279,POSITIVE_LENGTH_MEASURE(0.18),#308);
#276=DRAUGHTING_PRE_DEFINED_CURVE_FONT('continuous');
#277=DRAUGHTING_PRE_DEFINED_CURVE_FONT('continuous');
#278=DRAUGHTING_PRE_DEFINED_CURVE_FONT('continuous');
#279=DRAUGHTING_PRE_DEFINED_CURVE_FONT('continuous');
#280=B_SPLINE_CURVE_WITH_KNOTS('CUTTING PART LINE',3,(#454,#455,#456,#457,
#458,#459,#460,#461,#462,#463,#464,#465,#466,#467,#468,#469,#470,#471,#472,
#473,#474,#475,#476,#477,#478,#479,#480,#481),.UNSPECIFIED.,.T.,.F.,(4,
3,3,3,3,3,3,3,3,4),(0.,0.275556891416454,0.425033185119771,0.731937960494315,
0.749039205457458,0.789728094890472,0.806019218723455,0.896360905432154,
0.917305567495529,1.),.UNSPECIFIED.);
#281=DRAUGHTING_PRE_DEFINED_COLOUR('white');
#282=DRAUGHTING_PRE_DEFINED_COLOUR('blue');
#283=PRESENTATION_LAYER_ASSIGNMENT('1','Layer 1',(#451,#452,#453,#280,#313,
#314,#315,#38,#39));
#284=STYLED_ITEM('',(#293),#451);
#285=STYLED_ITEM('',(#294),#452);
#286=STYLED_ITEM('',(#295),#453);
#287=STYLED_ITEM('',(#296),#280);
#288=STYLED_ITEM('',(#297),#313);
#289=STYLED_ITEM('',(#298),#314);
#290=STYLED_ITEM('',(#299),#315);
#291=STYLED_ITEM('',(#300),#38);
#292=STYLED_ITEM('',(#301),#39);
#293=PRESENTATION_STYLE_ASSIGNMENT((#302));
#294=PRESENTATION_STYLE_ASSIGNMENT((#303));
#295=PRESENTATION_STYLE_ASSIGNMENT((#304));
#296=PRESENTATION_STYLE_ASSIGNMENT((#272));
#297=PRESENTATION_STYLE_ASSIGNMENT((#273));
#298=PRESENTATION_STYLE_ASSIGNMENT((#274));
#299=PRESENTATION_STYLE_ASSIGNMENT((#275));
#300=PRESENTATION_STYLE_ASSIGNMENT((#28));
#301=PRESENTATION_STYLE_ASSIGNMENT((#29));
#302=POINT_STYLE('',#305,POSITIVE_LENGTH_MEASURE(3.),#308);
#303=POINT_STYLE('',#306,POSITIVE_LENGTH_MEASURE(3.),#281);
#304=POINT_STYLE('',#307,POSITIVE_LENGTH_MEASURE(3.),#308);
#305=PRE_DEFINED_POINT_MARKER_SYMBOL('plus');
#306=PRE_DEFINED_POINT_MARKER_SYMBOL('plus');
#307=PRE_DEFINED_POINT_MARKER_SYMBOL('plus');
#308=COLOUR_RGB('Medium Maroon',0.6,0.4,0.4);
#309=COLOUR_RGB('Silver Gray',0.6,0.6,0.6);
#310=COLOUR_RGB('TLS_NOCUT',0.498023956664378,0.498023956664378,0.498023956664378);
#311=COLOUR_RGB('TLS_CUT',0.8,0.8,0.8);
#312=AXIS2_PLACEMENT_3D('',#450,#358,#359);
#313=AXIS2_PLACEMENT_3D('PCS',#482,#360,#361);
#314=AXIS2_PLACEMENT_3D('MCS',#483,#362,#363);
#315=AXIS2_PLACEMENT_3D('CIP',#484,#364,#365);
#316=AXIS2_PLACEMENT_3D('',#485,#366,#367);
#317=AXIS2_PLACEMENT_3D('',#487,#368,#369);
#318=AXIS2_PLACEMENT_3D('',#489,#370,#371);
#319=AXIS2_PLACEMENT_3D('',#490,#372,#373);
#320=AXIS2_PLACEMENT_3D('',#492,#374,#375);
#321=AXIS2_PLACEMENT_3D('',#494,#376,#377);
#322=AXIS2_PLACEMENT_3D('',#495,#378,#379);
#323=AXIS2_PLACEMENT_3D('',#497,#380,#381);
#324=AXIS2_PLACEMENT_3D('',#498,#382,#383);
#325=AXIS2_PLACEMENT_3D('',#500,#384,#385);
#326=AXIS2_PLACEMENT_3D('',#501,#386,#387);
#327=AXIS2_PLACEMENT_3D('',#502,#388,#389);
#328=AXIS2_PLACEMENT_3D('',#504,#390,#391);
#329=AXIS2_PLACEMENT_3D('',#505,#392,#393);
#330=AXIS2_PLACEMENT_3D('',#507,#394,#395);
#331=AXIS2_PLACEMENT_3D('',#509,#396,#397);
#332=AXIS2_PLACEMENT_3D('',#510,#398,#399);
#333=AXIS2_PLACEMENT_3D('',#512,#400,#401);
#334=AXIS2_PLACEMENT_3D('',#513,#402,#403);
#335=AXIS2_PLACEMENT_3D('',#515,#404,#405);
#336=AXIS2_PLACEMENT_3D('',#516,#406,#407);
#337=AXIS2_PLACEMENT_3D('',#517,#408,#409);
#338=AXIS2_PLACEMENT_3D('',#519,#410,#411);
#339=AXIS2_PLACEMENT_3D('',#520,#412,#413);
#340=AXIS2_PLACEMENT_3D('',#522,#414,#415);
#341=AXIS2_PLACEMENT_3D('',#524,#416,#417);
#342=AXIS2_PLACEMENT_3D('',#525,#418,#419);
#343=AXIS2_PLACEMENT_3D('',#526,#420,#421);
#344=AXIS2_PLACEMENT_3D('',#528,#422,#423);
#345=AXIS2_PLACEMENT_3D('',#529,#424,#425);
#346=AXIS2_PLACEMENT_3D('',#531,#426,#427);
#347=AXIS2_PLACEMENT_3D('',#532,#428,#429);
#348=AXIS2_PLACEMENT_3D('',#535,#430,#431);
#349=AXIS2_PLACEMENT_3D('',#536,#432,#433);
#350=AXIS2_PLACEMENT_3D('',#538,#434,#435);
#351=AXIS2_PLACEMENT_3D('',#539,#436,#437);
#352=AXIS2_PLACEMENT_3D('',#541,#438,#439);
#353=AXIS2_PLACEMENT_3D('',#542,#440,#441);
#354=AXIS2_PLACEMENT_3D('',#544,#442,#443);
#355=AXIS2_PLACEMENT_3D('',#545,#444,#445);
#356=AXIS2_PLACEMENT_3D('',#547,#446,#447);
#357=AXIS2_PLACEMENT_3D('',#548,#448,#449);
#358=DIRECTION('',(0.,0.,1.));
#359=DIRECTION('',(1.,0.,0.));
#360=DIRECTION('',(0.,0.,1.));
#361=DIRECTION('',(1.,0.,0.));
#362=DIRECTION('',(0.,0.,1.));
#363=DIRECTION('',(1.,0.,0.));
#364=DIRECTION('',(0.,0.,1.));
#365=DIRECTION('',(1.,0.,0.));
#366=DIRECTION('',(0.,0.,-1.));
#367=DIRECTION('',(-1.,0.,0.));
#368=DIRECTION('',(0.,0.,1.));
#369=DIRECTION('',(-1.,0.,0.));
#370=DIRECTION('',(0.,0.,1.));
#371=DIRECTION('',(1.,0.,0.));
#372=DIRECTION('',(1.17895553218112E-16,0.,-1.));
#373=DIRECTION('',(-1.,0.,0.));
#374=DIRECTION('',(0.,0.,1.));
#375=DIRECTION('',(1.,0.,0.));
#376=DIRECTION('',(1.17895553218112E-16,0.,-1.));
#377=DIRECTION('',(-1.,0.,0.));
#378=DIRECTION('',(-1.17895553218112E-16,0.,1.));
#379=DIRECTION('',(-1.,0.,0.));
#380=DIRECTION('',(1.17895553218112E-16,0.,-1.));
#381=DIRECTION('',(-1.,0.,0.));
#382=DIRECTION('',(1.17895553218112E-16,0.,-1.));
#383=DIRECTION('',(-1.,0.,0.));
#384=DIRECTION('',(1.17895553218112E-16,0.,-1.));
#385=DIRECTION('',(-1.,0.,-1.83452480849025E-16));
#386=DIRECTION('',(1.17895553218112E-16,0.,-1.));
#387=DIRECTION('',(-1.,0.,0.));
#388=DIRECTION('',(0.,0.,-1.));
#389=DIRECTION('',(-1.,0.,0.));
#390=DIRECTION('',(0.,0.,1.));
#391=DIRECTION('',(1.,0.,0.));
#392=DIRECTION('',(2.35985599349412E-16,0.,-1.));
#393=DIRECTION('',(-1.,0.,-2.35985599349412E-16));
#394=DIRECTION('',(0.,0.,1.));
#395=DIRECTION('',(1.,0.,0.));
#396=DIRECTION('',(2.35985599349412E-16,0.,-1.));
#397=DIRECTION('',(-1.,0.,-2.35985599349412E-16));
#398=DIRECTION('',(0.,0.,1.));
#399=DIRECTION('',(-1.,0.,0.));
#400=DIRECTION('',(0.,0.,-1.));
#401=DIRECTION('',(-1.,0.,0.));
#402=DIRECTION('',(0.,0.,-1.));
#403=DIRECTION('',(1.,0.,0.));
#404=DIRECTION('',(0.,0.,1.));
#405=DIRECTION('',(1.,0.,0.));
#406=DIRECTION('',(0.,0.,-1.));
#407=DIRECTION('',(-1.,0.,2.06269141019834E-17));
#408=DIRECTION('',(0.,0.,1.));
#409=DIRECTION('',(-1.,0.,0.));
#410=DIRECTION('',(0.,0.,1.));
#411=DIRECTION('',(1.,0.,6.59875485576661E-17));
#412=DIRECTION('',(0.,0.,1.));
#413=DIRECTION('',(-1.,0.,0.));
#414=DIRECTION('',(0.,0.,-1.));
#415=DIRECTION('',(-1.,0.,0.));
#416=DIRECTION('',(0.,0.,1.));
#417=DIRECTION('',(1.,0.,0.));
#418=DIRECTION('',(0.,0.,-1.));
#419=DIRECTION('',(-1.,0.,0.));
#420=DIRECTION('',(0.,0.,-1.));
#421=DIRECTION('',(1.,0.,0.));
#422=DIRECTION('',(0.,0.,1.));
#423=DIRECTION('',(1.,0.,0.));
#424=DIRECTION('',(0.,0.,1.));
#425=DIRECTION('',(1.,0.,0.));
#426=DIRECTION('',(0.,0.,1.));
#427=DIRECTION('',(1.,0.,0.));
#428=DIRECTION('',(0.,0.,1.));
#429=DIRECTION('',(-1.,0.,0.));
#430=DIRECTION('',(0.,0.,-1.));
#431=DIRECTION('',(-1.,0.,0.));
#432=DIRECTION('',(0.,0.,1.));
#433=DIRECTION('',(-1.,0.,0.));
#434=DIRECTION('',(0.,0.,-1.));
#435=DIRECTION('',(-1.,0.,0.));
#436=DIRECTION('',(0.,0.,-1.));
#437=DIRECTION('',(1.,0.,0.));
#438=DIRECTION('',(0.,0.,-1.));
#439=DIRECTION('',(-1.,0.,-1.43972833216733E-16));
#440=DIRECTION('',(0.,0.,1.));
#441=DIRECTION('',(1.,0.,0.));
#442=DIRECTION('',(0.,0.,1.));
#443=DIRECTION('',(1.,0.,0.));
#444=DIRECTION('',(0.,0.,-1.));
#445=DIRECTION('',(1.,0.,0.));
#446=DIRECTION('',(0.,0.,1.));
#447=DIRECTION('',(1.,0.,0.));
#448=DIRECTION('',(0.,0.,1.));
#449=DIRECTION('',(1.,0.,0.));
#450=CARTESIAN_POINT('',(0.,0.,0.));
#451=CARTESIAN_POINT('',(0.,0.,-45.));
#452=CARTESIAN_POINT('CRP',(-10.0928533083231,0.,-140.));
#453=CARTESIAN_POINT('CIP_DCSYS',(0.,0.,-140.));
#454=CARTESIAN_POINT('',(-10.0928533083231,0.,-133.605995735238));
#455=CARTESIAN_POINT('',(-10.0928533083231,0.,-127.403997156825));
#456=CARTESIAN_POINT('',(-10.0928533083231,0.,-121.201998578413));
#457=CARTESIAN_POINT('',(-10.0928533083231,0.,-115.));
#458=CARTESIAN_POINT('',(-6.72856887221538,0.,-115.));
#459=CARTESIAN_POINT('',(-3.36428443610769,0.,-115.));
#460=CARTESIAN_POINT('',(0.,0.,-115.));
#461=CARTESIAN_POINT('',(0.,0.,-121.90754991027));
#462=CARTESIAN_POINT('',(0.,0.,-128.81509982054));
#463=CARTESIAN_POINT('',(0.,0.,-135.72264973081));
#464=CARTESIAN_POINT('',(-0.333333333333333,0.,-135.91509982054));
#465=CARTESIAN_POINT('',(-0.666666666666667,0.,-136.10754991027));
#466=CARTESIAN_POINT('',(-1.,0.,-136.3));
#467=CARTESIAN_POINT('',(-1.,0.,-137.215790685279));
#468=CARTESIAN_POINT('',(-1.,0.,-138.131581370558));
#469=CARTESIAN_POINT('',(-1.,0.,-139.047372055837));
#470=CARTESIAN_POINT('',(-1.18333333333334,0.,-139.364914703891));
#471=CARTESIAN_POINT('',(-1.36666666666667,0.,-139.682457351946));
#472=CARTESIAN_POINT('',(-1.55,0.,-140.));
#473=CARTESIAN_POINT('',(-3.58333333333333,0.,-140.));
#474=CARTESIAN_POINT('',(-5.61666666666665,0.,-140.));
#475=CARTESIAN_POINT('',(-7.64999999999998,0.,-140.));
#476=CARTESIAN_POINT('',(-7.98333333333333,0.,-139.666666666667));
#477=CARTESIAN_POINT('',(-8.31666666666667,0.,-139.333333333333));
#478=CARTESIAN_POINT('',(-8.65,0.,-139.));
#479=CARTESIAN_POINT('',(-9.13095110277436,0.,-137.201998578413));
#480=CARTESIAN_POINT('',(-9.61190220554871,0.,-135.403997156825));
#481=CARTESIAN_POINT('',(-10.0928533083231,0.,-133.605995735238));
#482=CARTESIAN_POINT('',(0.,0.,0.));
#483=CARTESIAN_POINT('',(0.,0.,-45.));
#484=CARTESIAN_POINT('',(0.,0.,-140.));
#485=CARTESIAN_POINT('',(0.,0.,-114.884529946162));
#486=CARTESIAN_POINT('',(-10.0928533083231,0.,-114.884529946162));
#487=CARTESIAN_POINT('',(0.,0.,-115.));
#488=CARTESIAN_POINT('',(-10.0928533083231,0.,-115.));
#489=CARTESIAN_POINT('',(0.,0.,20.9080749503476));
#490=CARTESIAN_POINT('',(8.10714721362343E-15,0.,-68.6538348415311));
#491=CARTESIAN_POINT('',(-7.84999999999998,0.,-68.6538348415311));
#492=CARTESIAN_POINT('',(0.,0.,-68.));
#493=CARTESIAN_POINT('',(8.00000000000001,0.,-68.));
#494=CARTESIAN_POINT('',(8.67361737988404E-15,0.,-68.6538348415311));
#495=CARTESIAN_POINT('',(1.33095823854525E-14,0.,-112.781327607983));
#496=CARTESIAN_POINT('',(-7.84999999999997,0.,-112.781327607983));
#497=CARTESIAN_POINT('',(7.99360577730113E-15,0.,-67.6907668273182));
#498=CARTESIAN_POINT('',(1.34525231471647E-14,0.,-113.993763173282));
#499=CARTESIAN_POINT('',(-8.54999999999997,0.,-113.993763173282));
#500=CARTESIAN_POINT('',(1.3404876226594E-14,0.,-113.589617984849));
#501=CARTESIAN_POINT('',(1.33095823854525E-14,0.,-112.781327607983));
#502=CARTESIAN_POINT('',(0.,0.,-18.32));
#503=CARTESIAN_POINT('',(-8.00000000000001,0.,-18.32));
#504=CARTESIAN_POINT('',(0.,0.,20.9080749503476));
#505=CARTESIAN_POINT('',(-6.60794794149902E-16,0.,-9.75781955236954E-16));
#506=CARTESIAN_POINT('',(-1.55,0.,-1.34155963422854E-15));
#507=CARTESIAN_POINT('',(0.,0.,0.));
#508=CARTESIAN_POINT('',(5.58,0.,0.));
#509=CARTESIAN_POINT('',(8.20000000000001,0.,9.67540957332591E-16));
#510=CARTESIAN_POINT('',(0.,0.,-2.1));
#511=CARTESIAN_POINT('',(-7.68,0.,-2.1));
#512=CARTESIAN_POINT('',(0.,0.,0.));
#513=CARTESIAN_POINT('',(0.,0.,-18.));
#514=CARTESIAN_POINT('',(7.68,0.,-18.));
#515=CARTESIAN_POINT('',(0.,0.,20.9080749503476));
#516=CARTESIAN_POINT('',(0.,0.,-19.52));
#517=CARTESIAN_POINT('',(0.,0.,-0.952627944162881));
#518=CARTESIAN_POINT('',(-1.,0.,-0.952627944162881));
#519=CARTESIAN_POINT('',(0.,0.,-0.952627944162881));
#520=CARTESIAN_POINT('',(0.,0.,-3.7));
#521=CARTESIAN_POINT('',(-1.,0.,-3.7));
#522=CARTESIAN_POINT('',(0.,0.,20.9080749503476));
#523=CARTESIAN_POINT('',(0.,0.,-4.27735026918963));
#524=CARTESIAN_POINT('',(0.,0.,-4.27735026918963));
#525=CARTESIAN_POINT('',(0.,0.,-115.));
#526=CARTESIAN_POINT('',(0.,0.,-115.));
#527=CARTESIAN_POINT('',(10.0928533083231,0.,-115.));
#528=CARTESIAN_POINT('',(0.,0.,-115.));
#529=CARTESIAN_POINT('',(0.,0.,-133.605995735238));
#530=CARTESIAN_POINT('',(10.0928533083231,0.,-133.605995735238));
#531=CARTESIAN_POINT('',(0.,0.,20.9080749503476));
#532=CARTESIAN_POINT('',(0.,0.,-136.3));
#533=CARTESIAN_POINT('',(-1.,0.,-136.3));
#534=CARTESIAN_POINT('',(0.,0.,-135.72264973081));
#535=CARTESIAN_POINT('',(0.,0.,-135.72264973081));
#536=CARTESIAN_POINT('',(0.,0.,-139.047372055837));
#537=CARTESIAN_POINT('',(-1.,0.,-139.047372055837));
#538=CARTESIAN_POINT('',(0.,0.,20.9080749503476));
#539=CARTESIAN_POINT('',(0.,0.,-140.));
#540=CARTESIAN_POINT('',(1.55,0.,-140.));
#541=CARTESIAN_POINT('',(0.,0.,-139.047372055837));
#542=CARTESIAN_POINT('',(0.,0.,-140.));
#543=CARTESIAN_POINT('',(7.64999999999998,0.,-140.));
#544=CARTESIAN_POINT('',(0.,0.,-140.));
#545=CARTESIAN_POINT('',(0.,0.,-139.));
#546=CARTESIAN_POINT('',(8.65,0.,-139.));
#547=CARTESIAN_POINT('',(0.,0.,-140.));
#548=CARTESIAN_POINT('',(0.,0.,-139.));
#549=MECHANICAL_DESIGN_GEOMETRIC_PRESENTATION_REPRESENTATION('',(#284,#285,
#286,#287,#288,#289,#290,#291,#292),#550);
#550=(
GEOMETRIC_REPRESENTATION_CONTEXT(3)
GLOBAL_UNCERTAINTY_ASSIGNED_CONTEXT((#551))
GLOBAL_UNIT_ASSIGNED_CONTEXT((#557,#553,#552))
REPRESENTATION_CONTEXT('tool','TOP_LEVEL_ASSEMBLY_PART')
);
#551=UNCERTAINTY_MEASURE_WITH_UNIT(LENGTH_MEASURE(2.E-5),#557,
'DISTANCE_ACCURACY_VALUE','Maximum Tolerance applied to model');
#552=(
NAMED_UNIT(*)
SI_UNIT($,.STERADIAN.)
SOLID_ANGLE_UNIT()
);
#553=(
CONVERSION_BASED_UNIT('DEGREE',#555)
NAMED_UNIT(#554)
PLANE_ANGLE_UNIT()
);
#554=DIMENSIONAL_EXPONENTS(0.,0.,0.,0.,0.,0.,0.);
#555=PLANE_ANGLE_MEASURE_WITH_UNIT(PLANE_ANGLE_MEASURE(0.0174532925),#556);
#556=(
NAMED_UNIT(*)
PLANE_ANGLE_UNIT()
SI_UNIT($,.RADIAN.)
);
#557=(
LENGTH_UNIT()
NAMED_UNIT(*)
SI_UNIT(.MILLI.,.METRE.)
);
ENDSEC;
END-ISO-10303-21;
