ISO-10303-21;
HEADER;
/* Generated by software containing ST-Developer
 * from STEP Tools, Inc. (www.steptools.com) 
 */
/* OPTION: using custom schema-name function */

FILE_DESCRIPTION(
/* description */ (''),
/* implementation_level */ '2;1');

FILE_NAME(
/* name */ '1627396472270.stp',
/* time_stamp */ '2021-07-27T16:34:41+02:00',
/* author */ (''),
/* organization */ ('SMS'),
/* preprocessor_version */ 'ST-DEVELOPER v16.7',
/* originating_system */ 'SIEMENS PLM Software NX 12.0',
/* authorisation */ '');

FILE_SCHEMA (('AUTOMOTIVE_DESIGN { 1 0 10303 214 3 1 1 1 }'));
ENDSEC;

DATA;
#10=CONSTRUCTIVE_GEOMETRY_REPRESENTATION_RELATIONSHIP(
'supplemental geometry','',#26,#11);
#11=CONSTRUCTIVE_GEOMETRY_REPRESENTATION('supplemental geometry',(#178,
#179,#180),#291);
#12=GEOMETRICALLY_BOUNDED_WIREFRAME_SHAPE_REPRESENTATION(
'203644144mod000_00-None',(#27),#291);
#13=SHAPE_REPRESENTATION_RELATIONSHIP('None',
'relationship between 203644144mod000_00-None and 203644144mod000_00-N
one',#26,#15);
#14=SHAPE_REPRESENTATION_RELATIONSHIP('None',
'relationship between 203644144mod000_00-None and 203644144mod000_00-N
one',#26,#12);
#15=ADVANCED_BREP_SHAPE_REPRESENTATION('203644144mod000_00-None',(#40,#41),
#291);
#16=SHAPE_DEFINITION_REPRESENTATION(#17,#26);
#17=PRODUCT_DEFINITION_SHAPE('','',#18);
#18=PRODUCT_DEFINITION(' ','',#20,#19);
#19=PRODUCT_DEFINITION_CONTEXT('part definition',#25,'design');
#20=PRODUCT_DEFINITION_FORMATION_WITH_SPECIFIED_SOURCE(' ',' ',#22,
 .NOT_KNOWN.);
#21=PRODUCT_RELATED_PRODUCT_CATEGORY('part','',(#22));
#22=PRODUCT('203644144mod000_00','203644144mod000_00',' ',(#23));
#23=PRODUCT_CONTEXT(' ',#25,'mechanical');
#24=APPLICATION_PROTOCOL_DEFINITION('international standard',
'automotive_design',2010,#25);
#25=APPLICATION_CONTEXT(
'core data for automotive mechanical design processes');
#26=SHAPE_REPRESENTATION('203644144mod000_00-None',(#177),#291);
#27=GEOMETRIC_CURVE_SET('None',(#244,#245,#246,#247,#142));
#28=SPHERICAL_SURFACE('',#195,2.5);
#29=SPHERICAL_SURFACE('',#197,2.5);
#30=SURFACE_STYLE_USAGE(.BOTH.,#32);
#31=SURFACE_STYLE_USAGE(.BOTH.,#33);
#32=SURFACE_SIDE_STYLE('',(#34));
#33=SURFACE_SIDE_STYLE('',(#35));
#34=SURFACE_STYLE_FILL_AREA(#36);
#35=SURFACE_STYLE_FILL_AREA(#37);
#36=FILL_AREA_STYLE('',(#38));
#37=FILL_AREA_STYLE('',(#39));
#38=FILL_AREA_STYLE_COLOUR('',#175);
#39=FILL_AREA_STYLE_COLOUR('',#176);
#40=MANIFOLD_SOLID_BREP('NOCUT',#42);
#41=MANIFOLD_SOLID_BREP('CUT',#43);
#42=CLOSED_SHELL('',(#52,#53,#54,#55,#56,#57));
#43=CLOSED_SHELL('',(#58,#59,#60,#61));
#44=CONICAL_SURFACE('',#188,2.6,45.0000000000002);
#45=CONICAL_SURFACE('',#191,2.05,1.5);
#46=FACE_OUTER_BOUND('',#82,.T.);
#47=FACE_OUTER_BOUND('',#85,.T.);
#48=FACE_OUTER_BOUND('',#90,.T.);
#49=FACE_OUTER_BOUND('',#93,.T.);
#50=CYLINDRICAL_SURFACE('',#185,3.);
#51=CYLINDRICAL_SURFACE('',#194,2.5);
#52=ADVANCED_FACE('',(#66,#67),#62,.F.);
#53=ADVANCED_FACE('',(#68,#69),#50,.T.);
#54=ADVANCED_FACE('',(#46),#63,.T.);
#55=ADVANCED_FACE('',(#70,#71),#44,.T.);
#56=ADVANCED_FACE('',(#47),#64,.F.);
#57=ADVANCED_FACE('',(#72,#73),#45,.T.);
#58=ADVANCED_FACE('',(#74,#75),#51,.T.);
#59=ADVANCED_FACE('',(#48),#28,.T.);
#60=ADVANCED_FACE('',(#76,#77),#29,.T.);
#61=ADVANCED_FACE('',(#49),#65,.T.);
#62=PLANE('',#183);
#63=PLANE('',#187);
#64=PLANE('',#190);
#65=PLANE('',#198);
#66=FACE_BOUND('',#78,.T.);
#67=FACE_BOUND('',#79,.T.);
#68=FACE_BOUND('',#80,.T.);
#69=FACE_BOUND('',#81,.T.);
#70=FACE_BOUND('',#83,.T.);
#71=FACE_BOUND('',#84,.T.);
#72=FACE_BOUND('',#86,.T.);
#73=FACE_BOUND('',#87,.T.);
#74=FACE_BOUND('',#88,.T.);
#75=FACE_BOUND('',#89,.T.);
#76=FACE_BOUND('',#91,.T.);
#77=FACE_BOUND('',#92,.T.);
#78=EDGE_LOOP('',(#94));
#79=EDGE_LOOP('',(#95));
#80=EDGE_LOOP('',(#96));
#81=EDGE_LOOP('',(#97));
#82=EDGE_LOOP('',(#98));
#83=EDGE_LOOP('',(#99));
#84=EDGE_LOOP('',(#100));
#85=EDGE_LOOP('',(#101));
#86=EDGE_LOOP('',(#102));
#87=EDGE_LOOP('',(#103));
#88=EDGE_LOOP('',(#104));
#89=EDGE_LOOP('',(#105));
#90=EDGE_LOOP('',(#106));
#91=EDGE_LOOP('',(#107));
#92=EDGE_LOOP('',(#108));
#93=EDGE_LOOP('',(#109));
#94=ORIENTED_EDGE('',*,*,#118,.T.);
#95=ORIENTED_EDGE('',*,*,#119,.T.);
#96=ORIENTED_EDGE('',*,*,#120,.T.);
#97=ORIENTED_EDGE('',*,*,#119,.F.);
#98=ORIENTED_EDGE('',*,*,#121,.T.);
#99=ORIENTED_EDGE('',*,*,#120,.F.);
#100=ORIENTED_EDGE('',*,*,#121,.F.);
#101=ORIENTED_EDGE('',*,*,#122,.T.);
#102=ORIENTED_EDGE('',*,*,#122,.F.);
#103=ORIENTED_EDGE('',*,*,#118,.F.);
#104=ORIENTED_EDGE('',*,*,#123,.T.);
#105=ORIENTED_EDGE('',*,*,#124,.T.);
#106=ORIENTED_EDGE('',*,*,#123,.F.);
#107=ORIENTED_EDGE('',*,*,#125,.T.);
#108=ORIENTED_EDGE('',*,*,#124,.F.);
#109=ORIENTED_EDGE('',*,*,#125,.F.);
#110=VERTEX_POINT('',#265);
#111=VERTEX_POINT('',#267);
#112=VERTEX_POINT('',#270);
#113=VERTEX_POINT('',#273);
#114=VERTEX_POINT('',#277);
#115=VERTEX_POINT('',#281);
#116=VERTEX_POINT('',#283);
#117=VERTEX_POINT('',#287);
#118=EDGE_CURVE('',#110,#110,#126,.T.);
#119=EDGE_CURVE('',#111,#111,#127,.T.);
#120=EDGE_CURVE('',#112,#112,#128,.T.);
#121=EDGE_CURVE('',#113,#113,#129,.T.);
#122=EDGE_CURVE('',#114,#114,#130,.T.);
#123=EDGE_CURVE('',#115,#115,#131,.T.);
#124=EDGE_CURVE('',#116,#116,#132,.T.);
#125=EDGE_CURVE('',#117,#117,#133,.T.);
#126=CIRCLE('',#181,2.99269317649073);
#127=CIRCLE('',#182,3.);
#128=CIRCLE('',#184,3.);
#129=CIRCLE('',#186,2.6);
#130=CIRCLE('',#189,2.05);
#131=CIRCLE('',#192,2.5);
#132=CIRCLE('',#193,2.5);
#133=CIRCLE('',#196,2.05);
#134=CURVE_STYLE('',#138,POSITIVE_LENGTH_MEASURE(0.18),#144);
#135=CURVE_STYLE('',#139,POSITIVE_LENGTH_MEASURE(0.18),#174);
#136=CURVE_STYLE('',#140,POSITIVE_LENGTH_MEASURE(0.18),#174);
#137=CURVE_STYLE('',#141,POSITIVE_LENGTH_MEASURE(0.18),#174);
#138=DRAUGHTING_PRE_DEFINED_CURVE_FONT('continuous');
#139=DRAUGHTING_PRE_DEFINED_CURVE_FONT('continuous');
#140=DRAUGHTING_PRE_DEFINED_CURVE_FONT('continuous');
#141=DRAUGHTING_PRE_DEFINED_CURVE_FONT('continuous');
#142=TRIMMED_CURVE('CUTTING PART LINE',#143,(PARAMETER_VALUE(0.)),(
PARAMETER_VALUE(1.)),.T.,.PARAMETER.);
#143=(
BOUNDED_CURVE()
B_SPLINE_CURVE(3,(#248,#249,#250,#251,#252,#253,#254,#255,#256,#257,#258,
#259,#260),.UNSPECIFIED.,.F.,.F.)
B_SPLINE_CURVE_WITH_KNOTS((4,3,3,3,4),(0.,0.371538293385401,0.661909460276726,
0.806046528521252,1.),.UNSPECIFIED.)
CURVE()
GEOMETRIC_REPRESENTATION_ITEM()
RATIONAL_B_SPLINE_CURVE((0.585786437626905,0.471404520791032,0.471404520791032,
0.585786437626905,0.585786437626905,0.585786437626905,0.585786437626905,
0.56779857688276,0.56779857688276,0.585786437626905,0.585786437626905,0.585786437626905,
0.585786437626905))
REPRESENTATION_ITEM('CUTTING PART LINE')
);
#144=DRAUGHTING_PRE_DEFINED_COLOUR('blue');
#145=PRESENTATION_LAYER_ASSIGNMENT('1','Layer 1',(#244,#245,#246,#247,#142,
#178,#179,#180,#40,#41));
#146=STYLED_ITEM('',(#156),#244);
#147=STYLED_ITEM('',(#157),#245);
#148=STYLED_ITEM('',(#158),#246);
#149=STYLED_ITEM('',(#159),#247);
#150=STYLED_ITEM('',(#160),#142);
#151=STYLED_ITEM('',(#161),#178);
#152=STYLED_ITEM('',(#162),#179);
#153=STYLED_ITEM('',(#163),#180);
#154=STYLED_ITEM('',(#164),#40);
#155=STYLED_ITEM('',(#165),#41);
#156=PRESENTATION_STYLE_ASSIGNMENT((#166));
#157=PRESENTATION_STYLE_ASSIGNMENT((#167));
#158=PRESENTATION_STYLE_ASSIGNMENT((#168));
#159=PRESENTATION_STYLE_ASSIGNMENT((#169));
#160=PRESENTATION_STYLE_ASSIGNMENT((#134));
#161=PRESENTATION_STYLE_ASSIGNMENT((#135));
#162=PRESENTATION_STYLE_ASSIGNMENT((#136));
#163=PRESENTATION_STYLE_ASSIGNMENT((#137));
#164=PRESENTATION_STYLE_ASSIGNMENT((#30));
#165=PRESENTATION_STYLE_ASSIGNMENT((#31));
#166=POINT_STYLE('',#170,POSITIVE_LENGTH_MEASURE(3.),#174);
#167=POINT_STYLE('',#171,POSITIVE_LENGTH_MEASURE(3.),#174);
#168=POINT_STYLE('',#172,POSITIVE_LENGTH_MEASURE(3.),#174);
#169=POINT_STYLE('',#173,POSITIVE_LENGTH_MEASURE(3.),#144);
#170=PRE_DEFINED_POINT_MARKER_SYMBOL('plus');
#171=PRE_DEFINED_POINT_MARKER_SYMBOL('plus');
#172=PRE_DEFINED_POINT_MARKER_SYMBOL('plus');
#173=PRE_DEFINED_POINT_MARKER_SYMBOL('plus');
#174=COLOUR_RGB('Strong Stone',0.576470588235294,0.54508278019379,0.392156862745098);
#175=COLOUR_RGB('Medium Gray',0.501960784313725,0.501960784313725,0.501960784313725);
#176=COLOUR_RGB('Light Gray',0.8,0.8,0.8);
#177=AXIS2_PLACEMENT_3D('',#243,#199,#200);
#178=AXIS2_PLACEMENT_3D('PCS',#261,#201,#202);
#179=AXIS2_PLACEMENT_3D('CIP',#262,#203,#204);
#180=AXIS2_PLACEMENT_3D('MCS',#263,#205,#206);
#181=AXIS2_PLACEMENT_3D('',#264,#207,#208);
#182=AXIS2_PLACEMENT_3D('',#266,#209,#210);
#183=AXIS2_PLACEMENT_3D('',#268,#211,#212);
#184=AXIS2_PLACEMENT_3D('',#269,#213,#214);
#185=AXIS2_PLACEMENT_3D('',#271,#215,#216);
#186=AXIS2_PLACEMENT_3D('',#272,#217,#218);
#187=AXIS2_PLACEMENT_3D('',#274,#219,#220);
#188=AXIS2_PLACEMENT_3D('',#275,#221,#222);
#189=AXIS2_PLACEMENT_3D('',#276,#223,#224);
#190=AXIS2_PLACEMENT_3D('',#278,#225,#226);
#191=AXIS2_PLACEMENT_3D('',#279,#227,#228);
#192=AXIS2_PLACEMENT_3D('',#280,#229,#230);
#193=AXIS2_PLACEMENT_3D('',#282,#231,#232);
#194=AXIS2_PLACEMENT_3D('',#284,#233,#234);
#195=AXIS2_PLACEMENT_3D('',#285,#235,#236);
#196=AXIS2_PLACEMENT_3D('',#286,#237,#238);
#197=AXIS2_PLACEMENT_3D('',#288,#239,#240);
#198=AXIS2_PLACEMENT_3D('',#289,#241,#242);
#199=DIRECTION('',(0.,0.,1.));
#200=DIRECTION('',(1.,0.,0.));
#201=DIRECTION('',(0.,0.,1.));
#202=DIRECTION('',(1.,0.,0.));
#203=DIRECTION('',(0.,0.,1.));
#204=DIRECTION('',(1.,0.,0.));
#205=DIRECTION('',(0.,0.,1.));
#206=DIRECTION('',(1.,0.,0.));
#207=DIRECTION('',(0.,0.,1.));
#208=DIRECTION('',(1.,0.,0.));
#209=DIRECTION('',(0.,0.,-1.));
#210=DIRECTION('',(1.,0.,0.));
#211=DIRECTION('',(0.,0.,1.));
#212=DIRECTION('',(1.,0.,0.));
#213=DIRECTION('',(0.,0.,-1.));
#214=DIRECTION('',(1.,0.,0.));
#215=DIRECTION('',(0.,0.,1.));
#216=DIRECTION('',(1.,0.,0.));
#217=DIRECTION('',(0.,0.,1.));
#218=DIRECTION('',(1.,0.,0.));
#219=DIRECTION('',(0.,0.,1.));
#220=DIRECTION('',(1.,0.,0.));
#221=DIRECTION('',(0.,0.,-1.));
#222=DIRECTION('',(-1.,0.,0.));
#223=DIRECTION('',(0.,0.,-1.));
#224=DIRECTION('',(1.,0.,0.));
#225=DIRECTION('',(0.,0.,1.));
#226=DIRECTION('',(1.,0.,0.));
#227=DIRECTION('',(0.,0.,1.));
#228=DIRECTION('',(1.,0.,1.47448218828022E-15));
#229=DIRECTION('',(0.,0.,1.));
#230=DIRECTION('',(1.,0.,0.));
#231=DIRECTION('',(0.,0.,-1.));
#232=DIRECTION('',(-1.,0.,0.));
#233=DIRECTION('',(0.,0.,1.));
#234=DIRECTION('',(1.,0.,0.));
#235=DIRECTION('',(6.12323399573677E-17,0.,1.));
#236=DIRECTION('',(1.,0.,0.));
#237=DIRECTION('',(0.,0.,-1.));
#238=DIRECTION('',(-1.,0.,0.));
#239=DIRECTION('',(6.12323399573677E-17,0.,-1.));
#240=DIRECTION('',(1.,0.,0.));
#241=DIRECTION('',(0.,0.,1.));
#242=DIRECTION('',(1.,0.,0.));
#243=CARTESIAN_POINT('',(0.,0.,0.));
#244=CARTESIAN_POINT('PCS',(0.,0.,0.));
#245=CARTESIAN_POINT('CIP',(0.,0.,-80.));
#246=CARTESIAN_POINT('MCS',(0.,0.,-36.));
#247=CARTESIAN_POINT('CRP',(2.5,0.,-80.));
#248=CARTESIAN_POINT('',(6.66133814775094E-16,0.,-80.));
#249=CARTESIAN_POINT('',(1.46446609406726,0.,-80.));
#250=CARTESIAN_POINT('',(2.5,0.,-78.9644660940673));
#251=CARTESIAN_POINT('',(2.5,0.,-77.5));
#252=CARTESIAN_POINT('',(2.5,0.,-76.4769696007085));
#253=CARTESIAN_POINT('',(2.5,0.,-75.453939201417));
#254=CARTESIAN_POINT('',(2.5,0.,-74.4309088021254));
#255=CARTESIAN_POINT('',(2.5,0.,-73.9150688005153));
#256=CARTESIAN_POINT('',(2.34524799951695,0.,-73.4229888013203));
#257=CARTESIAN_POINT('',(2.05,0.,-73.));
#258=CARTESIAN_POINT('',(1.36666666666667,0.,-73.));
#259=CARTESIAN_POINT('',(0.683333333333333,0.,-73.));
#260=CARTESIAN_POINT('',(0.,0.,-73.));
#261=CARTESIAN_POINT('',(0.,0.,0.));
#262=CARTESIAN_POINT('',(0.,0.,-80.));
#263=CARTESIAN_POINT('',(0.,0.,-36.));
#264=CARTESIAN_POINT('',(0.,0.,-37.));
#265=CARTESIAN_POINT('',(2.99269317649073,0.,-37.));
#266=CARTESIAN_POINT('',(0.,0.,-37.));
#267=CARTESIAN_POINT('',(3.,0.,-37.));
#268=CARTESIAN_POINT('',(0.,0.,-37.));
#269=CARTESIAN_POINT('',(0.,0.,-0.399999999999998));
#270=CARTESIAN_POINT('',(3.,0.,-0.399999999999998));
#271=CARTESIAN_POINT('',(0.,0.,-40.7));
#272=CARTESIAN_POINT('',(0.,0.,0.));
#273=CARTESIAN_POINT('',(2.6,0.,0.));
#274=CARTESIAN_POINT('',(0.,0.,0.));
#275=CARTESIAN_POINT('',(0.,0.,0.));
#276=CARTESIAN_POINT('',(0.,0.,-73.));
#277=CARTESIAN_POINT('',(2.05,0.,-73.));
#278=CARTESIAN_POINT('',(0.,0.,-73.));
#279=CARTESIAN_POINT('',(0.,0.,-73.));
#280=CARTESIAN_POINT('',(0.,0.,-77.5));
#281=CARTESIAN_POINT('',(2.5,0.,-77.5));
#282=CARTESIAN_POINT('',(0.,0.,-74.4309088021254));
#283=CARTESIAN_POINT('',(-2.5,0.,-74.4309088021254));
#284=CARTESIAN_POINT('',(0.,0.,-80.7));
#285=CARTESIAN_POINT('',(0.,0.,-77.5));
#286=CARTESIAN_POINT('',(0.,0.,-73.));
#287=CARTESIAN_POINT('',(-2.05,0.,-73.));
#288=CARTESIAN_POINT('',(0.,0.,-74.4309088021254));
#289=CARTESIAN_POINT('',(0.,0.,-73.));
#290=MECHANICAL_DESIGN_GEOMETRIC_PRESENTATION_REPRESENTATION('',(#146,#147,
#148,#149,#150,#151,#152,#153,#154,#155),#291);
#291=(
GEOMETRIC_REPRESENTATION_CONTEXT(3)
GLOBAL_UNCERTAINTY_ASSIGNED_CONTEXT((#292))
GLOBAL_UNIT_ASSIGNED_CONTEXT((#298,#294,#293))
REPRESENTATION_CONTEXT('1627396472270','TOP_LEVEL_ASSEMBLY_PART')
);
#292=UNCERTAINTY_MEASURE_WITH_UNIT(LENGTH_MEASURE(2.E-5),#298,
'DISTANCE_ACCURACY_VALUE','Maximum Tolerance applied to model');
#293=(
NAMED_UNIT(*)
SI_UNIT($,.STERADIAN.)
SOLID_ANGLE_UNIT()
);
#294=(
CONVERSION_BASED_UNIT('DEGREE',#296)
NAMED_UNIT(#295)
PLANE_ANGLE_UNIT()
);
#295=DIMENSIONAL_EXPONENTS(0.,0.,0.,0.,0.,0.,0.);
#296=PLANE_ANGLE_MEASURE_WITH_UNIT(PLANE_ANGLE_MEASURE(0.0174532925),#297);
#297=(
NAMED_UNIT(*)
PLANE_ANGLE_UNIT()
SI_UNIT($,.RADIAN.)
);
#298=(
LENGTH_UNIT()
NAMED_UNIT(*)
SI_UNIT(.MILLI.,.METRE.)
);
ENDSEC;
END-ISO-10303-21;
