ISO-10303-21;
HEADER;
/* Generated by software containing ST-Developer
 * from STEP Tools, Inc. (www.steptools.com) 
 */
/* OPTION: using custom schema-name function */

FILE_DESCRIPTION(
/* description */ (''),
/* implementation_level */ '2;1');

FILE_NAME(
/* name */ '1627391065816.stp',
/* time_stamp */ '2021-07-27T15:04:39+02:00',
/* author */ (''),
/* organization */ ('SMS'),
/* preprocessor_version */ 'ST-DEVELOPER v16.7',
/* originating_system */ 'SIEMENS PLM Software NX 12.0',
/* authorisation */ '');

FILE_SCHEMA (('AUTOMOTIVE_DESIGN { 1 0 10303 214 3 1 1 1 }'));
ENDSEC;

DATA;
#10=CONSTRUCTIVE_GEOMETRY_REPRESENTATION_RELATIONSHIP(
'supplemental geometry','',#26,#11);
#11=CONSTRUCTIVE_GEOMETRY_REPRESENTATION('supplemental geometry',(#167,
#168,#169),#268);
#12=GEOMETRICALLY_BOUNDED_WIREFRAME_SHAPE_REPRESENTATION(
'203643977mod000_00-None',(#27),#268);
#13=SHAPE_REPRESENTATION_RELATIONSHIP('None',
'relationship between 203643977mod000_00-None and 203643977mod000_00-N
one',#26,#15);
#14=SHAPE_REPRESENTATION_RELATIONSHIP('None',
'relationship between 203643977mod000_00-None and 203643977mod000_00-N
one',#26,#12);
#15=ADVANCED_BREP_SHAPE_REPRESENTATION('203643977mod000_00-None',(#39,#40),
#268);
#16=SHAPE_DEFINITION_REPRESENTATION(#17,#26);
#17=PRODUCT_DEFINITION_SHAPE('','',#18);
#18=PRODUCT_DEFINITION(' ','',#20,#19);
#19=PRODUCT_DEFINITION_CONTEXT('part definition',#25,'design');
#20=PRODUCT_DEFINITION_FORMATION_WITH_SPECIFIED_SOURCE(' ',' ',#22,
 .NOT_KNOWN.);
#21=PRODUCT_RELATED_PRODUCT_CATEGORY('part','',(#22));
#22=PRODUCT('203643977mod000_00','203643977mod000_00',' ',(#23));
#23=PRODUCT_CONTEXT(' ',#25,'mechanical');
#24=APPLICATION_PROTOCOL_DEFINITION('international standard',
'automotive_design',2010,#25);
#25=APPLICATION_CONTEXT(
'core data for automotive mechanical design processes');
#26=SHAPE_REPRESENTATION('203643977mod000_00-None',(#166),#268);
#27=GEOMETRIC_CURVE_SET('None',(#227,#228,#229,#230,#131));
#28=SPHERICAL_SURFACE('',#185,0.5);
#29=SURFACE_STYLE_USAGE(.BOTH.,#31);
#30=SURFACE_STYLE_USAGE(.BOTH.,#32);
#31=SURFACE_SIDE_STYLE('',(#33));
#32=SURFACE_SIDE_STYLE('',(#34));
#33=SURFACE_STYLE_FILL_AREA(#35);
#34=SURFACE_STYLE_FILL_AREA(#36);
#35=FILL_AREA_STYLE('',(#37));
#36=FILL_AREA_STYLE('',(#38));
#37=FILL_AREA_STYLE_COLOUR('',#164);
#38=FILL_AREA_STYLE_COLOUR('',#165);
#39=MANIFOLD_SOLID_BREP('NOCUT',#41);
#40=MANIFOLD_SOLID_BREP('CUT',#42);
#41=CLOSED_SHELL('',(#53,#54,#55,#56,#57,#58));
#42=CLOSED_SHELL('',(#59,#60,#61));
#43=CONICAL_SURFACE('',#175,2.6,45.0000000000002);
#44=CONICAL_SURFACE('',#179,0.5,1.66);
#45=CONICAL_SURFACE('',#180,1.02165034708569,10.0000000000001);
#46=PLANE('',#174);
#47=PLANE('',#177);
#48=PLANE('',#182);
#49=FACE_OUTER_BOUND('',#76,.T.);
#50=FACE_OUTER_BOUND('',#79,.T.);
#51=FACE_OUTER_BOUND('',#84,.T.);
#52=FACE_OUTER_BOUND('',#87,.T.);
#53=ADVANCED_FACE('',(#64,#65),#62,.T.);
#54=ADVANCED_FACE('',(#49),#46,.T.);
#55=ADVANCED_FACE('',(#66,#67),#43,.T.);
#56=ADVANCED_FACE('',(#50),#47,.F.);
#57=ADVANCED_FACE('',(#68,#69),#44,.T.);
#58=ADVANCED_FACE('',(#70,#71),#45,.T.);
#59=ADVANCED_FACE('',(#51),#48,.T.);
#60=ADVANCED_FACE('',(#72,#73),#63,.T.);
#61=ADVANCED_FACE('',(#52),#28,.T.);
#62=CYLINDRICAL_SURFACE('',#172,3.);
#63=CYLINDRICAL_SURFACE('',#184,0.5);
#64=FACE_BOUND('',#74,.T.);
#65=FACE_BOUND('',#75,.T.);
#66=FACE_BOUND('',#77,.T.);
#67=FACE_BOUND('',#78,.T.);
#68=FACE_BOUND('',#80,.T.);
#69=FACE_BOUND('',#81,.T.);
#70=FACE_BOUND('',#82,.T.);
#71=FACE_BOUND('',#83,.T.);
#72=FACE_BOUND('',#85,.T.);
#73=FACE_BOUND('',#86,.T.);
#74=EDGE_LOOP('',(#88));
#75=EDGE_LOOP('',(#89));
#76=EDGE_LOOP('',(#90));
#77=EDGE_LOOP('',(#91));
#78=EDGE_LOOP('',(#92));
#79=EDGE_LOOP('',(#93));
#80=EDGE_LOOP('',(#94));
#81=EDGE_LOOP('',(#95));
#82=EDGE_LOOP('',(#96));
#83=EDGE_LOOP('',(#97));
#84=EDGE_LOOP('',(#98));
#85=EDGE_LOOP('',(#99));
#86=EDGE_LOOP('',(#100));
#87=EDGE_LOOP('',(#101));
#88=ORIENTED_EDGE('',*,*,#109,.T.);
#89=ORIENTED_EDGE('',*,*,#110,.T.);
#90=ORIENTED_EDGE('',*,*,#111,.T.);
#91=ORIENTED_EDGE('',*,*,#110,.F.);
#92=ORIENTED_EDGE('',*,*,#111,.F.);
#93=ORIENTED_EDGE('',*,*,#112,.T.);
#94=ORIENTED_EDGE('',*,*,#112,.F.);
#95=ORIENTED_EDGE('',*,*,#113,.T.);
#96=ORIENTED_EDGE('',*,*,#109,.F.);
#97=ORIENTED_EDGE('',*,*,#113,.F.);
#98=ORIENTED_EDGE('',*,*,#114,.T.);
#99=ORIENTED_EDGE('',*,*,#115,.T.);
#100=ORIENTED_EDGE('',*,*,#114,.F.);
#101=ORIENTED_EDGE('',*,*,#115,.F.);
#102=VERTEX_POINT('',#245);
#103=VERTEX_POINT('',#247);
#104=VERTEX_POINT('',#250);
#105=VERTEX_POINT('',#254);
#106=VERTEX_POINT('',#257);
#107=VERTEX_POINT('',#261);
#108=VERTEX_POINT('',#264);
#109=EDGE_CURVE('',#102,#102,#116,.T.);
#110=EDGE_CURVE('',#103,#103,#117,.T.);
#111=EDGE_CURVE('',#104,#104,#118,.T.);
#112=EDGE_CURVE('',#105,#105,#119,.T.);
#113=EDGE_CURVE('',#106,#106,#120,.T.);
#114=EDGE_CURVE('',#107,#107,#121,.T.);
#115=EDGE_CURVE('',#108,#108,#122,.T.);
#116=CIRCLE('',#170,3.);
#117=CIRCLE('',#171,3.);
#118=CIRCLE('',#173,2.6);
#119=CIRCLE('',#176,0.5);
#120=CIRCLE('',#178,1.02165034708569);
#121=CIRCLE('',#181,0.5);
#122=CIRCLE('',#183,0.5);
#123=CURVE_STYLE('',#127,POSITIVE_LENGTH_MEASURE(0.18),#133);
#124=CURVE_STYLE('',#128,POSITIVE_LENGTH_MEASURE(0.18),#163);
#125=CURVE_STYLE('',#129,POSITIVE_LENGTH_MEASURE(0.18),#163);
#126=CURVE_STYLE('',#130,POSITIVE_LENGTH_MEASURE(0.18),#163);
#127=DRAUGHTING_PRE_DEFINED_CURVE_FONT('continuous');
#128=DRAUGHTING_PRE_DEFINED_CURVE_FONT('continuous');
#129=DRAUGHTING_PRE_DEFINED_CURVE_FONT('continuous');
#130=DRAUGHTING_PRE_DEFINED_CURVE_FONT('continuous');
#131=TRIMMED_CURVE('CUTTING PART LINE',#132,(PARAMETER_VALUE(0.)),(
PARAMETER_VALUE(1.)),.T.,.PARAMETER.);
#132=(
BOUNDED_CURVE()
B_SPLINE_CURVE(3,(#231,#232,#233,#234,#235,#236,#237,#238,#239,#240),
 .UNSPECIFIED.,.F.,.F.)
B_SPLINE_CURVE_WITH_KNOTS((4,3,3,4),(0.,0.281969800118592,0.820492450047599,
1.),.UNSPECIFIED.)
CURVE()
GEOMETRIC_REPRESENTATION_ITEM()
RATIONAL_B_SPLINE_CURVE((0.585786437626905,0.471404520791032,0.471404520791032,
0.585786437626905,0.585786437626905,0.585786437626905,0.585786437626905,
0.585786437626905,0.585786437626905,0.585786437626905))
REPRESENTATION_ITEM('CUTTING PART LINE')
);
#133=DRAUGHTING_PRE_DEFINED_COLOUR('blue');
#134=PRESENTATION_LAYER_ASSIGNMENT('1','Layer 1',(#227,#228,#229,#230,#131,
#167,#168,#169,#39,#40));
#135=STYLED_ITEM('',(#145),#227);
#136=STYLED_ITEM('',(#146),#228);
#137=STYLED_ITEM('',(#147),#229);
#138=STYLED_ITEM('',(#148),#230);
#139=STYLED_ITEM('',(#149),#131);
#140=STYLED_ITEM('',(#150),#167);
#141=STYLED_ITEM('',(#151),#168);
#142=STYLED_ITEM('',(#152),#169);
#143=STYLED_ITEM('',(#153),#39);
#144=STYLED_ITEM('',(#154),#40);
#145=PRESENTATION_STYLE_ASSIGNMENT((#155));
#146=PRESENTATION_STYLE_ASSIGNMENT((#156));
#147=PRESENTATION_STYLE_ASSIGNMENT((#157));
#148=PRESENTATION_STYLE_ASSIGNMENT((#158));
#149=PRESENTATION_STYLE_ASSIGNMENT((#123));
#150=PRESENTATION_STYLE_ASSIGNMENT((#124));
#151=PRESENTATION_STYLE_ASSIGNMENT((#125));
#152=PRESENTATION_STYLE_ASSIGNMENT((#126));
#153=PRESENTATION_STYLE_ASSIGNMENT((#29));
#154=PRESENTATION_STYLE_ASSIGNMENT((#30));
#155=POINT_STYLE('',#159,POSITIVE_LENGTH_MEASURE(3.),#163);
#156=POINT_STYLE('',#160,POSITIVE_LENGTH_MEASURE(3.),#163);
#157=POINT_STYLE('',#161,POSITIVE_LENGTH_MEASURE(3.),#163);
#158=POINT_STYLE('',#162,POSITIVE_LENGTH_MEASURE(3.),#133);
#159=PRE_DEFINED_POINT_MARKER_SYMBOL('plus');
#160=PRE_DEFINED_POINT_MARKER_SYMBOL('plus');
#161=PRE_DEFINED_POINT_MARKER_SYMBOL('plus');
#162=PRE_DEFINED_POINT_MARKER_SYMBOL('plus');
#163=COLOUR_RGB('Strong Stone',0.576470588235294,0.54508278019379,0.392156862745098);
#164=COLOUR_RGB('Medium Gray',0.501960784313725,0.501960784313725,0.501960784313725);
#165=COLOUR_RGB('Light Gray',0.8,0.8,0.8);
#166=AXIS2_PLACEMENT_3D('',#226,#186,#187);
#167=AXIS2_PLACEMENT_3D('PCS',#241,#188,#189);
#168=AXIS2_PLACEMENT_3D('CIP',#242,#190,#191);
#169=AXIS2_PLACEMENT_3D('MCS',#243,#192,#193);
#170=AXIS2_PLACEMENT_3D('',#244,#194,#195);
#171=AXIS2_PLACEMENT_3D('',#246,#196,#197);
#172=AXIS2_PLACEMENT_3D('',#248,#198,#199);
#173=AXIS2_PLACEMENT_3D('',#249,#200,#201);
#174=AXIS2_PLACEMENT_3D('',#251,#202,#203);
#175=AXIS2_PLACEMENT_3D('',#252,#204,#205);
#176=AXIS2_PLACEMENT_3D('',#253,#206,#207);
#177=AXIS2_PLACEMENT_3D('',#255,#208,#209);
#178=AXIS2_PLACEMENT_3D('',#256,#210,#211);
#179=AXIS2_PLACEMENT_3D('',#258,#212,#213);
#180=AXIS2_PLACEMENT_3D('',#259,#214,#215);
#181=AXIS2_PLACEMENT_3D('',#260,#216,#217);
#182=AXIS2_PLACEMENT_3D('',#262,#218,#219);
#183=AXIS2_PLACEMENT_3D('',#263,#220,#221);
#184=AXIS2_PLACEMENT_3D('',#265,#222,#223);
#185=AXIS2_PLACEMENT_3D('',#266,#224,#225);
#186=DIRECTION('',(0.,0.,1.));
#187=DIRECTION('',(1.,0.,0.));
#188=DIRECTION('',(0.,0.,1.));
#189=DIRECTION('',(1.,0.,0.));
#190=DIRECTION('',(0.,0.,1.));
#191=DIRECTION('',(1.,0.,0.));
#192=DIRECTION('',(0.,0.,1.));
#193=DIRECTION('',(1.,0.,0.));
#194=DIRECTION('',(0.,0.,1.));
#195=DIRECTION('',(1.,0.,0.));
#196=DIRECTION('',(0.,0.,-1.));
#197=DIRECTION('',(1.,0.,0.));
#198=DIRECTION('',(0.,0.,1.));
#199=DIRECTION('',(1.,0.,0.));
#200=DIRECTION('',(0.,0.,1.));
#201=DIRECTION('',(1.,0.,0.));
#202=DIRECTION('',(0.,0.,1.));
#203=DIRECTION('',(1.,0.,0.));
#204=DIRECTION('',(0.,0.,-1.));
#205=DIRECTION('',(-1.,0.,0.));
#206=DIRECTION('',(0.,0.,-1.));
#207=DIRECTION('',(1.,0.,0.));
#208=DIRECTION('',(0.,0.,1.));
#209=DIRECTION('',(1.,0.,0.));
#210=DIRECTION('',(0.,0.,-1.));
#211=DIRECTION('',(1.,0.,0.));
#212=DIRECTION('',(0.,0.,1.));
#213=DIRECTION('',(-1.,0.,1.41223038058424E-15));
#214=DIRECTION('',(0.,0.,1.));
#215=DIRECTION('',(1.,0.,-2.73880080371954E-16));
#216=DIRECTION('',(0.,0.,1.));
#217=DIRECTION('',(-1.,1.22464679914735E-16,0.));
#218=DIRECTION('',(0.,0.,1.));
#219=DIRECTION('',(1.,0.,0.));
#220=DIRECTION('',(0.,0.,1.));
#221=DIRECTION('',(1.,0.,0.));
#222=DIRECTION('',(0.,0.,1.));
#223=DIRECTION('',(1.,0.,0.));
#224=DIRECTION('',(6.12323399573677E-17,0.,1.));
#225=DIRECTION('',(1.,0.,0.));
#226=CARTESIAN_POINT('',(0.,0.,0.));
#227=CARTESIAN_POINT('PCS',(0.,0.,0.));
#228=CARTESIAN_POINT('CIP',(0.,0.,-75.));
#229=CARTESIAN_POINT('MCS',(0.,0.,-36.));
#230=CARTESIAN_POINT('CRP',(0.5,0.,-75.));
#231=CARTESIAN_POINT('',(0.,0.,-75.));
#232=CARTESIAN_POINT('',(0.292893218813452,0.,-75.));
#233=CARTESIAN_POINT('',(0.5,0.,-74.7928932188135));
#234=CARTESIAN_POINT('',(0.5,0.,-74.5));
#235=CARTESIAN_POINT('',(0.5,0.,-74.));
#236=CARTESIAN_POINT('',(0.5,0.,-73.5));
#237=CARTESIAN_POINT('',(0.5,0.,-73.));
#238=CARTESIAN_POINT('',(0.333333333333333,0.,-73.));
#239=CARTESIAN_POINT('',(0.166666666666667,0.,-73.));
#240=CARTESIAN_POINT('',(0.,0.,-73.));
#241=CARTESIAN_POINT('',(0.,0.,0.));
#242=CARTESIAN_POINT('',(0.,0.,-75.));
#243=CARTESIAN_POINT('',(0.,0.,-36.));
#244=CARTESIAN_POINT('',(0.,0.,-43.7802215805801));
#245=CARTESIAN_POINT('',(3.,0.,-43.7802215805801));
#246=CARTESIAN_POINT('',(0.,0.,-0.399999999999998));
#247=CARTESIAN_POINT('',(3.,0.,-0.399999999999998));
#248=CARTESIAN_POINT('',(0.,0.,-60.5));
#249=CARTESIAN_POINT('',(0.,0.,0.));
#250=CARTESIAN_POINT('',(2.6,0.,0.));
#251=CARTESIAN_POINT('',(0.,0.,0.));
#252=CARTESIAN_POINT('',(0.,0.,0.));
#253=CARTESIAN_POINT('',(0.,0.,-73.));
#254=CARTESIAN_POINT('',(0.5,0.,-73.));
#255=CARTESIAN_POINT('',(0.,0.,-73.));
#256=CARTESIAN_POINT('',(0.,0.,-55.));
#257=CARTESIAN_POINT('',(1.02165034708569,0.,-55.));
#258=CARTESIAN_POINT('',(0.,0.,-73.));
#259=CARTESIAN_POINT('',(0.,0.,-55.));
#260=CARTESIAN_POINT('',(0.,0.,-73.));
#261=CARTESIAN_POINT('',(-0.5,6.12323399573677E-17,-73.));
#262=CARTESIAN_POINT('',(0.,0.,-73.));
#263=CARTESIAN_POINT('',(0.,0.,-74.5));
#264=CARTESIAN_POINT('',(0.5,0.,-74.5));
#265=CARTESIAN_POINT('',(0.,0.,-75.2));
#266=CARTESIAN_POINT('',(0.,0.,-74.5));
#267=MECHANICAL_DESIGN_GEOMETRIC_PRESENTATION_REPRESENTATION('',(#135,#136,
#137,#138,#139,#140,#141,#142,#143,#144),#268);
#268=(
GEOMETRIC_REPRESENTATION_CONTEXT(3)
GLOBAL_UNCERTAINTY_ASSIGNED_CONTEXT((#269))
GLOBAL_UNIT_ASSIGNED_CONTEXT((#275,#271,#270))
REPRESENTATION_CONTEXT('1627391065816','TOP_LEVEL_ASSEMBLY_PART')
);
#269=UNCERTAINTY_MEASURE_WITH_UNIT(LENGTH_MEASURE(2.E-5),#275,
'DISTANCE_ACCURACY_VALUE','Maximum Tolerance applied to model');
#270=(
NAMED_UNIT(*)
SI_UNIT($,.STERADIAN.)
SOLID_ANGLE_UNIT()
);
#271=(
CONVERSION_BASED_UNIT('DEGREE',#273)
NAMED_UNIT(#272)
PLANE_ANGLE_UNIT()
);
#272=DIMENSIONAL_EXPONENTS(0.,0.,0.,0.,0.,0.,0.);
#273=PLANE_ANGLE_MEASURE_WITH_UNIT(PLANE_ANGLE_MEASURE(0.0174532925),#274);
#274=(
NAMED_UNIT(*)
PLANE_ANGLE_UNIT()
SI_UNIT($,.RADIAN.)
);
#275=(
LENGTH_UNIT()
NAMED_UNIT(*)
SI_UNIT(.MILLI.,.METRE.)
);
ENDSEC;
END-ISO-10303-21;
