ISO-10303-21;
HEADER;
/* Generated by software containing ST-Developer
 * from STEP Tools, Inc. (www.steptools.com) 
 */
/* OPTION: using custom schema-name function */

FILE_DESCRIPTION(
/* description */ (''),
/* implementation_level */ '2;1');

FILE_NAME(
/* name */ 'aaa360431_a.stp',
/* time_stamp */ '2021-06-18T10:38:40+02:00',
/* author */ (''),
/* organization */ ('SMS'),
/* preprocessor_version */ 'ST-DEVELOPER v16.7',
/* originating_system */ 'SIEMENS PLM Software NX 12.0',
/* authorisation */ '');

FILE_SCHEMA (('AUTOMOTIVE_DESIGN { 1 0 10303 214 3 1 1 1 }'));
ENDSEC;

DATA;
#10=CONSTRUCTIVE_GEOMETRY_REPRESENTATION_RELATIONSHIP(
'supplemental geometry','',#26,#11);
#11=CONSTRUCTIVE_GEOMETRY_REPRESENTATION('supplemental geometry',(#230,
#231),#396);
#12=GEOMETRICALLY_BOUNDED_WIREFRAME_SHAPE_REPRESENTATION(
'AAA360431_A-None',(#27),#396);
#13=SHAPE_REPRESENTATION_RELATIONSHIP('None',
'relationship between AAA360431_A-None and AAA360431_A-None',#26,#15);
#14=SHAPE_REPRESENTATION_RELATIONSHIP('None',
'relationship between AAA360431_A-None and AAA360431_A-None',#26,#12);
#15=ADVANCED_BREP_SHAPE_REPRESENTATION('AAA360431_A-None',(#33),#396);
#16=SHAPE_DEFINITION_REPRESENTATION(#17,#26);
#17=PRODUCT_DEFINITION_SHAPE('','',#18);
#18=PRODUCT_DEFINITION(' ','',#20,#19);
#19=PRODUCT_DEFINITION_CONTEXT('part definition',#25,'design');
#20=PRODUCT_DEFINITION_FORMATION_WITH_SPECIFIED_SOURCE(' ',' ',#22,
 .NOT_KNOWN.);
#21=PRODUCT_RELATED_PRODUCT_CATEGORY('part','',(#22));
#22=PRODUCT('AAA360431_A','AAA360431_A',' ',(#23));
#23=PRODUCT_CONTEXT(' ',#25,'mechanical');
#24=APPLICATION_PROTOCOL_DEFINITION('international standard',
'automotive_design',2010,#25);
#25=APPLICATION_CONTEXT(
'core data for automotive mechanical design processes');
#26=SHAPE_REPRESENTATION('AAA360431_A-None',(#229),#396);
#27=GEOMETRIC_CURVE_SET('None',(#307,#308,#208));
#28=SURFACE_STYLE_USAGE(.BOTH.,#29);
#29=SURFACE_SIDE_STYLE('',(#30));
#30=SURFACE_STYLE_FILL_AREA(#31);
#31=FILL_AREA_STYLE('',(#32));
#32=FILL_AREA_STYLE_COLOUR('',#228);
#33=MANIFOLD_SOLID_BREP('CUT',#34);
#34=CLOSED_SHELL('',(#72,#73,#74,#75,#76,#77,#78,#79,#80,#81));
#35=PLANE('',#243);
#36=PLANE('',#244);
#37=PLANE('',#245);
#38=PLANE('',#246);
#39=PLANE('',#247);
#40=PLANE('',#248);
#41=PLANE('',#249);
#42=CYLINDRICAL_SURFACE('',#239,0.8);
#43=CYLINDRICAL_SURFACE('',#242,0.8);
#44=LINE('',#361,#58);
#45=LINE('',#365,#59);
#46=LINE('',#370,#60);
#47=LINE('',#374,#61);
#48=LINE('',#376,#62);
#49=LINE('',#377,#63);
#50=LINE('',#379,#64);
#51=LINE('',#381,#65);
#52=LINE('',#382,#66);
#53=LINE('',#384,#67);
#54=LINE('',#386,#68);
#55=LINE('',#387,#69);
#56=LINE('',#389,#70);
#57=LINE('',#390,#71);
#58=VECTOR('',#268,1.);
#59=VECTOR('',#271,1.);
#60=VECTOR('',#276,1.);
#61=VECTOR('',#279,1.);
#62=VECTOR('',#282,1.);
#63=VECTOR('',#283,1.);
#64=VECTOR('',#286,1.);
#65=VECTOR('',#287,1.);
#66=VECTOR('',#288,1.);
#67=VECTOR('',#289,1.);
#68=VECTOR('',#292,1.);
#69=VECTOR('',#293,1.);
#70=VECTOR('',#296,1.);
#71=VECTOR('',#297,1.);
#72=ADVANCED_FACE('',(#83),#82,.T.);
#73=ADVANCED_FACE('',(#84),#42,.T.);
#74=ADVANCED_FACE('',(#85),#43,.T.);
#75=ADVANCED_FACE('',(#86),#35,.T.);
#76=ADVANCED_FACE('',(#87),#36,.T.);
#77=ADVANCED_FACE('',(#88),#37,.T.);
#78=ADVANCED_FACE('',(#89),#38,.F.);
#79=ADVANCED_FACE('',(#90),#39,.T.);
#80=ADVANCED_FACE('',(#91),#40,.F.);
#81=ADVANCED_FACE('',(#92),#41,.F.);
#82=CONICAL_SURFACE('',#236,3.18,6.99999999999999);
#83=FACE_OUTER_BOUND('',#93,.T.);
#84=FACE_OUTER_BOUND('',#94,.T.);
#85=FACE_OUTER_BOUND('',#95,.T.);
#86=FACE_OUTER_BOUND('',#96,.T.);
#87=FACE_OUTER_BOUND('',#97,.T.);
#88=FACE_OUTER_BOUND('',#98,.T.);
#89=FACE_OUTER_BOUND('',#99,.T.);
#90=FACE_OUTER_BOUND('',#100,.T.);
#91=FACE_OUTER_BOUND('',#101,.T.);
#92=FACE_OUTER_BOUND('',#102,.T.);
#93=EDGE_LOOP('',(#107,#108,#109,#110,#111,#112));
#94=EDGE_LOOP('',(#113,#114,#115,#116));
#95=EDGE_LOOP('',(#117,#118,#119,#120));
#96=EDGE_LOOP('',(#121,#122,#123,#124));
#97=EDGE_LOOP('',(#125,#126,#127,#128,#129,#130));
#98=EDGE_LOOP('',(#131,#132,#133,#134));
#99=EDGE_LOOP('',(#135,#136,#137,#138));
#100=EDGE_LOOP('',(#139,#140,#141,#142,#143,#144));
#101=EDGE_LOOP('',(#145,#146,#147,#148,#149));
#102=EDGE_LOOP('',(#150,#151,#152,#153,#154));
#103=B_SPLINE_CURVE_WITH_KNOTS('',3,(#346,#347,#348,#349),.UNSPECIFIED.,
 .F.,.F.,(4,4),(0.,1.),.UNSPECIFIED.);
#104=B_SPLINE_CURVE_WITH_KNOTS('',3,(#353,#354,#355,#356),.UNSPECIFIED.,
 .F.,.F.,(4,4),(0.,1.),.UNSPECIFIED.);
#105=CIRCLE('',#233,2.42241925922908);
#106=CIRCLE('',#235,3.18);
#107=ORIENTED_EDGE('',*,*,#171,.F.);
#108=ORIENTED_EDGE('',*,*,#172,.T.);
#109=ORIENTED_EDGE('',*,*,#173,.F.);
#110=ORIENTED_EDGE('',*,*,#174,.F.);
#111=ORIENTED_EDGE('',*,*,#175,.T.);
#112=ORIENTED_EDGE('',*,*,#176,.T.);
#113=ORIENTED_EDGE('',*,*,#177,.F.);
#114=ORIENTED_EDGE('',*,*,#178,.F.);
#115=ORIENTED_EDGE('',*,*,#179,.T.);
#116=ORIENTED_EDGE('',*,*,#180,.F.);
#117=ORIENTED_EDGE('',*,*,#181,.F.);
#118=ORIENTED_EDGE('',*,*,#182,.F.);
#119=ORIENTED_EDGE('',*,*,#183,.T.);
#120=ORIENTED_EDGE('',*,*,#184,.F.);
#121=ORIENTED_EDGE('',*,*,#185,.F.);
#122=ORIENTED_EDGE('',*,*,#176,.F.);
#123=ORIENTED_EDGE('',*,*,#186,.T.);
#124=ORIENTED_EDGE('',*,*,#182,.T.);
#125=ORIENTED_EDGE('',*,*,#187,.F.);
#126=ORIENTED_EDGE('',*,*,#184,.T.);
#127=ORIENTED_EDGE('',*,*,#188,.T.);
#128=ORIENTED_EDGE('',*,*,#178,.T.);
#129=ORIENTED_EDGE('',*,*,#189,.F.);
#130=ORIENTED_EDGE('',*,*,#190,.T.);
#131=ORIENTED_EDGE('',*,*,#191,.F.);
#132=ORIENTED_EDGE('',*,*,#180,.T.);
#133=ORIENTED_EDGE('',*,*,#192,.T.);
#134=ORIENTED_EDGE('',*,*,#174,.T.);
#135=ORIENTED_EDGE('',*,*,#172,.F.);
#136=ORIENTED_EDGE('',*,*,#193,.F.);
#137=ORIENTED_EDGE('',*,*,#190,.F.);
#138=ORIENTED_EDGE('',*,*,#194,.F.);
#139=ORIENTED_EDGE('',*,*,#183,.F.);
#140=ORIENTED_EDGE('',*,*,#186,.F.);
#141=ORIENTED_EDGE('',*,*,#175,.F.);
#142=ORIENTED_EDGE('',*,*,#192,.F.);
#143=ORIENTED_EDGE('',*,*,#179,.F.);
#144=ORIENTED_EDGE('',*,*,#188,.F.);
#145=ORIENTED_EDGE('',*,*,#191,.T.);
#146=ORIENTED_EDGE('',*,*,#173,.T.);
#147=ORIENTED_EDGE('',*,*,#194,.T.);
#148=ORIENTED_EDGE('',*,*,#189,.T.);
#149=ORIENTED_EDGE('',*,*,#177,.T.);
#150=ORIENTED_EDGE('',*,*,#185,.T.);
#151=ORIENTED_EDGE('',*,*,#181,.T.);
#152=ORIENTED_EDGE('',*,*,#187,.T.);
#153=ORIENTED_EDGE('',*,*,#193,.T.);
#154=ORIENTED_EDGE('',*,*,#171,.T.);
#155=VERTEX_POINT('',#340);
#156=VERTEX_POINT('',#341);
#157=VERTEX_POINT('',#343);
#158=VERTEX_POINT('',#345);
#159=VERTEX_POINT('',#350);
#160=VERTEX_POINT('',#352);
#161=VERTEX_POINT('',#359);
#162=VERTEX_POINT('',#360);
#163=VERTEX_POINT('',#362);
#164=VERTEX_POINT('',#364);
#165=VERTEX_POINT('',#368);
#166=VERTEX_POINT('',#369);
#167=VERTEX_POINT('',#371);
#168=VERTEX_POINT('',#373);
#169=VERTEX_POINT('',#380);
#170=VERTEX_POINT('',#383);
#171=EDGE_CURVE('',#155,#156,#195,.T.);
#172=EDGE_CURVE('',#155,#157,#105,.T.);
#173=EDGE_CURVE('',#158,#157,#196,.T.);
#174=EDGE_CURVE('',#159,#158,#103,.T.);
#175=EDGE_CURVE('',#159,#160,#106,.T.);
#176=EDGE_CURVE('',#160,#156,#104,.T.);
#177=EDGE_CURVE('',#161,#162,#197,.T.);
#178=EDGE_CURVE('',#163,#161,#44,.T.);
#179=EDGE_CURVE('',#163,#164,#198,.T.);
#180=EDGE_CURVE('',#162,#164,#45,.T.);
#181=EDGE_CURVE('',#165,#166,#199,.T.);
#182=EDGE_CURVE('',#167,#165,#46,.T.);
#183=EDGE_CURVE('',#167,#168,#200,.T.);
#184=EDGE_CURVE('',#166,#168,#47,.T.);
#185=EDGE_CURVE('',#156,#165,#48,.T.);
#186=EDGE_CURVE('',#160,#167,#49,.T.);
#187=EDGE_CURVE('',#166,#169,#50,.T.);
#188=EDGE_CURVE('',#168,#163,#51,.T.);
#189=EDGE_CURVE('',#170,#161,#52,.T.);
#190=EDGE_CURVE('',#170,#169,#53,.T.);
#191=EDGE_CURVE('',#162,#158,#54,.T.);
#192=EDGE_CURVE('',#164,#159,#55,.T.);
#193=EDGE_CURVE('',#169,#155,#56,.T.);
#194=EDGE_CURVE('',#157,#170,#57,.T.);
#195=ELLIPSE('',#232,2.78564738265295,2.40637208410342);
#196=ELLIPSE('',#234,2.78564738265295,2.40637208410342);
#197=ELLIPSE('',#237,1.0253930334429,0.8);
#198=ELLIPSE('',#238,0.821546689790824,0.8);
#199=ELLIPSE('',#240,1.02539303344291,0.8);
#200=ELLIPSE('',#241,0.821546689790824,0.8);
#201=CURVE_STYLE('',#205,POSITIVE_LENGTH_MEASURE(0.18),#204);
#202=CURVE_STYLE('',#206,POSITIVE_LENGTH_MEASURE(0.18),#227);
#203=CURVE_STYLE('',#207,POSITIVE_LENGTH_MEASURE(0.18),#227);
#204=DRAUGHTING_PRE_DEFINED_COLOUR('blue');
#205=DRAUGHTING_PRE_DEFINED_CURVE_FONT('continuous');
#206=DRAUGHTING_PRE_DEFINED_CURVE_FONT('continuous');
#207=DRAUGHTING_PRE_DEFINED_CURVE_FONT('continuous');
#208=TRIMMED_CURVE('CUTTING EDGE LINE',#209,(PARAMETER_VALUE(0.)),(
PARAMETER_VALUE(1.)),.T.,.PARAMETER.);
#209=(
BOUNDED_CURVE()
B_SPLINE_CURVE(4,(#309,#310,#311,#312,#313,#314,#315,#316,#317,#318,#319,
#320,#321,#322,#323,#324,#325,#326,#327,#328,#329,#330,#331,#332,#333,#334,
#335,#336),.UNSPECIFIED.,.T.,.F.)
B_SPLINE_CURVE_WITH_KNOTS((5,4,4,4,4,4,3,5),(0.,0.145595192812726,0.203469137694401,
0.420745154747612,0.478619099629288,0.624214292442013,0.812107146221007,
1.),.UNSPECIFIED.)
CURVE()
GEOMETRIC_REPRESENTATION_ITEM()
RATIONAL_B_SPLINE_CURVE((1.,1.,1.,1.,1.,0.851648053539309,0.802197404719079,
0.85164805353931,1.,1.,1.,1.,1.,0.851648053539309,0.802197404719078,0.851648053539309,
1.,1.,1.,1.,1.,1.,0.972345825786252,1.,1.,0.972345825786252,1.,1.))
REPRESENTATION_ITEM('CUTTING EDGE LINE')
);
#210=PRESENTATION_LAYER_ASSIGNMENT('1','Layer 1',(#307,#308,#208,#230,#231,
#33));
#211=STYLED_ITEM('',(#217),#307);
#212=STYLED_ITEM('',(#218),#308);
#213=STYLED_ITEM('',(#219),#208);
#214=STYLED_ITEM('',(#220),#230);
#215=STYLED_ITEM('',(#221),#231);
#216=STYLED_ITEM('',(#222),#33);
#217=PRESENTATION_STYLE_ASSIGNMENT((#223));
#218=PRESENTATION_STYLE_ASSIGNMENT((#224));
#219=PRESENTATION_STYLE_ASSIGNMENT((#201));
#220=PRESENTATION_STYLE_ASSIGNMENT((#202));
#221=PRESENTATION_STYLE_ASSIGNMENT((#203));
#222=PRESENTATION_STYLE_ASSIGNMENT((#28));
#223=POINT_STYLE('',#225,POSITIVE_LENGTH_MEASURE(3.),#227);
#224=POINT_STYLE('',#226,POSITIVE_LENGTH_MEASURE(3.),#227);
#225=PRE_DEFINED_POINT_MARKER_SYMBOL('plus');
#226=PRE_DEFINED_POINT_MARKER_SYMBOL('plus');
#227=COLOUR_RGB('Strong Stone',0.576470588235294,0.54508278019379,0.392156862745098);
#228=COLOUR_RGB('Light Gray',0.8,0.8,0.8);
#229=AXIS2_PLACEMENT_3D('',#306,#250,#251);
#230=AXIS2_PLACEMENT_3D('MCS',#337,#252,#253);
#231=AXIS2_PLACEMENT_3D('PCS',#338,#254,#255);
#232=AXIS2_PLACEMENT_3D('',#339,#256,#257);
#233=AXIS2_PLACEMENT_3D('',#342,#258,#259);
#234=AXIS2_PLACEMENT_3D('',#344,#260,#261);
#235=AXIS2_PLACEMENT_3D('',#351,#262,#263);
#236=AXIS2_PLACEMENT_3D('',#357,#264,#265);
#237=AXIS2_PLACEMENT_3D('',#358,#266,#267);
#238=AXIS2_PLACEMENT_3D('',#363,#269,#270);
#239=AXIS2_PLACEMENT_3D('',#366,#272,#273);
#240=AXIS2_PLACEMENT_3D('',#367,#274,#275);
#241=AXIS2_PLACEMENT_3D('',#372,#277,#278);
#242=AXIS2_PLACEMENT_3D('',#375,#280,#281);
#243=AXIS2_PLACEMENT_3D('',#378,#284,#285);
#244=AXIS2_PLACEMENT_3D('',#385,#290,#291);
#245=AXIS2_PLACEMENT_3D('',#388,#294,#295);
#246=AXIS2_PLACEMENT_3D('',#391,#298,#299);
#247=AXIS2_PLACEMENT_3D('',#392,#300,#301);
#248=AXIS2_PLACEMENT_3D('',#393,#302,#303);
#249=AXIS2_PLACEMENT_3D('',#394,#304,#305);
#250=DIRECTION('',(0.,0.,1.));
#251=DIRECTION('',(1.,0.,0.));
#252=DIRECTION('',(0.,0.,1.));
#253=DIRECTION('',(1.,0.,0.));
#254=DIRECTION('',(0.,0.,1.));
#255=DIRECTION('',(1.,0.,0.));
#256=DIRECTION('',(0.5,0.,-0.866025403784438));
#257=DIRECTION('',(0.866025403784438,0.,0.500000000000001));
#258=DIRECTION('',(0.,0.,1.));
#259=DIRECTION('',(1.,0.,0.));
#260=DIRECTION('',(-0.499999999999999,0.,-0.866025403784439));
#261=DIRECTION('',(-0.866025403784439,0.,0.499999999999999));
#262=DIRECTION('',(0.,0.,-1.));
#263=DIRECTION('',(-1.,0.,0.));
#264=DIRECTION('',(0.,0.,1.));
#265=DIRECTION('',(1.,0.,0.));
#266=DIRECTION('',(-0.499999999999999,-1.38777878078145E-17,-0.866025403784439));
#267=DIRECTION('',(-0.825427346567637,-0.30258815913892,0.476560700737303));
#268=DIRECTION('',(0.126247055815298,0.18928230037634,-0.9737730185532));
#269=DIRECTION('',(0.,0.,-1.));
#270=DIRECTION('',(-0.554879270321375,-0.831930883768368,0.));
#271=DIRECTION('',(-0.126247055815298,-0.18928230037634,0.9737730185532));
#272=DIRECTION('',(-0.126247055815298,-0.18928230037634,0.9737730185532));
#273=DIRECTION('',(0.,-0.981627183447664,-0.190808995376545));
#274=DIRECTION('',(0.500000000000001,-1.38777878078145E-17,-0.866025403784438));
#275=DIRECTION('',(-0.825427346567637,0.302588159138919,-0.476560700737305));
#276=DIRECTION('',(-0.126247055815298,0.18928230037634,-0.9737730185532));
#277=DIRECTION('',(0.,0.,-1.));
#278=DIRECTION('',(-0.554879270321377,0.831930883768367,0.));
#279=DIRECTION('',(0.126247055815298,-0.18928230037634,0.9737730185532));
#280=DIRECTION('',(-0.126247055815298,0.18928230037634,-0.9737730185532));
#281=DIRECTION('',(0.,0.981627183447664,0.190808995376544));
#282=DIRECTION('',(0.0375515676838033,-0.999059477551755,0.0216804077107363));
#283=DIRECTION('',(0.0348994967025012,-0.999390827019096,0.));
#284=DIRECTION('',(0.991941519343442,0.0346393611462875,-0.121869343405147));
#285=DIRECTION('',(-0.121942523887189,0.,-0.992537163469471));
#286=DIRECTION('',(-0.861963948395452,0.0967343556104136,-0.497655117637868));
#287=DIRECTION('',(-1.,3.14100560277208E-15,0.));
#288=DIRECTION('',(-0.861963948395453,-0.0967343556104188,0.497655117637866));
#289=DIRECTION('',(1.,3.14100560277208E-15,0.));
#290=DIRECTION('',(3.08329648304249E-15,-0.981627183447664,-0.190808995376545));
#291=DIRECTION('',(0.,0.190808995376545,-0.981627183447664));
#292=DIRECTION('',(0.0375515676838023,0.999059477551755,-0.0216804077107356));
#293=DIRECTION('',(0.0348994967025021,0.999390827019096,0.));
#294=DIRECTION('',(-0.991941519343442,0.0346393611462866,-0.121869343405147));
#295=DIRECTION('',(-0.121942523887189,0.,0.992537163469471));
#296=DIRECTION('',(0.,1.,0.));
#297=DIRECTION('',(0.,-1.,0.));
#298=DIRECTION('',(0.,0.,1.));
#299=DIRECTION('',(1.,0.,0.));
#300=DIRECTION('',(0.,0.,1.));
#301=DIRECTION('',(1.,0.,0.));
#302=DIRECTION('',(0.499999999999999,0.,0.866025403784439));
#303=DIRECTION('',(0.866025403784439,0.,-0.499999999999999));
#304=DIRECTION('',(-0.500000000000001,0.,0.866025403784438));
#305=DIRECTION('',(0.866025403784438,0.,0.500000000000001));
#306=CARTESIAN_POINT('',(0.,0.,0.));
#307=CARTESIAN_POINT('',(0.,0.,0.));
#308=CARTESIAN_POINT('',(-3.20391158941718,-3.17499999999996,0.));
#309=CARTESIAN_POINT('',(3.06342027358964,0.848144904087411,0.));
#310=CARTESIAN_POINT('',(3.09135174936716,0.0482920891567622,0.));
#311=CARTESIAN_POINT('',(3.11928322514468,-0.751560725773887,0.));
#312=CARTESIAN_POINT('',(3.1472147009222,-1.55141354070454,0.));
#313=CARTESIAN_POINT('',(3.17514617669972,-2.35126635563518,0.));
#314=CARTESIAN_POINT('',(3.18702350249094,-2.69138846531644,0.));
#315=CARTESIAN_POINT('',(3.02857366481831,-3.00385890689766,0.));
#316=CARTESIAN_POINT('',(2.72532870986554,-3.17499999999998,0.));
#317=CARTESIAN_POINT('',(2.3887432337624,-3.17499999999999,0.));
#318=CARTESIAN_POINT('',(1.1943716168812,-3.17500000000003,0.));
#319=CARTESIAN_POINT('',(1.77635683940025E-15,-3.17499999999999,0.));
#320=CARTESIAN_POINT('',(-1.1943716168812,-3.17499999999999,0.));
#321=CARTESIAN_POINT('',(-2.3887432337624,-3.17499999999999,2.71050543121376E-17));
#322=CARTESIAN_POINT('',(-2.72532870986554,-3.17499999999999,3.47435208342032E-17));
#323=CARTESIAN_POINT('',(-3.02857366481831,-3.00385890689768,5.42101086242752E-17));
#324=CARTESIAN_POINT('',(-3.18702350249094,-2.69138846531646,5.42101086242752E-17));
#325=CARTESIAN_POINT('',(-3.17514617669972,-2.3512663556352,2.71050543121376E-17));
#326=CARTESIAN_POINT('',(-3.14721470092223,-1.55141354070541,-3.66369176834657E-17));
#327=CARTESIAN_POINT('',(-3.11928322514474,-0.751560725775627,0.));
#328=CARTESIAN_POINT('',(-3.09135174936725,0.0482920891541608,0.));
#329=CARTESIAN_POINT('',(-3.06342027358937,0.848144904083839,0.));
#330=CARTESIAN_POINT('',(-2.80540291978539,1.77461775622904,0.));
#331=CARTESIAN_POINT('',(-2.11246210956294,2.77616126138564,0.));
#332=CARTESIAN_POINT('',(-0.96173015998736,3.17499999999949,0.));
#333=CARTESIAN_POINT('',(0.961730159983989,3.17500000000051,0.));
#334=CARTESIAN_POINT('',(2.11246210955999,2.77616126138788,0.));
#335=CARTESIAN_POINT('',(2.8054029197835,1.77461775623201,0.));
#336=CARTESIAN_POINT('',(3.06342027358807,0.848144904086977,0.));
#337=CARTESIAN_POINT('',(0.,0.,0.));
#338=CARTESIAN_POINT('',(-3.20391158941718,-3.17499999999996,0.));
#339=CARTESIAN_POINT('',(0.171017245354687,-0.00500000000000078,-6.2512631473584));
#340=CARTESIAN_POINT('',(0.311769145362397,2.39727289613065,-6.17));
#341=CARTESIAN_POINT('',(2.46122877875597,0.751251309730181,-4.92900890203158));
#342=CARTESIAN_POINT('',(7.88803729175788E-31,-0.00500000000000078,-6.17));
#343=CARTESIAN_POINT('',(-0.311769145362396,2.39727289613065,-6.17));
#344=CARTESIAN_POINT('',(-0.171017245354683,-0.00500000000000078,-6.25126314735841));
#345=CARTESIAN_POINT('',(-2.46122877875381,0.751251309729824,-4.92900890204924));
#346=CARTESIAN_POINT('',(-3.06342027358976,0.848144904083947,-5.1684866334023E-14));
#347=CARTESIAN_POINT('',(-2.86264261929227,0.817130670175929,-1.64302193733344));
#348=CARTESIAN_POINT('',(-2.66190664308435,0.784978027363523,-3.28602821469645));
#349=CARTESIAN_POINT('',(-2.46122877875381,0.751251309729824,-4.92900890204924));
#350=CARTESIAN_POINT('',(-3.06342027358976,0.848144904083947,-5.1684866334023E-14));
#351=CARTESIAN_POINT('',(7.88860905221012E-31,-0.00500000000000078,0.));
#352=CARTESIAN_POINT('',(3.06342027358964,0.848144904087412,-5.21136822468732E-14));
#353=CARTESIAN_POINT('',(3.06342027358964,0.848144904087412,-5.21136822468732E-14));
#354=CARTESIAN_POINT('',(2.86264261929287,0.817130670179396,-1.64302193732757));
#355=CARTESIAN_POINT('',(2.66190664308579,0.784978027363748,-3.28602821468466));
#356=CARTESIAN_POINT('',(2.46122877875597,0.751251309730181,-4.92900890203158));
#357=CARTESIAN_POINT('',(7.88803729175788E-31,-0.00500000000000078,0.));
#358=CARTESIAN_POINT('',(-1.67075143220711,-1.31321263564009,-5.38539121086627));
#359=CARTESIAN_POINT('',(-1.69214292526289,-2.13058666311743,-5.37304082659215));
#360=CARTESIAN_POINT('',(-2.54217218283235,-1.40224799743364,-4.88227620591536));
#361=CARTESIAN_POINT('',(-2.29960571656305,-3.0413560572057,-0.687538482612517));
#362=CARTESIAN_POINT('',(-2.3887432337624,-3.17499999999998,0.));
#363=CARTESIAN_POINT('',(-2.36895293484847,-2.36002664403583,5.42101086242752E-17));
#364=CARTESIAN_POINT('',(-3.17514617669972,-2.3512663556352,0.));
#365=CARTESIAN_POINT('',(-3.19528886261146,-2.38146629891713,0.155365239493103));
#366=CARTESIAN_POINT('',(-2.4017356471367,-2.40917778783416,0.252860714217221));
#367=CARTESIAN_POINT('',(1.67075143220711,-1.31321263564008,-5.38539121086627));
#368=CARTESIAN_POINT('',(2.54217218283235,-1.40224799743363,-4.88227620591536));
#369=CARTESIAN_POINT('',(1.69214292526289,-2.13058666311742,-5.37304082659215));
#370=CARTESIAN_POINT('',(3.18982379400757,-2.37327251768096,0.113211889328709));
#371=CARTESIAN_POINT('',(3.17514617669972,-2.35126635563518,0.));
#372=CARTESIAN_POINT('',(2.36895293484846,-2.36002664403581,0.));
#373=CARTESIAN_POINT('',(2.3887432337624,-3.175,0.));
#374=CARTESIAN_POINT('',(2.4017356471367,-3.19447953459227,0.100213517915984));
#375=CARTESIAN_POINT('',(2.39627057853282,-2.40098400659799,0.210707364052827));
#376=CARTESIAN_POINT('',(2.60519149907138,-3.07887693840305,-4.84589198672061));
#377=CARTESIAN_POINT('',(3.19610702181339,-2.95150642533432,0.));
#378=CARTESIAN_POINT('',(3.19610702181339,-2.95150642533432,0.));
#379=CARTESIAN_POINT('',(5.20726811152923,-2.5250734283892,-3.34358235406604));
#380=CARTESIAN_POINT('',(0.311769145362397,-1.97567349262027,-6.17));
#381=CARTESIAN_POINT('',(3.20391158941718,-3.175,0.));
#382=CARTESIAN_POINT('',(-0.446371802324776,-1.99077934630353,-6.09228711976913));
#383=CARTESIAN_POINT('',(-0.311769145362396,-1.97567349262027,-6.17));
#384=CARTESIAN_POINT('',(6.20560150956856E-15,-1.97567349262027,-6.17));
#385=CARTESIAN_POINT('',(3.20391158941718,-3.17499999999998,0.));
#386=CARTESIAN_POINT('',(-2.61358714517933,-3.30224310742539,-4.84104475818017));
#387=CARTESIAN_POINT('',(-3.20391158941718,-3.175,0.));
#388=CARTESIAN_POINT('',(-3.20391158941718,-3.175,0.));
#389=CARTESIAN_POINT('',(0.311769145362397,0.,-6.17));
#390=CARTESIAN_POINT('',(-0.311769145362396,0.,-6.17));
#391=CARTESIAN_POINT('',(0.,0.,-6.17));
#392=CARTESIAN_POINT('',(0.,0.,0.));
#393=CARTESIAN_POINT('',(0.,7.,-6.35));
#394=CARTESIAN_POINT('',(6.99999999999999,7.,-2.30854811567262));
#395=MECHANICAL_DESIGN_GEOMETRIC_PRESENTATION_REPRESENTATION('',(#211,#212,
#213,#214,#215,#216),#396);
#396=(
GEOMETRIC_REPRESENTATION_CONTEXT(3)
GLOBAL_UNCERTAINTY_ASSIGNED_CONTEXT((#397))
GLOBAL_UNIT_ASSIGNED_CONTEXT((#403,#399,#398))
REPRESENTATION_CONTEXT('aaa360431_a','TOP_LEVEL_ASSEMBLY_PART')
);
#397=UNCERTAINTY_MEASURE_WITH_UNIT(LENGTH_MEASURE(0.0508),#403,
'DISTANCE_ACCURACY_VALUE','Maximum Tolerance applied to model');
#398=(
NAMED_UNIT(*)
SI_UNIT($,.STERADIAN.)
SOLID_ANGLE_UNIT()
);
#399=(
CONVERSION_BASED_UNIT('DEGREE',#401)
NAMED_UNIT(#400)
PLANE_ANGLE_UNIT()
);
#400=DIMENSIONAL_EXPONENTS(0.,0.,0.,0.,0.,0.,0.);
#401=PLANE_ANGLE_MEASURE_WITH_UNIT(PLANE_ANGLE_MEASURE(0.0174532925),#402);
#402=(
NAMED_UNIT(*)
PLANE_ANGLE_UNIT()
SI_UNIT($,.RADIAN.)
);
#403=(
LENGTH_UNIT()
NAMED_UNIT(*)
SI_UNIT(.MILLI.,.METRE.)
);
ENDSEC;
END-ISO-10303-21;
