ISO-10303-21;
HEADER;
/* Generated by software containing ST-Developer
 * from STEP Tools, Inc. (www.steptools.com) 
 */
/* OPTION: using custom schema-name function */

FILE_DESCRIPTION(
/* description */ (''),
/* implementation_level */ '2;1');

FILE_NAME(
/* name */ 'aaa360415_a.stp',
/* time_stamp */ '2021-06-17T14:42:03+02:00',
/* author */ (''),
/* organization */ ('SMS'),
/* preprocessor_version */ 'ST-DEVELOPER v16.7',
/* originating_system */ 'SIEMENS PLM Software NX 12.0',
/* authorisation */ '');

FILE_SCHEMA (('AUTOMOTIVE_DESIGN { 1 0 10303 214 3 1 1 1 }'));
ENDSEC;

DATA;
#10=CONSTRUCTIVE_GEOMETRY_REPRESENTATION_RELATIONSHIP(
'supplemental geometry','',#26,#11);
#11=CONSTRUCTIVE_GEOMETRY_REPRESENTATION('supplemental geometry',(#230,
#231),#396);
#12=GEOMETRICALLY_BOUNDED_WIREFRAME_SHAPE_REPRESENTATION(
'AAA360415_A-None',(#27),#396);
#13=SHAPE_REPRESENTATION_RELATIONSHIP('None',
'relationship between AAA360415_A-None and AAA360415_A-None',#26,#15);
#14=SHAPE_REPRESENTATION_RELATIONSHIP('None',
'relationship between AAA360415_A-None and AAA360415_A-None',#26,#12);
#15=ADVANCED_BREP_SHAPE_REPRESENTATION('AAA360415_A-None',(#33),#396);
#16=SHAPE_DEFINITION_REPRESENTATION(#17,#26);
#17=PRODUCT_DEFINITION_SHAPE('','',#18);
#18=PRODUCT_DEFINITION(' ','',#20,#19);
#19=PRODUCT_DEFINITION_CONTEXT('part definition',#25,'design');
#20=PRODUCT_DEFINITION_FORMATION_WITH_SPECIFIED_SOURCE(' ',' ',#22,
 .NOT_KNOWN.);
#21=PRODUCT_RELATED_PRODUCT_CATEGORY('part','',(#22));
#22=PRODUCT('AAA360415_A','AAA360415_A',' ',(#23));
#23=PRODUCT_CONTEXT(' ',#25,'mechanical');
#24=APPLICATION_PROTOCOL_DEFINITION('international standard',
'automotive_design',2010,#25);
#25=APPLICATION_CONTEXT(
'core data for automotive mechanical design processes');
#26=SHAPE_REPRESENTATION('AAA360415_A-None',(#229),#396);
#27=GEOMETRIC_CURVE_SET('None',(#307,#308,#208));
#28=SURFACE_STYLE_USAGE(.BOTH.,#29);
#29=SURFACE_SIDE_STYLE('',(#30));
#30=SURFACE_STYLE_FILL_AREA(#31);
#31=FILL_AREA_STYLE('',(#32));
#32=FILL_AREA_STYLE_COLOUR('',#228);
#33=MANIFOLD_SOLID_BREP('CUT',#34);
#34=CLOSED_SHELL('',(#72,#73,#74,#75,#76,#77,#78,#79,#80,#81));
#35=CYLINDRICAL_SURFACE('',#242,0.8);
#36=CYLINDRICAL_SURFACE('',#245,0.8);
#37=PLANE('',#237);
#38=PLANE('',#238);
#39=PLANE('',#239);
#40=PLANE('',#246);
#41=PLANE('',#247);
#42=PLANE('',#248);
#43=PLANE('',#249);
#44=LINE('',#358,#58);
#45=LINE('',#361,#59);
#46=LINE('',#362,#60);
#47=LINE('',#364,#61);
#48=LINE('',#367,#62);
#49=LINE('',#369,#63);
#50=LINE('',#371,#64);
#51=LINE('',#373,#65);
#52=LINE('',#375,#66);
#53=LINE('',#377,#67);
#54=LINE('',#379,#68);
#55=LINE('',#381,#69);
#56=LINE('',#389,#70);
#57=LINE('',#390,#71);
#58=VECTOR('',#266,1.);
#59=VECTOR('',#267,1.);
#60=VECTOR('',#268,1.);
#61=VECTOR('',#271,1.);
#62=VECTOR('',#272,1.);
#63=VECTOR('',#273,1.);
#64=VECTOR('',#274,1.);
#65=VECTOR('',#275,1.);
#66=VECTOR('',#276,1.);
#67=VECTOR('',#279,1.);
#68=VECTOR('',#280,1.);
#69=VECTOR('',#281,1.);
#70=VECTOR('',#296,1.);
#71=VECTOR('',#297,1.);
#72=ADVANCED_FACE('',(#83),#82,.T.);
#73=ADVANCED_FACE('',(#84),#37,.T.);
#74=ADVANCED_FACE('',(#85),#38,.T.);
#75=ADVANCED_FACE('',(#86),#39,.T.);
#76=ADVANCED_FACE('',(#87),#35,.T.);
#77=ADVANCED_FACE('',(#88),#36,.T.);
#78=ADVANCED_FACE('',(#89),#40,.F.);
#79=ADVANCED_FACE('',(#90),#41,.T.);
#80=ADVANCED_FACE('',(#91),#42,.F.);
#81=ADVANCED_FACE('',(#92),#43,.F.);
#82=CONICAL_SURFACE('',#236,6.35,11.);
#83=FACE_OUTER_BOUND('',#93,.T.);
#84=FACE_OUTER_BOUND('',#94,.T.);
#85=FACE_OUTER_BOUND('',#95,.T.);
#86=FACE_OUTER_BOUND('',#96,.T.);
#87=FACE_OUTER_BOUND('',#97,.T.);
#88=FACE_OUTER_BOUND('',#98,.T.);
#89=FACE_OUTER_BOUND('',#99,.T.);
#90=FACE_OUTER_BOUND('',#100,.T.);
#91=FACE_OUTER_BOUND('',#101,.T.);
#92=FACE_OUTER_BOUND('',#102,.T.);
#93=EDGE_LOOP('',(#111,#112,#113,#114,#115,#116));
#94=EDGE_LOOP('',(#117,#118,#119,#120));
#95=EDGE_LOOP('',(#121,#122,#123,#124,#125,#126));
#96=EDGE_LOOP('',(#127,#128,#129,#130));
#97=EDGE_LOOP('',(#131,#132,#133,#134));
#98=EDGE_LOOP('',(#135,#136,#137,#138));
#99=EDGE_LOOP('',(#139,#140,#141,#142));
#100=EDGE_LOOP('',(#143,#144,#145,#146,#147,#148));
#101=EDGE_LOOP('',(#149,#150,#151,#152,#153));
#102=EDGE_LOOP('',(#154,#155,#156,#157,#158));
#103=CIRCLE('',#233,4.84355260418268);
#104=CIRCLE('',#235,6.35);
#105=ELLIPSE('',#232,5.62100118339168,4.83717794904308);
#106=ELLIPSE('',#234,5.62100118339167,4.83717794904308);
#107=ELLIPSE('',#240,1.08537927268947,0.8);
#108=ELLIPSE('',#241,0.830729815500669,0.8);
#109=ELLIPSE('',#243,1.08537927268947,0.8);
#110=ELLIPSE('',#244,0.830729815500669,0.8);
#111=ORIENTED_EDGE('',*,*,#175,.F.);
#112=ORIENTED_EDGE('',*,*,#176,.T.);
#113=ORIENTED_EDGE('',*,*,#177,.F.);
#114=ORIENTED_EDGE('',*,*,#178,.T.);
#115=ORIENTED_EDGE('',*,*,#179,.T.);
#116=ORIENTED_EDGE('',*,*,#180,.T.);
#117=ORIENTED_EDGE('',*,*,#181,.T.);
#118=ORIENTED_EDGE('',*,*,#182,.T.);
#119=ORIENTED_EDGE('',*,*,#175,.T.);
#120=ORIENTED_EDGE('',*,*,#183,.T.);
#121=ORIENTED_EDGE('',*,*,#184,.F.);
#122=ORIENTED_EDGE('',*,*,#185,.T.);
#123=ORIENTED_EDGE('',*,*,#186,.T.);
#124=ORIENTED_EDGE('',*,*,#187,.T.);
#125=ORIENTED_EDGE('',*,*,#188,.T.);
#126=ORIENTED_EDGE('',*,*,#189,.T.);
#127=ORIENTED_EDGE('',*,*,#179,.F.);
#128=ORIENTED_EDGE('',*,*,#190,.T.);
#129=ORIENTED_EDGE('',*,*,#191,.T.);
#130=ORIENTED_EDGE('',*,*,#192,.T.);
#131=ORIENTED_EDGE('',*,*,#193,.F.);
#132=ORIENTED_EDGE('',*,*,#181,.F.);
#133=ORIENTED_EDGE('',*,*,#194,.F.);
#134=ORIENTED_EDGE('',*,*,#186,.F.);
#135=ORIENTED_EDGE('',*,*,#195,.F.);
#136=ORIENTED_EDGE('',*,*,#188,.F.);
#137=ORIENTED_EDGE('',*,*,#196,.F.);
#138=ORIENTED_EDGE('',*,*,#191,.F.);
#139=ORIENTED_EDGE('',*,*,#177,.T.);
#140=ORIENTED_EDGE('',*,*,#197,.F.);
#141=ORIENTED_EDGE('',*,*,#184,.T.);
#142=ORIENTED_EDGE('',*,*,#198,.F.);
#143=ORIENTED_EDGE('',*,*,#183,.F.);
#144=ORIENTED_EDGE('',*,*,#180,.F.);
#145=ORIENTED_EDGE('',*,*,#192,.F.);
#146=ORIENTED_EDGE('',*,*,#196,.T.);
#147=ORIENTED_EDGE('',*,*,#187,.F.);
#148=ORIENTED_EDGE('',*,*,#194,.T.);
#149=ORIENTED_EDGE('',*,*,#178,.F.);
#150=ORIENTED_EDGE('',*,*,#198,.T.);
#151=ORIENTED_EDGE('',*,*,#189,.F.);
#152=ORIENTED_EDGE('',*,*,#195,.T.);
#153=ORIENTED_EDGE('',*,*,#190,.F.);
#154=ORIENTED_EDGE('',*,*,#193,.T.);
#155=ORIENTED_EDGE('',*,*,#185,.F.);
#156=ORIENTED_EDGE('',*,*,#197,.T.);
#157=ORIENTED_EDGE('',*,*,#176,.F.);
#158=ORIENTED_EDGE('',*,*,#182,.F.);
#159=VERTEX_POINT('',#343);
#160=VERTEX_POINT('',#344);
#161=VERTEX_POINT('',#346);
#162=VERTEX_POINT('',#348);
#163=VERTEX_POINT('',#350);
#164=VERTEX_POINT('',#355);
#165=VERTEX_POINT('',#359);
#166=VERTEX_POINT('',#360);
#167=VERTEX_POINT('',#365);
#168=VERTEX_POINT('',#366);
#169=VERTEX_POINT('',#368);
#170=VERTEX_POINT('',#370);
#171=VERTEX_POINT('',#372);
#172=VERTEX_POINT('',#374);
#173=VERTEX_POINT('',#378);
#174=VERTEX_POINT('',#380);
#175=EDGE_CURVE('',#159,#160,#199,.T.);
#176=EDGE_CURVE('',#159,#161,#105,.T.);
#177=EDGE_CURVE('',#162,#161,#103,.T.);
#178=EDGE_CURVE('',#162,#163,#106,.T.);
#179=EDGE_CURVE('',#163,#164,#200,.T.);
#180=EDGE_CURVE('',#164,#160,#104,.T.);
#181=EDGE_CURVE('',#165,#166,#44,.T.);
#182=EDGE_CURVE('',#166,#159,#45,.T.);
#183=EDGE_CURVE('',#160,#165,#46,.T.);
#184=EDGE_CURVE('',#167,#168,#47,.T.);
#185=EDGE_CURVE('',#167,#169,#48,.T.);
#186=EDGE_CURVE('',#169,#170,#49,.T.);
#187=EDGE_CURVE('',#170,#171,#50,.T.);
#188=EDGE_CURVE('',#171,#172,#51,.T.);
#189=EDGE_CURVE('',#172,#168,#52,.T.);
#190=EDGE_CURVE('',#163,#173,#53,.T.);
#191=EDGE_CURVE('',#173,#174,#54,.T.);
#192=EDGE_CURVE('',#174,#164,#55,.T.);
#193=EDGE_CURVE('',#166,#169,#107,.T.);
#194=EDGE_CURVE('',#170,#165,#108,.T.);
#195=EDGE_CURVE('',#172,#173,#109,.T.);
#196=EDGE_CURVE('',#174,#171,#110,.T.);
#197=EDGE_CURVE('',#167,#161,#56,.T.);
#198=EDGE_CURVE('',#162,#168,#57,.T.);
#199=B_SPLINE_CURVE_WITH_KNOTS('',3,(#339,#340,#341,#342),.UNSPECIFIED.,
 .F.,.F.,(4,4),(0.,1.),.UNSPECIFIED.);
#200=B_SPLINE_CURVE_WITH_KNOTS('',3,(#351,#352,#353,#354),.UNSPECIFIED.,
 .F.,.F.,(4,4),(0.,1.),.UNSPECIFIED.);
#201=CURVE_STYLE('',#205,POSITIVE_LENGTH_MEASURE(0.18),#204);
#202=CURVE_STYLE('',#206,POSITIVE_LENGTH_MEASURE(0.18),#227);
#203=CURVE_STYLE('',#207,POSITIVE_LENGTH_MEASURE(0.18),#227);
#204=DRAUGHTING_PRE_DEFINED_COLOUR('blue');
#205=DRAUGHTING_PRE_DEFINED_CURVE_FONT('continuous');
#206=DRAUGHTING_PRE_DEFINED_CURVE_FONT('continuous');
#207=DRAUGHTING_PRE_DEFINED_CURVE_FONT('continuous');
#208=TRIMMED_CURVE('CUTTING EDGE LINE',#209,(PARAMETER_VALUE(0.)),(
PARAMETER_VALUE(1.)),.T.,.PARAMETER.);
#209=(
BOUNDED_CURVE()
B_SPLINE_CURVE(4,(#309,#310,#311,#312,#313,#314,#315,#316,#317,#318,#319,
#320,#321,#322,#323,#324,#325,#326,#327,#328,#329,#330,#331,#332,#333,#334,
#335,#336),.UNSPECIFIED.,.T.,.F.)
B_SPLINE_CURVE_WITH_KNOTS((1,4,4,4,4,3,4,4,4,1),(-0.0282974284233363,0.,
0.249348162339364,0.2776455907627,0.441691534151647,0.624674081169682,0.807656628187717,
0.971702571576664,1.,1.24934816233936),.UNSPECIFIED.)
CURVE()
GEOMETRIC_REPRESENTATION_ITEM()
RATIONAL_B_SPLINE_CURVE((1.,1.,1.,1.,1.,0.854044347403652,0.80539246320487,
0.854044347403652,1.,1.,1.,1.,1.,1.,0.973380499642006,1.,1.,0.973380499642006,
1.,1.,1.,1.,1.,1.,0.854044347403652,0.80539246320487,0.854044347403652,
1.))
REPRESENTATION_ITEM('CUTTING EDGE LINE')
);
#210=PRESENTATION_LAYER_ASSIGNMENT('1','Layer 1',(#307,#308,#208,#230,#231,
#33));
#211=STYLED_ITEM('',(#217),#307);
#212=STYLED_ITEM('',(#218),#308);
#213=STYLED_ITEM('',(#219),#208);
#214=STYLED_ITEM('',(#220),#230);
#215=STYLED_ITEM('',(#221),#231);
#216=STYLED_ITEM('',(#222),#33);
#217=PRESENTATION_STYLE_ASSIGNMENT((#223));
#218=PRESENTATION_STYLE_ASSIGNMENT((#224));
#219=PRESENTATION_STYLE_ASSIGNMENT((#201));
#220=PRESENTATION_STYLE_ASSIGNMENT((#202));
#221=PRESENTATION_STYLE_ASSIGNMENT((#203));
#222=PRESENTATION_STYLE_ASSIGNMENT((#28));
#223=POINT_STYLE('',#225,POSITIVE_LENGTH_MEASURE(3.),#227);
#224=POINT_STYLE('',#226,POSITIVE_LENGTH_MEASURE(3.),#227);
#225=PRE_DEFINED_POINT_MARKER_SYMBOL('plus');
#226=PRE_DEFINED_POINT_MARKER_SYMBOL('plus');
#227=COLOUR_RGB('Strong Stone',0.576470588235294,0.54508278019379,0.392156862745098);
#228=COLOUR_RGB('Light Gray',0.8,0.8,0.8);
#229=AXIS2_PLACEMENT_3D('',#306,#250,#251);
#230=AXIS2_PLACEMENT_3D('MCS',#337,#252,#253);
#231=AXIS2_PLACEMENT_3D('PCS',#338,#254,#255);
#232=AXIS2_PLACEMENT_3D('',#345,#256,#257);
#233=AXIS2_PLACEMENT_3D('',#347,#258,#259);
#234=AXIS2_PLACEMENT_3D('',#349,#260,#261);
#235=AXIS2_PLACEMENT_3D('',#356,#262,#263);
#236=AXIS2_PLACEMENT_3D('',#357,#264,#265);
#237=AXIS2_PLACEMENT_3D('',#363,#269,#270);
#238=AXIS2_PLACEMENT_3D('',#376,#277,#278);
#239=AXIS2_PLACEMENT_3D('',#382,#282,#283);
#240=AXIS2_PLACEMENT_3D('',#383,#284,#285);
#241=AXIS2_PLACEMENT_3D('',#384,#286,#287);
#242=AXIS2_PLACEMENT_3D('',#385,#288,#289);
#243=AXIS2_PLACEMENT_3D('',#386,#290,#291);
#244=AXIS2_PLACEMENT_3D('',#387,#292,#293);
#245=AXIS2_PLACEMENT_3D('',#388,#294,#295);
#246=AXIS2_PLACEMENT_3D('',#391,#298,#299);
#247=AXIS2_PLACEMENT_3D('',#392,#300,#301);
#248=AXIS2_PLACEMENT_3D('',#393,#302,#303);
#249=AXIS2_PLACEMENT_3D('',#394,#304,#305);
#250=DIRECTION('',(0.,0.,1.));
#251=DIRECTION('',(1.,0.,0.));
#252=DIRECTION('',(0.,0.,1.));
#253=DIRECTION('',(1.,0.,0.));
#254=DIRECTION('',(0.,0.,1.));
#255=DIRECTION('',(1.,0.,0.));
#256=DIRECTION('',(-0.5,0.,0.866025403784438));
#257=DIRECTION('',(0.866025403784438,0.,0.500000000000001));
#258=DIRECTION('',(0.,0.,-1.));
#259=DIRECTION('',(1.,0.,0.));
#260=DIRECTION('',(0.499999999999999,0.,0.866025403784439));
#261=DIRECTION('',(-0.866025403784439,0.,0.499999999999999));
#262=DIRECTION('',(0.,0.,-1.));
#263=DIRECTION('',(1.,1.22464679914735E-16,0.));
#264=DIRECTION('',(0.,0.,1.));
#265=DIRECTION('',(1.,0.,0.));
#266=DIRECTION('',(-0.193840836103639,0.187189919524502,-0.963008652238937));
#267=DIRECTION('',(-0.0392976908229618,0.998969930475709,-0.0226885323751677));
#268=DIRECTION('',(0.0348994967025006,-0.999390827019096,0.));
#269=DIRECTION('',(0.981029202690187,0.0342582946518167,-0.190808995376545));
#270=DIRECTION('',(-0.190921063683716,0.,-0.981605392936428));
#271=DIRECTION('',(-1.,0.,0.));
#272=DIRECTION('',(0.861963948395452,-0.0967343556104163,0.497655117637868));
#273=DIRECTION('',(0.193840836103639,-0.187189919524502,0.963008652238936));
#274=DIRECTION('',(-1.,0.,0.));
#275=DIRECTION('',(0.193840836103639,0.187189919524502,-0.963008652238936));
#276=DIRECTION('',(0.861963948395453,0.096734355610416,-0.497655117637866));
#277=DIRECTION('',(0.,-0.981627183447664,-0.190808995376545));
#278=DIRECTION('',(0.,0.190808995376545,-0.981627183447664));
#279=DIRECTION('',(-0.0392976908229605,-0.998969930475709,0.0226885323751669));
#280=DIRECTION('',(-0.193840836103639,-0.187189919524502,0.963008652238936));
#281=DIRECTION('',(0.0348994967024995,0.999390827019096,0.));
#282=DIRECTION('',(-0.981029202690187,0.0342582946518156,-0.190808995376545));
#283=DIRECTION('',(-0.190921063683716,0.,0.981605392936428));
#284=DIRECTION('',(0.500000000000001,2.77555756156289E-17,-0.866025403784438));
#285=DIRECTION('',(0.832141957073468,-0.276983184274037,0.480437382920349));
#286=DIRECTION('',(0.,0.,1.));
#287=DIRECTION('',(0.719339800338651,-0.694658370458997,0.));
#288=DIRECTION('',(0.193840836103639,-0.187189919524502,0.963008652238936));
#289=DIRECTION('',(0.980337348166326,0.,-0.197328872165767));
#290=DIRECTION('',(-0.499999999999999,0.,-0.866025403784439));
#291=DIRECTION('',(-0.832141957073468,-0.276983184274037,0.480437382920348));
#292=DIRECTION('',(0.,0.,1.));
#293=DIRECTION('',(-0.719339800338651,-0.694658370458998,0.));
#294=DIRECTION('',(-0.193840836103639,-0.187189919524502,0.963008652238937));
#295=DIRECTION('',(0.980337348166327,0.,0.197328872165767));
#296=DIRECTION('',(0.,1.,0.));
#297=DIRECTION('',(0.,-1.,0.));
#298=DIRECTION('',(0.,0.,1.));
#299=DIRECTION('',(1.,0.,0.));
#300=DIRECTION('',(0.,0.,1.));
#301=DIRECTION('',(1.,0.,0.));
#302=DIRECTION('',(0.499999999999999,0.,0.866025403784439));
#303=DIRECTION('',(0.866025403784439,0.,-0.499999999999999));
#304=DIRECTION('',(-0.500000000000001,0.,0.866025403784438));
#305=DIRECTION('',(0.866025403784438,0.,0.500000000000001));
#306=CARTESIAN_POINT('',(0.,0.,0.));
#307=CARTESIAN_POINT('',(0.,0.,0.));
#308=CARTESIAN_POINT('',(-6.37891158941718,-6.35,0.));
#309=CARTESIAN_POINT('',(-5.56570782517645,-6.35,0.));
#310=CARTESIAN_POINT('',(-2.78285391258822,-6.35,0.));
#311=CARTESIAN_POINT('',(1.77635683940025E-15,-6.35,0.));
#312=CARTESIAN_POINT('',(2.78285391258823,-6.35,0.));
#313=CARTESIAN_POINT('',(5.56570782517645,-6.35,0.));
#314=CARTESIAN_POINT('',(5.90282169624423,-6.35,0.));
#315=CARTESIAN_POINT('',(6.20475546786198,-6.1818193883502,0.));
#316=CARTESIAN_POINT('',(6.3622962917603,-5.87420012792645,0.));
#317=CARTESIAN_POINT('',(6.3505311873286,-5.53729161752041,0.));
#318=CARTESIAN_POINT('',(6.28663588993891,-3.70756969788229,0.));
#319=CARTESIAN_POINT('',(6.22274059254924,-1.87784777824416,0.));
#320=CARTESIAN_POINT('',(6.15884529515956,-0.048125858606034,0.));
#321=CARTESIAN_POINT('',(6.09494999776987,1.78159606103209,0.));
#322=CARTESIAN_POINT('',(5.56068141530187,3.60936183058338,0.));
#323=CARTESIAN_POINT('',(4.17326708022907,5.56777695693033,0.));
#324=CARTESIAN_POINT('',(1.90425067324545,6.35,0.));
#325=CARTESIAN_POINT('',(-1.90425067324546,6.35,0.));
#326=CARTESIAN_POINT('',(-4.17326708022908,5.56777695693032,0.));
#327=CARTESIAN_POINT('',(-5.56068141530187,3.60936183058337,0.));
#328=CARTESIAN_POINT('',(-6.09494999776988,1.78159606103209,0.));
#329=CARTESIAN_POINT('',(-6.15884529515956,-0.04812585860604,0.));
#330=CARTESIAN_POINT('',(-6.22274059254924,-1.87784777824417,0.));
#331=CARTESIAN_POINT('',(-6.28663588993892,-3.70756969788229,0.));
#332=CARTESIAN_POINT('',(-6.3505311873286,-5.53729161752042,0.));
#333=CARTESIAN_POINT('',(-6.36229629176029,-5.87420012792646,0.));
#334=CARTESIAN_POINT('',(-6.20475546786197,-6.1818193883502,0.));
#335=CARTESIAN_POINT('',(-5.90282169624423,-6.35,0.));
#336=CARTESIAN_POINT('',(-5.56570782517645,-6.35,0.));
#337=CARTESIAN_POINT('',(0.,0.,0.));
#338=CARTESIAN_POINT('',(-6.37891158941718,-6.35,0.));
#339=CARTESIAN_POINT('',(5.13257683660133,1.62151864792001,-4.97670538175178));
#340=CARTESIAN_POINT('',(5.45329449873971,1.6767223165618,-3.31784975338986));
#341=CARTESIAN_POINT('',(5.77409180339262,1.7299328960834,-1.65894249329972));
#342=CARTESIAN_POINT('',(6.09494999776987,1.78159606103209,0.));
#343=CARTESIAN_POINT('',(5.13257683660133,1.62151864792001,-4.97670538175178));
#344=CARTESIAN_POINT('',(6.09494999776987,1.78159606103209,0.));
#345=CARTESIAN_POINT('',(0.54630597384558,0.,-7.62459009894035));
#346=CARTESIAN_POINT('',(0.329089653438088,4.83235986133947,-7.75));
#347=CARTESIAN_POINT('',(0.,0.,-7.75));
#348=CARTESIAN_POINT('',(-0.329089653438089,4.83235986133947,-7.75));
#349=CARTESIAN_POINT('',(-0.546305973845575,0.,-7.62459009894036));
#350=CARTESIAN_POINT('',(-5.13257683660133,1.62151864792,-4.9767053817518));
#351=CARTESIAN_POINT('',(-5.13257683660133,1.62151864792,-4.9767053817518));
#352=CARTESIAN_POINT('',(-5.45329449873971,1.67672231656179,-3.31784975338987));
#353=CARTESIAN_POINT('',(-5.77409180339262,1.7299328960834,-1.65894249329973));
#354=CARTESIAN_POINT('',(-6.09494999776987,1.78159606103208,0.));
#355=CARTESIAN_POINT('',(-6.09494999776987,1.78159606103208,0.));
#356=CARTESIAN_POINT('',(0.,0.,0.));
#357=CARTESIAN_POINT('',(0.,0.,0.));
#358=CARTESIAN_POINT('',(6.33330548524499,-5.5206569503801,-0.0855779436410357));
#359=CARTESIAN_POINT('',(6.3505311873286,-5.53729161752041,0.));
#360=CARTESIAN_POINT('',(5.37721691206745,-4.59737294754124,-4.83546236832685));
#361=CARTESIAN_POINT('',(5.40191894586566,-5.2253128714715,-4.82120064246392));
#362=CARTESIAN_POINT('',(6.33453171914988,-5.07912679436281,0.));
#363=CARTESIAN_POINT('',(6.33453171914988,-5.07912679436281,0.));
#364=CARTESIAN_POINT('',(0.,-4.84355260418268,-7.75));
#365=CARTESIAN_POINT('',(0.329089653438088,-4.84355260418268,-7.75));
#366=CARTESIAN_POINT('',(-0.329089653438089,-4.84355260418268,-7.75));
#367=CARTESIAN_POINT('',(-1.18329686951594,-4.6738242344473,-8.62317676614627));
#368=CARTESIAN_POINT('',(4.48919377791663,-5.31042246863906,-5.34816276387544));
#369=CARTESIAN_POINT('',(5.11798380519407,-5.91763793969151,-2.22430997371324));
#370=CARTESIAN_POINT('',(5.56570782517645,-6.35,0.));
#371=CARTESIAN_POINT('',(-6.35,-6.35,0.));
#372=CARTESIAN_POINT('',(-5.56570782517645,-6.35,0.));
#373=CARTESIAN_POINT('',(-5.5951770309093,-6.3784580811787,0.146404135814688));
#374=CARTESIAN_POINT('',(-4.48919377791663,-5.31042246863905,-5.34816276387545));
#375=CARTESIAN_POINT('',(-8.25257260431923,-5.73276962871184,-3.17537498538937));
#376=CARTESIAN_POINT('',(-6.35,-6.35,0.));
#377=CARTESIAN_POINT('',(-5.41933195713445,-5.6679616452869,-4.81114723572049));
#378=CARTESIAN_POINT('',(-5.37721691206745,-4.59737294754124,-4.83546236832686));
#379=CARTESIAN_POINT('',(-6.34995928865229,-5.53673934138838,-0.00284121439299437));
#380=CARTESIAN_POINT('',(-6.3505311873286,-5.53729161752042,0.));
#381=CARTESIAN_POINT('',(-6.35,-5.522080402638,0.));
#382=CARTESIAN_POINT('',(-6.35,-5.522080402638,0.));
#383=CARTESIAN_POINT('',(4.45442765392567,-4.4915474661993,-5.3682349949203));
#384=CARTESIAN_POINT('',(5.53498197438465,-5.53502664403583,0.));
#385=CARTESIAN_POINT('',(5.11798380519406,-5.13233619293338,-2.07166277741201));
#386=CARTESIAN_POINT('',(-4.45442765392566,-4.4915474661993,-5.36823499492031));
#387=CARTESIAN_POINT('',(-5.53498197438465,-5.53502664403583,0.));
#388=CARTESIAN_POINT('',(-5.56513592650014,-5.56414597710983,0.149805981908241));
#389=CARTESIAN_POINT('',(0.329089653438088,0.,-7.75));
#390=CARTESIAN_POINT('',(-0.329089653438089,0.,-7.75));
#391=CARTESIAN_POINT('',(0.,0.,-7.75));
#392=CARTESIAN_POINT('',(0.,0.,0.));
#393=CARTESIAN_POINT('',(0.,7.,-7.94));
#394=CARTESIAN_POINT('',(6.99999999999999,7.,-3.89854811567262));
#395=MECHANICAL_DESIGN_GEOMETRIC_PRESENTATION_REPRESENTATION('',(#211,#212,
#213,#214,#215,#216),#396);
#396=(
GEOMETRIC_REPRESENTATION_CONTEXT(3)
GLOBAL_UNCERTAINTY_ASSIGNED_CONTEXT((#397))
GLOBAL_UNIT_ASSIGNED_CONTEXT((#403,#399,#398))
REPRESENTATION_CONTEXT('aaa360415_a','TOP_LEVEL_ASSEMBLY_PART')
);
#397=UNCERTAINTY_MEASURE_WITH_UNIT(LENGTH_MEASURE(0.0508),#403,
'DISTANCE_ACCURACY_VALUE','Maximum Tolerance applied to model');
#398=(
NAMED_UNIT(*)
SI_UNIT($,.STERADIAN.)
SOLID_ANGLE_UNIT()
);
#399=(
CONVERSION_BASED_UNIT('DEGREE',#401)
NAMED_UNIT(#400)
PLANE_ANGLE_UNIT()
);
#400=DIMENSIONAL_EXPONENTS(0.,0.,0.,0.,0.,0.,0.);
#401=PLANE_ANGLE_MEASURE_WITH_UNIT(PLANE_ANGLE_MEASURE(0.0174532925),#402);
#402=(
NAMED_UNIT(*)
PLANE_ANGLE_UNIT()
SI_UNIT($,.RADIAN.)
);
#403=(
LENGTH_UNIT()
NAMED_UNIT(*)
SI_UNIT(.MILLI.,.METRE.)
);
ENDSEC;
END-ISO-10303-21;
