ISO-10303-21;
HEADER;
/* Generated by software containing ST-Developer
 * from STEP Tools, Inc. (www.steptools.com) 
 */
/* OPTION: using custom schema-name function */

FILE_DESCRIPTION(
/* description */ (''),
/* implementation_level */ '2;1');

FILE_NAME(
/* name */ 'TOOL.STP',
/* time_stamp */ '2023-04-19T07:54:13+02:00',
/* author */ (''),
/* organization */ ('SMS'),
/* preprocessor_version */ 'ST-DEVELOPER v16.7',
/* originating_system */ 'SIEMENS PLM Software NX 12.0',
/* authorisation */ '');

FILE_SCHEMA (('AUTOMOTIVE_DESIGN { 1 0 10303 214 3 1 1 1 }'));
ENDSEC;

DATA;
#10=CONSTRUCTIVE_GEOMETRY_REPRESENTATION_RELATIONSHIP(
'supplemental geometry','',#26,#11);
#11=CONSTRUCTIVE_GEOMETRY_REPRESENTATION('supplemental geometry',(#359,
#360,#361),#630);
#12=GEOMETRICALLY_BOUNDED_WIREFRAME_SHAPE_REPRESENTATION('Tool-None',(#27),
#630);
#13=SHAPE_REPRESENTATION_RELATIONSHIP('None',
'relationship between Tool-None and Tool-None',#26,#15);
#14=SHAPE_REPRESENTATION_RELATIONSHIP('None',
'relationship between Tool-None and Tool-None',#26,#12);
#15=ADVANCED_BREP_SHAPE_REPRESENTATION('Tool-None',(#38,#39),#630);
#16=SHAPE_DEFINITION_REPRESENTATION(#17,#26);
#17=PRODUCT_DEFINITION_SHAPE('','',#18);
#18=PRODUCT_DEFINITION(' ','',#20,#19);
#19=PRODUCT_DEFINITION_CONTEXT('part definition',#25,'design');
#20=PRODUCT_DEFINITION_FORMATION_WITH_SPECIFIED_SOURCE(' ',' ',#22,
 .NOT_KNOWN.);
#21=PRODUCT_RELATED_PRODUCT_CATEGORY('part','',(#22));
#22=PRODUCT('Tool','Tool',' ',(#23));
#23=PRODUCT_CONTEXT(' ',#25,'mechanical');
#24=APPLICATION_PROTOCOL_DEFINITION('international standard',
'automotive_design',2010,#25);
#25=APPLICATION_CONTEXT(
'core data for automotive mechanical design processes');
#26=SHAPE_REPRESENTATION('Tool-None',(#358),#630);
#27=GEOMETRIC_CURVE_SET('None',(#500,#501,#502,#322));
#28=SURFACE_STYLE_USAGE(.BOTH.,#30);
#29=SURFACE_STYLE_USAGE(.BOTH.,#31);
#30=SURFACE_SIDE_STYLE('',(#32));
#31=SURFACE_SIDE_STYLE('',(#33));
#32=SURFACE_STYLE_FILL_AREA(#34);
#33=SURFACE_STYLE_FILL_AREA(#35);
#34=FILL_AREA_STYLE('',(#36));
#35=FILL_AREA_STYLE('',(#37));
#36=FILL_AREA_STYLE_COLOUR('',#356);
#37=FILL_AREA_STYLE_COLOUR('',#357);
#38=MANIFOLD_SOLID_BREP('NOCUT',#40);
#39=MANIFOLD_SOLID_BREP('CUT',#41);
#40=CLOSED_SHELL('',(#98,#99,#100,#101,#102,#103,#104,#105,#106,#107,#108,
#109,#110,#111,#112));
#41=CLOSED_SHELL('',(#113,#114,#115,#116,#117,#118));
#42=PLANE('',#379);
#43=PLANE('',#381);
#44=PLANE('',#382);
#45=PLANE('',#383);
#46=PLANE('',#384);
#47=PLANE('',#385);
#48=PLANE('',#386);
#49=PLANE('',#387);
#50=PLANE('',#388);
#51=PLANE('',#389);
#52=PLANE('',#391);
#53=PLANE('',#400);
#54=FACE_OUTER_BOUND('',#150,.T.);
#55=FACE_OUTER_BOUND('',#153,.T.);
#56=FACE_OUTER_BOUND('',#154,.T.);
#57=FACE_OUTER_BOUND('',#155,.T.);
#58=FACE_OUTER_BOUND('',#156,.T.);
#59=FACE_OUTER_BOUND('',#157,.T.);
#60=FACE_OUTER_BOUND('',#158,.T.);
#61=FACE_OUTER_BOUND('',#159,.T.);
#62=FACE_OUTER_BOUND('',#160,.T.);
#63=FACE_OUTER_BOUND('',#161,.T.);
#64=FACE_OUTER_BOUND('',#162,.T.);
#65=FACE_OUTER_BOUND('',#171,.T.);
#66=TOROIDAL_SURFACE('',#378,4.09999999999999,1.1);
#67=CYLINDRICAL_SURFACE('',#373,2.88);
#68=CYLINDRICAL_SURFACE('',#376,2.99999999999999);
#69=CYLINDRICAL_SURFACE('',#395,4.0802604140675);
#70=ELLIPSE('',#369,4.07293505963452,2.88);
#71=ELLIPSE('',#370,4.07293505963452,2.88);
#72=ELLIPSE('',#371,4.07293505963452,2.88);
#73=ELLIPSE('',#372,4.07293505963452,2.88);
#74=LINE('',#569,#86);
#75=LINE('',#573,#87);
#76=LINE('',#574,#88);
#77=LINE('',#578,#89);
#78=LINE('',#579,#90);
#79=LINE('',#583,#91);
#80=LINE('',#584,#92);
#81=LINE('',#588,#93);
#82=LINE('',#600,#94);
#83=LINE('',#603,#95);
#84=LINE('',#606,#96);
#85=LINE('',#609,#97);
#86=VECTOR('',#423,1.);
#87=VECTOR('',#426,1.);
#88=VECTOR('',#427,1.);
#89=VECTOR('',#430,1.);
#90=VECTOR('',#431,1.);
#91=VECTOR('',#434,1.);
#92=VECTOR('',#435,1.);
#93=VECTOR('',#438,1.);
#94=VECTOR('',#455,1.);
#95=VECTOR('',#460,1.);
#96=VECTOR('',#465,1.);
#97=VECTOR('',#470,1.);
#98=ADVANCED_FACE('',(#124,#125),#119,.T.);
#99=ADVANCED_FACE('',(#126,#127),#67,.T.);
#100=ADVANCED_FACE('',(#128,#129),#68,.T.);
#101=ADVANCED_FACE('',(#130,#131),#66,.F.);
#102=ADVANCED_FACE('',(#54),#42,.F.);
#103=ADVANCED_FACE('',(#132,#133),#120,.T.);
#104=ADVANCED_FACE('',(#55),#43,.T.);
#105=ADVANCED_FACE('',(#56),#44,.T.);
#106=ADVANCED_FACE('',(#57),#45,.T.);
#107=ADVANCED_FACE('',(#58),#46,.T.);
#108=ADVANCED_FACE('',(#59),#47,.T.);
#109=ADVANCED_FACE('',(#60),#48,.T.);
#110=ADVANCED_FACE('',(#61),#49,.T.);
#111=ADVANCED_FACE('',(#62),#50,.T.);
#112=ADVANCED_FACE('',(#63),#51,.T.);
#113=ADVANCED_FACE('',(#64),#52,.T.);
#114=ADVANCED_FACE('',(#134,#135),#121,.T.);
#115=ADVANCED_FACE('',(#136,#137),#69,.T.);
#116=ADVANCED_FACE('',(#138,#139),#122,.T.);
#117=ADVANCED_FACE('',(#140,#141),#123,.T.);
#118=ADVANCED_FACE('',(#65),#53,.F.);
#119=CONICAL_SURFACE('',#367,1.68,45.);
#120=CONICAL_SURFACE('',#380,4.2,45.);
#121=CONICAL_SURFACE('',#393,3.04872212364635,8.00000000000004);
#122=CONICAL_SURFACE('',#398,4.25526041406747,45.0000000000001);
#123=CONICAL_SURFACE('',#399,2.75147650344913,13.7263903816168);
#124=FACE_BOUND('',#142,.T.);
#125=FACE_BOUND('',#143,.T.);
#126=FACE_BOUND('',#144,.T.);
#127=FACE_BOUND('',#145,.T.);
#128=FACE_BOUND('',#146,.T.);
#129=FACE_BOUND('',#147,.T.);
#130=FACE_BOUND('',#148,.T.);
#131=FACE_BOUND('',#149,.T.);
#132=FACE_BOUND('',#151,.T.);
#133=FACE_BOUND('',#152,.T.);
#134=FACE_BOUND('',#163,.T.);
#135=FACE_BOUND('',#164,.T.);
#136=FACE_BOUND('',#165,.T.);
#137=FACE_BOUND('',#166,.T.);
#138=FACE_BOUND('',#167,.T.);
#139=FACE_BOUND('',#168,.T.);
#140=FACE_BOUND('',#169,.T.);
#141=FACE_BOUND('',#170,.T.);
#142=EDGE_LOOP('',(#172));
#143=EDGE_LOOP('',(#173,#174,#175,#176,#177,#178,#179,#180));
#144=EDGE_LOOP('',(#181));
#145=EDGE_LOOP('',(#182,#183,#184,#185,#186,#187,#188,#189,#190,#191,#192,
#193,#194,#195,#196,#197));
#146=EDGE_LOOP('',(#198));
#147=EDGE_LOOP('',(#199));
#148=EDGE_LOOP('',(#200));
#149=EDGE_LOOP('',(#201));
#150=EDGE_LOOP('',(#202));
#151=EDGE_LOOP('',(#203));
#152=EDGE_LOOP('',(#204));
#153=EDGE_LOOP('',(#205,#206,#207,#208));
#154=EDGE_LOOP('',(#209,#210));
#155=EDGE_LOOP('',(#211,#212,#213,#214));
#156=EDGE_LOOP('',(#215,#216));
#157=EDGE_LOOP('',(#217,#218));
#158=EDGE_LOOP('',(#219,#220,#221,#222));
#159=EDGE_LOOP('',(#223,#224,#225,#226));
#160=EDGE_LOOP('',(#227,#228));
#161=EDGE_LOOP('',(#229));
#162=EDGE_LOOP('',(#230));
#163=EDGE_LOOP('',(#231));
#164=EDGE_LOOP('',(#232));
#165=EDGE_LOOP('',(#233));
#166=EDGE_LOOP('',(#234));
#167=EDGE_LOOP('',(#235));
#168=EDGE_LOOP('',(#236));
#169=EDGE_LOOP('',(#237));
#170=EDGE_LOOP('',(#238));
#171=EDGE_LOOP('',(#239));
#172=ORIENTED_EDGE('',*,*,#266,.F.);
#173=ORIENTED_EDGE('',*,*,#267,.T.);
#174=ORIENTED_EDGE('',*,*,#268,.T.);
#175=ORIENTED_EDGE('',*,*,#269,.T.);
#176=ORIENTED_EDGE('',*,*,#270,.T.);
#177=ORIENTED_EDGE('',*,*,#271,.T.);
#178=ORIENTED_EDGE('',*,*,#272,.T.);
#179=ORIENTED_EDGE('',*,*,#273,.T.);
#180=ORIENTED_EDGE('',*,*,#274,.T.);
#181=ORIENTED_EDGE('',*,*,#275,.F.);
#182=ORIENTED_EDGE('',*,*,#276,.F.);
#183=ORIENTED_EDGE('',*,*,#277,.F.);
#184=ORIENTED_EDGE('',*,*,#278,.F.);
#185=ORIENTED_EDGE('',*,*,#267,.F.);
#186=ORIENTED_EDGE('',*,*,#279,.F.);
#187=ORIENTED_EDGE('',*,*,#280,.F.);
#188=ORIENTED_EDGE('',*,*,#281,.F.);
#189=ORIENTED_EDGE('',*,*,#273,.F.);
#190=ORIENTED_EDGE('',*,*,#282,.F.);
#191=ORIENTED_EDGE('',*,*,#283,.F.);
#192=ORIENTED_EDGE('',*,*,#284,.F.);
#193=ORIENTED_EDGE('',*,*,#271,.F.);
#194=ORIENTED_EDGE('',*,*,#285,.F.);
#195=ORIENTED_EDGE('',*,*,#286,.F.);
#196=ORIENTED_EDGE('',*,*,#287,.F.);
#197=ORIENTED_EDGE('',*,*,#269,.F.);
#198=ORIENTED_EDGE('',*,*,#288,.T.);
#199=ORIENTED_EDGE('',*,*,#289,.T.);
#200=ORIENTED_EDGE('',*,*,#288,.F.);
#201=ORIENTED_EDGE('',*,*,#290,.F.);
#202=ORIENTED_EDGE('',*,*,#266,.T.);
#203=ORIENTED_EDGE('',*,*,#275,.T.);
#204=ORIENTED_EDGE('',*,*,#289,.F.);
#205=ORIENTED_EDGE('',*,*,#285,.T.);
#206=ORIENTED_EDGE('',*,*,#270,.F.);
#207=ORIENTED_EDGE('',*,*,#287,.T.);
#208=ORIENTED_EDGE('',*,*,#291,.F.);
#209=ORIENTED_EDGE('',*,*,#286,.T.);
#210=ORIENTED_EDGE('',*,*,#291,.T.);
#211=ORIENTED_EDGE('',*,*,#279,.T.);
#212=ORIENTED_EDGE('',*,*,#274,.F.);
#213=ORIENTED_EDGE('',*,*,#281,.T.);
#214=ORIENTED_EDGE('',*,*,#292,.F.);
#215=ORIENTED_EDGE('',*,*,#280,.T.);
#216=ORIENTED_EDGE('',*,*,#292,.T.);
#217=ORIENTED_EDGE('',*,*,#283,.T.);
#218=ORIENTED_EDGE('',*,*,#293,.T.);
#219=ORIENTED_EDGE('',*,*,#282,.T.);
#220=ORIENTED_EDGE('',*,*,#272,.F.);
#221=ORIENTED_EDGE('',*,*,#284,.T.);
#222=ORIENTED_EDGE('',*,*,#293,.F.);
#223=ORIENTED_EDGE('',*,*,#276,.T.);
#224=ORIENTED_EDGE('',*,*,#268,.F.);
#225=ORIENTED_EDGE('',*,*,#278,.T.);
#226=ORIENTED_EDGE('',*,*,#294,.F.);
#227=ORIENTED_EDGE('',*,*,#277,.T.);
#228=ORIENTED_EDGE('',*,*,#294,.T.);
#229=ORIENTED_EDGE('',*,*,#290,.T.);
#230=ORIENTED_EDGE('',*,*,#295,.T.);
#231=ORIENTED_EDGE('',*,*,#295,.F.);
#232=ORIENTED_EDGE('',*,*,#296,.T.);
#233=ORIENTED_EDGE('',*,*,#296,.F.);
#234=ORIENTED_EDGE('',*,*,#297,.T.);
#235=ORIENTED_EDGE('',*,*,#298,.F.);
#236=ORIENTED_EDGE('',*,*,#299,.F.);
#237=ORIENTED_EDGE('',*,*,#299,.T.);
#238=ORIENTED_EDGE('',*,*,#297,.F.);
#239=ORIENTED_EDGE('',*,*,#298,.T.);
#240=VERTEX_POINT('',#529);
#241=VERTEX_POINT('',#531);
#242=VERTEX_POINT('',#532);
#243=VERTEX_POINT('',#539);
#244=VERTEX_POINT('',#541);
#245=VERTEX_POINT('',#548);
#246=VERTEX_POINT('',#550);
#247=VERTEX_POINT('',#557);
#248=VERTEX_POINT('',#559);
#249=VERTEX_POINT('',#568);
#250=VERTEX_POINT('',#570);
#251=VERTEX_POINT('',#572);
#252=VERTEX_POINT('',#575);
#253=VERTEX_POINT('',#577);
#254=VERTEX_POINT('',#580);
#255=VERTEX_POINT('',#582);
#256=VERTEX_POINT('',#585);
#257=VERTEX_POINT('',#587);
#258=VERTEX_POINT('',#591);
#259=VERTEX_POINT('',#593);
#260=VERTEX_POINT('',#596);
#261=VERTEX_POINT('',#614);
#262=VERTEX_POINT('',#617);
#263=VERTEX_POINT('',#620);
#264=VERTEX_POINT('',#623);
#265=VERTEX_POINT('',#625);
#266=EDGE_CURVE('',#240,#240,#300,.T.);
#267=EDGE_CURVE('',#241,#242,#301,.T.);
#268=EDGE_CURVE('',#242,#243,#323,.T.);
#269=EDGE_CURVE('',#243,#244,#302,.T.);
#270=EDGE_CURVE('',#244,#245,#324,.T.);
#271=EDGE_CURVE('',#245,#246,#303,.T.);
#272=EDGE_CURVE('',#246,#247,#325,.T.);
#273=EDGE_CURVE('',#247,#248,#304,.T.);
#274=EDGE_CURVE('',#248,#241,#326,.T.);
#275=EDGE_CURVE('',#249,#249,#305,.T.);
#276=EDGE_CURVE('',#250,#243,#74,.T.);
#277=EDGE_CURVE('',#251,#250,#70,.T.);
#278=EDGE_CURVE('',#242,#251,#75,.T.);
#279=EDGE_CURVE('',#252,#241,#76,.T.);
#280=EDGE_CURVE('',#253,#252,#71,.T.);
#281=EDGE_CURVE('',#248,#253,#77,.T.);
#282=EDGE_CURVE('',#254,#247,#78,.T.);
#283=EDGE_CURVE('',#255,#254,#72,.T.);
#284=EDGE_CURVE('',#246,#255,#79,.T.);
#285=EDGE_CURVE('',#256,#245,#80,.T.);
#286=EDGE_CURVE('',#257,#256,#73,.T.);
#287=EDGE_CURVE('',#244,#257,#81,.T.);
#288=EDGE_CURVE('',#258,#258,#306,.T.);
#289=EDGE_CURVE('',#259,#259,#307,.T.);
#290=EDGE_CURVE('',#260,#260,#308,.T.);
#291=EDGE_CURVE('',#256,#257,#82,.T.);
#292=EDGE_CURVE('',#252,#253,#83,.T.);
#293=EDGE_CURVE('',#254,#255,#84,.T.);
#294=EDGE_CURVE('',#250,#251,#85,.T.);
#295=EDGE_CURVE('',#261,#261,#309,.T.);
#296=EDGE_CURVE('',#262,#262,#310,.T.);
#297=EDGE_CURVE('',#263,#263,#311,.T.);
#298=EDGE_CURVE('',#264,#264,#312,.T.);
#299=EDGE_CURVE('',#265,#265,#313,.T.);
#300=CIRCLE('',#362,1.68);
#301=CIRCLE('',#363,2.88);
#302=CIRCLE('',#364,2.88);
#303=CIRCLE('',#365,2.88);
#304=CIRCLE('',#366,2.88);
#305=CIRCLE('',#368,2.88);
#306=CIRCLE('',#374,2.99999999999999);
#307=CIRCLE('',#375,3.);
#308=CIRCLE('',#377,3.04872212364635);
#309=CIRCLE('',#390,3.04872212364635);
#310=CIRCLE('',#392,4.0802604140675);
#311=CIRCLE('',#394,4.0802604140675);
#312=CIRCLE('',#396,3.01499999999997);
#313=CIRCLE('',#397,3.28040118184405);
#314=CURVE_STYLE('',#318,POSITIVE_LENGTH_MEASURE(0.18),#328);
#315=CURVE_STYLE('',#319,POSITIVE_LENGTH_MEASURE(0.13),#355);
#316=CURVE_STYLE('',#320,POSITIVE_LENGTH_MEASURE(0.18),#354);
#317=CURVE_STYLE('',#321,POSITIVE_LENGTH_MEASURE(0.18),#354);
#318=DRAUGHTING_PRE_DEFINED_CURVE_FONT('continuous');
#319=DRAUGHTING_PRE_DEFINED_CURVE_FONT('continuous');
#320=DRAUGHTING_PRE_DEFINED_CURVE_FONT('continuous');
#321=DRAUGHTING_PRE_DEFINED_CURVE_FONT('continuous');
#322=B_SPLINE_CURVE_WITH_KNOTS('CUTTING PART LINE',3,(#503,#504,#505,#506,
#507,#508,#509,#510,#511,#512,#513,#514,#515,#516,#517,#518,#519,#520,#521,
#522,#523,#524),.UNSPECIFIED.,.T.,.F.,(4,3,3,3,3,3,3,4),(0.,0.159251838008506,
0.224756505471337,0.656623944554841,0.72140406041554,0.729468464004291,
0.80189480652617,1.),.UNSPECIFIED.);
#323=B_SPLINE_CURVE_WITH_KNOTS('',3,(#533,#534,#535,#536,#537,#538),
 .UNSPECIFIED.,.F.,.F.,(4,2,4),(0.,0.5,1.),.UNSPECIFIED.);
#324=B_SPLINE_CURVE_WITH_KNOTS('',3,(#542,#543,#544,#545,#546,#547),
 .UNSPECIFIED.,.F.,.F.,(4,2,4),(0.,0.5,1.),.UNSPECIFIED.);
#325=B_SPLINE_CURVE_WITH_KNOTS('',3,(#551,#552,#553,#554,#555,#556),
 .UNSPECIFIED.,.F.,.F.,(4,2,4),(0.,0.5,1.),.UNSPECIFIED.);
#326=B_SPLINE_CURVE_WITH_KNOTS('',3,(#560,#561,#562,#563,#564,#565),
 .UNSPECIFIED.,.F.,.F.,(4,2,4),(0.,0.5,1.),.UNSPECIFIED.);
#327=DRAUGHTING_PRE_DEFINED_COLOUR('white');
#328=DRAUGHTING_PRE_DEFINED_COLOUR('blue');
#329=PRESENTATION_LAYER_ASSIGNMENT('1','Layer 1',(#500,#501,#502,#322,#359,
#360,#361,#38,#39));
#330=STYLED_ITEM('',(#339),#500);
#331=STYLED_ITEM('',(#340),#501);
#332=STYLED_ITEM('',(#341),#502);
#333=STYLED_ITEM('',(#342),#322);
#334=STYLED_ITEM('',(#343),#359);
#335=STYLED_ITEM('',(#344),#360);
#336=STYLED_ITEM('',(#345),#361);
#337=STYLED_ITEM('',(#346),#38);
#338=STYLED_ITEM('',(#347),#39);
#339=PRESENTATION_STYLE_ASSIGNMENT((#348));
#340=PRESENTATION_STYLE_ASSIGNMENT((#349));
#341=PRESENTATION_STYLE_ASSIGNMENT((#350));
#342=PRESENTATION_STYLE_ASSIGNMENT((#314));
#343=PRESENTATION_STYLE_ASSIGNMENT((#315));
#344=PRESENTATION_STYLE_ASSIGNMENT((#316));
#345=PRESENTATION_STYLE_ASSIGNMENT((#317));
#346=PRESENTATION_STYLE_ASSIGNMENT((#28));
#347=PRESENTATION_STYLE_ASSIGNMENT((#29));
#348=POINT_STYLE('',#351,POSITIVE_LENGTH_MEASURE(3.),#354);
#349=POINT_STYLE('',#352,POSITIVE_LENGTH_MEASURE(3.),#327);
#350=POINT_STYLE('',#353,POSITIVE_LENGTH_MEASURE(3.),#354);
#351=PRE_DEFINED_POINT_MARKER_SYMBOL('plus');
#352=PRE_DEFINED_POINT_MARKER_SYMBOL('plus');
#353=PRE_DEFINED_POINT_MARKER_SYMBOL('plus');
#354=COLOUR_RGB('Medium Maroon',0.6,0.4,0.4);
#355=COLOUR_RGB('Silver Gray',0.6,0.6,0.6);
#356=COLOUR_RGB('TLS_NOCUT',0.498023956664378,0.498023956664378,0.498023956664378);
#357=COLOUR_RGB('TLS_CUT',0.8,0.8,0.8);
#358=AXIS2_PLACEMENT_3D('',#499,#401,#402);
#359=AXIS2_PLACEMENT_3D('PCS',#525,#403,#404);
#360=AXIS2_PLACEMENT_3D('MCS',#526,#405,#406);
#361=AXIS2_PLACEMENT_3D('CIP',#527,#407,#408);
#362=AXIS2_PLACEMENT_3D('',#528,#409,#410);
#363=AXIS2_PLACEMENT_3D('',#530,#411,#412);
#364=AXIS2_PLACEMENT_3D('',#540,#413,#414);
#365=AXIS2_PLACEMENT_3D('',#549,#415,#416);
#366=AXIS2_PLACEMENT_3D('',#558,#417,#418);
#367=AXIS2_PLACEMENT_3D('',#566,#419,#420);
#368=AXIS2_PLACEMENT_3D('',#567,#421,#422);
#369=AXIS2_PLACEMENT_3D('',#571,#424,#425);
#370=AXIS2_PLACEMENT_3D('',#576,#428,#429);
#371=AXIS2_PLACEMENT_3D('',#581,#432,#433);
#372=AXIS2_PLACEMENT_3D('',#586,#436,#437);
#373=AXIS2_PLACEMENT_3D('',#589,#439,#440);
#374=AXIS2_PLACEMENT_3D('',#590,#441,#442);
#375=AXIS2_PLACEMENT_3D('',#592,#443,#444);
#376=AXIS2_PLACEMENT_3D('',#594,#445,#446);
#377=AXIS2_PLACEMENT_3D('',#595,#447,#448);
#378=AXIS2_PLACEMENT_3D('',#597,#449,#450);
#379=AXIS2_PLACEMENT_3D('',#598,#451,#452);
#380=AXIS2_PLACEMENT_3D('',#599,#453,#454);
#381=AXIS2_PLACEMENT_3D('',#601,#456,#457);
#382=AXIS2_PLACEMENT_3D('',#602,#458,#459);
#383=AXIS2_PLACEMENT_3D('',#604,#461,#462);
#384=AXIS2_PLACEMENT_3D('',#605,#463,#464);
#385=AXIS2_PLACEMENT_3D('',#607,#466,#467);
#386=AXIS2_PLACEMENT_3D('',#608,#468,#469);
#387=AXIS2_PLACEMENT_3D('',#610,#471,#472);
#388=AXIS2_PLACEMENT_3D('',#611,#473,#474);
#389=AXIS2_PLACEMENT_3D('',#612,#475,#476);
#390=AXIS2_PLACEMENT_3D('',#613,#477,#478);
#391=AXIS2_PLACEMENT_3D('',#615,#479,#480);
#392=AXIS2_PLACEMENT_3D('',#616,#481,#482);
#393=AXIS2_PLACEMENT_3D('',#618,#483,#484);
#394=AXIS2_PLACEMENT_3D('',#619,#485,#486);
#395=AXIS2_PLACEMENT_3D('',#621,#487,#488);
#396=AXIS2_PLACEMENT_3D('',#622,#489,#490);
#397=AXIS2_PLACEMENT_3D('',#624,#491,#492);
#398=AXIS2_PLACEMENT_3D('',#626,#493,#494);
#399=AXIS2_PLACEMENT_3D('',#627,#495,#496);
#400=AXIS2_PLACEMENT_3D('',#628,#497,#498);
#401=DIRECTION('',(0.,0.,1.));
#402=DIRECTION('',(1.,0.,0.));
#403=DIRECTION('',(0.,0.,1.));
#404=DIRECTION('',(1.,0.,0.));
#405=DIRECTION('',(0.,0.,1.));
#406=DIRECTION('',(1.,0.,0.));
#407=DIRECTION('',(0.,0.,1.));
#408=DIRECTION('',(1.,0.,0.));
#409=DIRECTION('',(0.,0.,1.));
#410=DIRECTION('',(1.,0.,0.));
#411=DIRECTION('',(0.,0.,1.));
#412=DIRECTION('',(-1.,0.,0.));
#413=DIRECTION('',(0.,0.,1.));
#414=DIRECTION('',(-1.,0.,0.));
#415=DIRECTION('',(0.,0.,1.));
#416=DIRECTION('',(-1.,0.,0.));
#417=DIRECTION('',(0.,0.,1.));
#418=DIRECTION('',(-1.,0.,0.));
#419=DIRECTION('',(0.,0.,-1.));
#420=DIRECTION('',(-1.,0.,0.));
#421=DIRECTION('',(0.,0.,-1.));
#422=DIRECTION('',(1.,0.,0.));
#423=DIRECTION('',(0.,0.,1.));
#424=DIRECTION('',(0.707106781186548,0.,0.707106781186547));
#425=DIRECTION('',(-0.707106781186547,0.,0.707106781186548));
#426=DIRECTION('',(0.,0.,-1.));
#427=DIRECTION('',(0.,0.,1.));
#428=DIRECTION('',(-2.64204134232937E-15,-0.707106781186548,0.707106781186547));
#429=DIRECTION('',(2.64204134232936E-15,0.707106781186547,0.707106781186548));
#430=DIRECTION('',(0.,0.,-1.));
#431=DIRECTION('',(0.,0.,1.));
#432=DIRECTION('',(-0.707106781186548,1.65668806430733E-15,0.707106781186547));
#433=DIRECTION('',(0.707106781186547,-1.65668806430732E-15,0.707106781186548));
#434=DIRECTION('',(0.,0.,-1.));
#435=DIRECTION('',(0.,0.,1.));
#436=DIRECTION('',(8.28344032153663E-16,0.707106781186548,0.707106781186547));
#437=DIRECTION('',(-8.28344032153662E-16,-0.707106781186547,0.707106781186548));
#438=DIRECTION('',(0.,0.,-1.));
#439=DIRECTION('',(0.,0.,1.));
#440=DIRECTION('',(1.,0.,0.));
#441=DIRECTION('',(0.,0.,1.));
#442=DIRECTION('',(-1.,0.,0.));
#443=DIRECTION('',(0.,0.,-1.));
#444=DIRECTION('',(-1.,0.,0.));
#445=DIRECTION('',(0.,0.,-1.));
#446=DIRECTION('',(-1.,0.,0.));
#447=DIRECTION('',(0.,0.,-1.));
#448=DIRECTION('',(1.,0.,0.));
#449=DIRECTION('',(0.,0.,-1.));
#450=DIRECTION('',(-1.,0.,0.));
#451=DIRECTION('',(1.27840318262939E-16,0.,-1.));
#452=DIRECTION('',(-1.,0.,-1.27840318262939E-16));
#453=DIRECTION('',(0.,0.,-1.));
#454=DIRECTION('',(-1.,0.,-1.0364808659491E-17));
#455=DIRECTION('',(1.,-1.17145536458252E-15,0.));
#456=DIRECTION('',(1.17145536458252E-15,1.,0.));
#457=DIRECTION('',(0.,0.,-1.));
#458=DIRECTION('',(8.28344032153663E-16,0.707106781186548,0.707106781186547));
#459=DIRECTION('',(8.28330459778925E-16,0.707106781186547,-0.707106781186548));
#460=DIRECTION('',(-1.,3.7364106986726E-15,0.));
#461=DIRECTION('',(-3.7364106986726E-15,-1.,0.));
#462=DIRECTION('',(0.,0.,-1.));
#463=DIRECTION('',(-2.64204134232937E-15,-0.707106781186548,0.707106781186547));
#464=DIRECTION('',(-2.64198385391268E-15,-0.707106781186547,-0.707106781186548));
#465=DIRECTION('',(2.34291072916505E-15,1.,0.));
#466=DIRECTION('',(-0.707106781186548,1.65668806430733E-15,0.707106781186547));
#467=DIRECTION('',(-0.707106781186547,1.65666091955785E-15,-0.707106781186548));
#468=DIRECTION('',(-1.,2.34291072916505E-15,0.));
#469=DIRECTION('',(0.,0.,-1.));
#470=DIRECTION('',(0.,-1.,0.));
#471=DIRECTION('',(1.,0.,0.));
#472=DIRECTION('',(0.,0.,-1.));
#473=DIRECTION('',(0.707106781186548,0.,0.707106781186547));
#474=DIRECTION('',(0.707106781186547,0.,-0.707106781186548));
#475=DIRECTION('',(0.,0.,-1.));
#476=DIRECTION('',(-1.,0.,0.));
#477=DIRECTION('',(0.,0.,1.));
#478=DIRECTION('',(1.,0.,0.));
#479=DIRECTION('',(0.,0.,1.));
#480=DIRECTION('',(1.,0.,0.));
#481=DIRECTION('',(0.,0.,1.));
#482=DIRECTION('',(-1.,0.,0.));
#483=DIRECTION('',(0.,0.,-1.));
#484=DIRECTION('',(-1.,0.,-3.86596020339492E-16));
#485=DIRECTION('',(0.,0.,1.));
#486=DIRECTION('',(1.,0.,0.));
#487=DIRECTION('',(0.,0.,1.));
#488=DIRECTION('',(1.,0.,0.));
#489=DIRECTION('',(1.11184555555029E-16,0.,-1.));
#490=DIRECTION('',(1.,0.,0.));
#491=DIRECTION('',(0.,0.,1.));
#492=DIRECTION('',(-1.,0.,0.));
#493=DIRECTION('',(-3.52223116190275E-16,0.,1.));
#494=DIRECTION('',(1.,0.,3.17836641899317E-16));
#495=DIRECTION('',(0.,0.,1.));
#496=DIRECTION('',(1.,0.,1.12364735290892E-16));
#497=DIRECTION('',(-1.11184555555029E-16,0.,1.));
#498=DIRECTION('',(1.,0.,1.11022302462516E-16));
#499=CARTESIAN_POINT('',(0.,0.,0.));
#500=CARTESIAN_POINT('',(0.,0.,-23.));
#501=CARTESIAN_POINT('CRP',(-4.0802604140675,0.,-90.));
#502=CARTESIAN_POINT('CIP_DCSYS',(0.,0.,-90.));
#503=CARTESIAN_POINT('',(-4.0802604140675,0.,-77.3397763191425));
#504=CARTESIAN_POINT('',(-3.73641431726045,0.,-74.8931842127617));
#505=CARTESIAN_POINT('',(-3.3925682204534,0.,-72.4465921063808));
#506=CARTESIAN_POINT('',(-3.04872212364635,0.,-70.));
#507=CARTESIAN_POINT('',(-2.03248141576424,0.,-70.));
#508=CARTESIAN_POINT('',(-1.01624070788212,0.,-70.));
#509=CARTESIAN_POINT('',(0.,0.,-70.));
#510=CARTESIAN_POINT('',(0.,0.,-76.7));
#511=CARTESIAN_POINT('',(0.,0.,-83.4));
#512=CARTESIAN_POINT('',(0.,0.,-90.1));
#513=CARTESIAN_POINT('',(-1.00499999999998,0.,-90.1));
#514=CARTESIAN_POINT('',(-2.00999999999996,0.,-90.1));
#515=CARTESIAN_POINT('',(-3.01499999999994,0.,-90.1));
#516=CARTESIAN_POINT('',(-3.10346706061464,0.,-90.0115329393853));
#517=CARTESIAN_POINT('',(-3.19193412122933,0.,-89.9230658787706));
#518=CARTESIAN_POINT('',(-3.28040118184404,0.,-89.8345988181559));
#519=CARTESIAN_POINT('',(-3.54702092591853,0.,-88.7430658787706));
#520=CARTESIAN_POINT('',(-3.81364066999301,0.,-87.6515329393853));
#521=CARTESIAN_POINT('',(-4.08026041406749,0.,-86.56));
#522=CARTESIAN_POINT('',(-4.0802604140675,0.,-83.4865921063809));
#523=CARTESIAN_POINT('',(-4.0802604140675,0.,-80.4131842127617));
#524=CARTESIAN_POINT('',(-4.0802604140675,0.,-77.3397763191426));
#525=CARTESIAN_POINT('',(0.,0.,0.));
#526=CARTESIAN_POINT('',(0.,0.,-23.));
#527=CARTESIAN_POINT('',(0.,0.,-90.));
#528=CARTESIAN_POINT('',(0.,0.,0.));
#529=CARTESIAN_POINT('',(1.68,0.,0.));
#530=CARTESIAN_POINT('',(0.,0.,-1.2));
#531=CARTESIAN_POINT('',(1.51390224255068,-2.45000000000001,-1.2));
#532=CARTESIAN_POINT('',(2.45,-1.51390224255069,-1.2));
#533=CARTESIAN_POINT('',(2.45,-1.51390224255069,-1.2));
#534=CARTESIAN_POINT('',(2.45,-1.0429266842538,-0.95242675212076));
#535=CARTESIAN_POINT('',(2.45,-0.527487040872746,-0.769950086520582));
#536=CARTESIAN_POINT('',(2.45,0.527950601698214,-0.770049935406833));
#537=CARTESIAN_POINT('',(2.45,1.04324275720303,-0.952592899185565));
#538=CARTESIAN_POINT('',(2.45,1.51390224255069,-1.2));
#539=CARTESIAN_POINT('',(2.45,1.51390224255069,-1.2));
#540=CARTESIAN_POINT('',(0.,0.,-1.2));
#541=CARTESIAN_POINT('',(1.51390224255069,2.45,-1.2));
#542=CARTESIAN_POINT('',(1.51390224255069,2.45,-1.2));
#543=CARTESIAN_POINT('',(1.04292668425381,2.45,-0.95242675212076));
#544=CARTESIAN_POINT('',(0.527487040872747,2.45,-0.769950086520582));
#545=CARTESIAN_POINT('',(-0.527950601698212,2.45,-0.770049935406833));
#546=CARTESIAN_POINT('',(-1.04324275720303,2.45,-0.952592899185565));
#547=CARTESIAN_POINT('',(-1.51390224255068,2.45,-1.2));
#548=CARTESIAN_POINT('',(-1.51390224255068,2.45,-1.2));
#549=CARTESIAN_POINT('',(0.,0.,-1.2));
#550=CARTESIAN_POINT('',(-2.45,1.51390224255069,-1.2));
#551=CARTESIAN_POINT('',(-2.45,1.51390224255069,-1.2));
#552=CARTESIAN_POINT('',(-2.45,1.04324275720303,-0.952592899185566));
#553=CARTESIAN_POINT('',(-2.45,0.527950601698221,-0.770049935406833));
#554=CARTESIAN_POINT('',(-2.45,-0.527487040872739,-0.769950086520581));
#555=CARTESIAN_POINT('',(-2.45,-1.0429266842538,-0.95242675212076));
#556=CARTESIAN_POINT('',(-2.45,-1.51390224255068,-1.2));
#557=CARTESIAN_POINT('',(-2.45,-1.51390224255068,-1.2));
#558=CARTESIAN_POINT('',(0.,0.,-1.2));
#559=CARTESIAN_POINT('',(-1.5139022425507,-2.44999999999999,-1.2));
#560=CARTESIAN_POINT('',(-1.5139022425507,-2.44999999999999,-1.2));
#561=CARTESIAN_POINT('',(-1.04324275720304,-2.45,-0.952592899185565));
#562=CARTESIAN_POINT('',(-0.527950601698224,-2.45,-0.770049935406833));
#563=CARTESIAN_POINT('',(0.527487040872736,-2.45,-0.769950086520582));
#564=CARTESIAN_POINT('',(1.04292668425379,-2.45,-0.95242675212076));
#565=CARTESIAN_POINT('',(1.51390224255068,-2.45000000000001,-1.2));
#566=CARTESIAN_POINT('',(0.,0.,0.));
#567=CARTESIAN_POINT('',(0.,0.,-8.688));
#568=CARTESIAN_POINT('',(2.88,0.,-8.688));
#569=CARTESIAN_POINT('',(2.45,1.51390224255069,20.9080749503476));
#570=CARTESIAN_POINT('',(2.45,1.51390224255068,-8.));
#571=CARTESIAN_POINT('',(0.,0.,-5.55));
#572=CARTESIAN_POINT('',(2.45,-1.51390224255068,-8.));
#573=CARTESIAN_POINT('',(2.45,-1.51390224255069,20.9080749503476));
#574=CARTESIAN_POINT('',(1.51390224255068,-2.45000000000001,20.9080749503476));
#575=CARTESIAN_POINT('',(1.51390224255068,-2.45000000000001,-8.));
#576=CARTESIAN_POINT('',(0.,0.,-5.55));
#577=CARTESIAN_POINT('',(-1.51390224255069,-2.44999999999999,-8.));
#578=CARTESIAN_POINT('',(-1.5139022425507,-2.44999999999999,20.9080749503476));
#579=CARTESIAN_POINT('',(-2.45,-1.51390224255068,20.9080749503476));
#580=CARTESIAN_POINT('',(-2.45,-1.51390224255068,-8.));
#581=CARTESIAN_POINT('',(0.,0.,-5.55));
#582=CARTESIAN_POINT('',(-2.45,1.51390224255069,-8.));
#583=CARTESIAN_POINT('',(-2.45,1.51390224255069,20.9080749503476));
#584=CARTESIAN_POINT('',(-1.51390224255068,2.45,20.9080749503476));
#585=CARTESIAN_POINT('',(-1.51390224255068,2.45,-8.));
#586=CARTESIAN_POINT('',(0.,0.,-5.55));
#587=CARTESIAN_POINT('',(1.51390224255069,2.45,-8.));
#588=CARTESIAN_POINT('',(1.51390224255069,2.45,20.9080749503476));
#589=CARTESIAN_POINT('',(0.,0.,20.9080749503476));
#590=CARTESIAN_POINT('',(7.54951656745106E-15,0.,-69.6762488197869));
#591=CARTESIAN_POINT('',(-2.99999999999999,0.,-69.6762488197869));
#592=CARTESIAN_POINT('',(0.,0.,-8.808));
#593=CARTESIAN_POINT('',(-3.,0.,-8.808));
#594=CARTESIAN_POINT('',(7.54951656745106E-15,0.,-69.4756108063919));
#595=CARTESIAN_POINT('',(7.54951656745106E-15,0.,-70.));
#596=CARTESIAN_POINT('',(3.04872212364635,0.,-70.));
#597=CARTESIAN_POINT('',(7.54951656745106E-15,0.,-69.6762488197869));
#598=CARTESIAN_POINT('',(3.2,0.,2.04544509220703E-16));
#599=CARTESIAN_POINT('',(0.,0.,-10.008));
#600=CARTESIAN_POINT('',(7.35,2.44999999999999,-8.));
#601=CARTESIAN_POINT('',(7.35,2.44999999999999,10.));
#602=CARTESIAN_POINT('',(7.35,2.44999999999999,-8.));
#603=CARTESIAN_POINT('',(-7.35000000000001,-2.44999999999997,-8.));
#604=CARTESIAN_POINT('',(-7.35000000000001,-2.44999999999997,10.));
#605=CARTESIAN_POINT('',(-7.35000000000001,-2.44999999999997,-8.));
#606=CARTESIAN_POINT('',(-2.44999999999998,7.35000000000001,-8.));
#607=CARTESIAN_POINT('',(-2.44999999999998,7.35000000000001,-8.));
#608=CARTESIAN_POINT('',(-2.44999999999998,7.35000000000001,10.));
#609=CARTESIAN_POINT('',(2.45,-7.35,-8.));
#610=CARTESIAN_POINT('',(2.45,-7.35,10.));
#611=CARTESIAN_POINT('',(2.45,-7.35,-8.));
#612=CARTESIAN_POINT('',(0.,0.,-70.));
#613=CARTESIAN_POINT('',(0.,0.,-70.));
#614=CARTESIAN_POINT('',(3.04872212364635,0.,-70.));
#615=CARTESIAN_POINT('',(0.,0.,-70.));
#616=CARTESIAN_POINT('',(0.,0.,-77.3397763191426));
#617=CARTESIAN_POINT('',(-4.0802604140675,0.,-77.3397763191426));
#618=CARTESIAN_POINT('',(0.,0.,-70.));
#619=CARTESIAN_POINT('',(0.,0.,-86.56));
#620=CARTESIAN_POINT('',(4.0802604140675,0.,-86.56));
#621=CARTESIAN_POINT('',(0.,0.,20.9080749503476));
#622=CARTESIAN_POINT('',(2.67669418593598E-14,0.,-90.1));
#623=CARTESIAN_POINT('',(3.015,0.,-90.1));
#624=CARTESIAN_POINT('',(2.65446313377743E-14,0.,-89.8345988181559));
#625=CARTESIAN_POINT('',(-3.28040118184403,0.,-89.8345988181559));
#626=CARTESIAN_POINT('',(2.62012633811537E-14,0.,-88.8597395859325));
#627=CARTESIAN_POINT('',(0.,0.,-92.));
#628=CARTESIAN_POINT('',(10.5,0.,-90.1));
#629=MECHANICAL_DESIGN_GEOMETRIC_PRESENTATION_REPRESENTATION('',(#330,#331,
#332,#333,#334,#335,#336,#337,#338),#630);
#630=(
GEOMETRIC_REPRESENTATION_CONTEXT(3)
GLOBAL_UNCERTAINTY_ASSIGNED_CONTEXT((#631))
GLOBAL_UNIT_ASSIGNED_CONTEXT((#637,#633,#632))
REPRESENTATION_CONTEXT('TOOL','TOP_LEVEL_ASSEMBLY_PART')
);
#631=UNCERTAINTY_MEASURE_WITH_UNIT(LENGTH_MEASURE(0.0508),#637,
'DISTANCE_ACCURACY_VALUE','Maximum Tolerance applied to model');
#632=(
NAMED_UNIT(*)
SI_UNIT($,.STERADIAN.)
SOLID_ANGLE_UNIT()
);
#633=(
CONVERSION_BASED_UNIT('DEGREE',#635)
NAMED_UNIT(#634)
PLANE_ANGLE_UNIT()
);
#634=DIMENSIONAL_EXPONENTS(0.,0.,0.,0.,0.,0.,0.);
#635=PLANE_ANGLE_MEASURE_WITH_UNIT(PLANE_ANGLE_MEASURE(0.0174532925),#636);
#636=(
NAMED_UNIT(*)
PLANE_ANGLE_UNIT()
SI_UNIT($,.RADIAN.)
);
#637=(
LENGTH_UNIT()
NAMED_UNIT(*)
SI_UNIT(.MILLI.,.METRE.)
);
ENDSEC;
END-ISO-10303-21;
