ISO-10303-21;
HEADER;
/* Generated by software containing ST-Developer
 * from STEP Tools, Inc. (www.steptools.com) 
 */
/* OPTION: using custom schema-name function */

FILE_DESCRIPTION(
/* description */ (''),
/* implementation_level */ '2;1');

FILE_NAME(
/* name */ 'TOOL.STP',
/* time_stamp */ '2023-09-04T08:16:08+02:00',
/* author */ (''),
/* organization */ ('SMS'),
/* preprocessor_version */ 'ST-DEVELOPER v16.7',
/* originating_system */ 'SIEMENS PLM Software NX 12.0',
/* authorisation */ '');

FILE_SCHEMA (('AUTOMOTIVE_DESIGN { 1 0 10303 214 3 1 1 1 }'));
ENDSEC;

DATA;
#10=CONSTRUCTIVE_GEOMETRY_REPRESENTATION_RELATIONSHIP(
'supplemental geometry','',#26,#11);
#11=CONSTRUCTIVE_GEOMETRY_REPRESENTATION('supplemental geometry',(#362,
#363,#364),#628);
#12=GEOMETRICALLY_BOUNDED_WIREFRAME_SHAPE_REPRESENTATION('Tool-None',(#27),
#628);
#13=SHAPE_REPRESENTATION_RELATIONSHIP('None',
'relationship between Tool-None and Tool-None',#26,#15);
#14=SHAPE_REPRESENTATION_RELATIONSHIP('None',
'relationship between Tool-None and Tool-None',#26,#12);
#15=ADVANCED_BREP_SHAPE_REPRESENTATION('Tool-None',(#39,#40),#628);
#16=SHAPE_DEFINITION_REPRESENTATION(#17,#26);
#17=PRODUCT_DEFINITION_SHAPE('','',#18);
#18=PRODUCT_DEFINITION(' ','',#20,#19);
#19=PRODUCT_DEFINITION_CONTEXT('part definition',#25,'design');
#20=PRODUCT_DEFINITION_FORMATION_WITH_SPECIFIED_SOURCE(' ',' ',#22,
 .NOT_KNOWN.);
#21=PRODUCT_RELATED_PRODUCT_CATEGORY('part','',(#22));
#22=PRODUCT('Tool','Tool',' ',(#23));
#23=PRODUCT_CONTEXT(' ',#25,'mechanical');
#24=APPLICATION_PROTOCOL_DEFINITION('international standard',
'automotive_design',2010,#25);
#25=APPLICATION_CONTEXT(
'core data for automotive mechanical design processes');
#26=SHAPE_REPRESENTATION('Tool-None',(#361),#628);
#27=GEOMETRIC_CURVE_SET('None',(#503,#504,#505,#325));
#28=VERTEX_LOOP('',#268);
#29=SURFACE_STYLE_USAGE(.BOTH.,#31);
#30=SURFACE_STYLE_USAGE(.BOTH.,#32);
#31=SURFACE_SIDE_STYLE('',(#33));
#32=SURFACE_SIDE_STYLE('',(#34));
#33=SURFACE_STYLE_FILL_AREA(#35);
#34=SURFACE_STYLE_FILL_AREA(#36);
#35=FILL_AREA_STYLE('',(#37));
#36=FILL_AREA_STYLE('',(#38));
#37=FILL_AREA_STYLE_COLOUR('',#359);
#38=FILL_AREA_STYLE_COLOUR('',#360);
#39=MANIFOLD_SOLID_BREP('NOCUT',#41);
#40=MANIFOLD_SOLID_BREP('CUT',#42);
#41=CLOSED_SHELL('',(#99,#100,#101,#102,#103,#104,#105,#106,#107,#108,#109,
#110,#111,#112,#113,#114,#115));
#42=CLOSED_SHELL('',(#116,#117,#118,#119));
#43=LINE('',#545,#55);
#44=LINE('',#547,#56);
#45=LINE('',#556,#57);
#46=LINE('',#561,#58);
#47=LINE('',#563,#59);
#48=LINE('',#572,#60);
#49=LINE('',#577,#61);
#50=LINE('',#579,#62);
#51=LINE('',#588,#63);
#52=LINE('',#606,#64);
#53=LINE('',#608,#65);
#54=LINE('',#609,#66);
#55=VECTOR('',#436,1.);
#56=VECTOR('',#439,1.);
#57=VECTOR('',#440,1.);
#58=VECTOR('',#445,1.);
#59=VECTOR('',#448,1.);
#60=VECTOR('',#449,1.);
#61=VECTOR('',#454,1.);
#62=VECTOR('',#457,1.);
#63=VECTOR('',#458,1.);
#64=VECTOR('',#473,1.);
#65=VECTOR('',#476,1.);
#66=VECTOR('',#477,1.);
#67=ELLIPSE('',#376,4.7517575695736,3.36);
#68=ELLIPSE('',#379,4.7517575695736,3.36);
#69=ELLIPSE('',#382,4.7517575695736,3.36);
#70=ELLIPSE('',#390,4.7517575695736,3.36);
#71=PLANE('',#375);
#72=PLANE('',#377);
#73=PLANE('',#378);
#74=PLANE('',#380);
#75=PLANE('',#381);
#76=PLANE('',#383);
#77=PLANE('',#384);
#78=PLANE('',#391);
#79=PLANE('',#392);
#80=PLANE('',#396);
#81=PLANE('',#398);
#82=FACE_OUTER_BOUND('',#152,.T.);
#83=FACE_OUTER_BOUND('',#153,.T.);
#84=FACE_OUTER_BOUND('',#154,.T.);
#85=FACE_OUTER_BOUND('',#155,.T.);
#86=FACE_OUTER_BOUND('',#156,.T.);
#87=FACE_OUTER_BOUND('',#157,.T.);
#88=FACE_OUTER_BOUND('',#158,.T.);
#89=FACE_OUTER_BOUND('',#161,.T.);
#90=FACE_OUTER_BOUND('',#162,.T.);
#91=FACE_OUTER_BOUND('',#167,.T.);
#92=FACE_OUTER_BOUND('',#168,.T.);
#93=TOROIDAL_SURFACE('',#373,4.59999999999999,1.1);
#94=CONICAL_SURFACE('',#372,3.49999999999999,30.);
#95=CONICAL_SURFACE('',#389,1.96,45.);
#96=CONICAL_SURFACE('',#395,4.7,45.);
#97=CONICAL_SURFACE('',#402,4.08451152641173,8.40432229905827);
#98=CONICAL_SURFACE('',#403,5.56405581635681,45.);
#99=ADVANCED_FACE('',(#124,#125),#120,.T.);
#100=ADVANCED_FACE('',(#126,#127),#121,.T.);
#101=ADVANCED_FACE('',(#128,#129),#94,.T.);
#102=ADVANCED_FACE('',(#130,#131),#93,.F.);
#103=ADVANCED_FACE('',(#82),#71,.F.);
#104=ADVANCED_FACE('',(#83),#72,.T.);
#105=ADVANCED_FACE('',(#84),#73,.T.);
#106=ADVANCED_FACE('',(#85),#74,.T.);
#107=ADVANCED_FACE('',(#86),#75,.T.);
#108=ADVANCED_FACE('',(#87),#76,.T.);
#109=ADVANCED_FACE('',(#88),#77,.T.);
#110=ADVANCED_FACE('',(#132,#133),#95,.T.);
#111=ADVANCED_FACE('',(#89),#78,.T.);
#112=ADVANCED_FACE('',(#90),#79,.T.);
#113=ADVANCED_FACE('',(#134,#135),#122,.T.);
#114=ADVANCED_FACE('',(#136,#137),#96,.T.);
#115=ADVANCED_FACE('',(#91),#80,.T.);
#116=ADVANCED_FACE('',(#92),#81,.T.);
#117=ADVANCED_FACE('',(#138,#139),#123,.T.);
#118=ADVANCED_FACE('',(#140,#141),#97,.T.);
#119=ADVANCED_FACE('',(#142,#143),#98,.T.);
#120=CYLINDRICAL_SURFACE('',#367,5.06405581635684);
#121=CYLINDRICAL_SURFACE('',#370,3.49999999999999);
#122=CYLINDRICAL_SURFACE('',#394,3.36);
#123=CYLINDRICAL_SURFACE('',#400,5.06405581635684);
#124=FACE_BOUND('',#144,.T.);
#125=FACE_BOUND('',#145,.T.);
#126=FACE_BOUND('',#146,.T.);
#127=FACE_BOUND('',#147,.T.);
#128=FACE_BOUND('',#148,.T.);
#129=FACE_BOUND('',#149,.T.);
#130=FACE_BOUND('',#150,.T.);
#131=FACE_BOUND('',#151,.T.);
#132=FACE_BOUND('',#159,.T.);
#133=FACE_BOUND('',#160,.T.);
#134=FACE_BOUND('',#163,.T.);
#135=FACE_BOUND('',#164,.T.);
#136=FACE_BOUND('',#165,.T.);
#137=FACE_BOUND('',#166,.T.);
#138=FACE_BOUND('',#169,.T.);
#139=FACE_BOUND('',#170,.T.);
#140=FACE_BOUND('',#171,.T.);
#141=FACE_BOUND('',#172,.T.);
#142=FACE_BOUND('',#173,.T.);
#143=FACE_BOUND('',#28,.T.);
#144=EDGE_LOOP('',(#174));
#145=EDGE_LOOP('',(#175));
#146=EDGE_LOOP('',(#176));
#147=EDGE_LOOP('',(#177));
#148=EDGE_LOOP('',(#178));
#149=EDGE_LOOP('',(#179));
#150=EDGE_LOOP('',(#180));
#151=EDGE_LOOP('',(#181));
#152=EDGE_LOOP('',(#182));
#153=EDGE_LOOP('',(#183,#184));
#154=EDGE_LOOP('',(#185,#186,#187,#188));
#155=EDGE_LOOP('',(#189,#190));
#156=EDGE_LOOP('',(#191,#192,#193,#194));
#157=EDGE_LOOP('',(#195,#196));
#158=EDGE_LOOP('',(#197,#198,#199,#200));
#159=EDGE_LOOP('',(#201));
#160=EDGE_LOOP('',(#202,#203,#204,#205,#206,#207,#208,#209));
#161=EDGE_LOOP('',(#210,#211));
#162=EDGE_LOOP('',(#212,#213,#214,#215));
#163=EDGE_LOOP('',(#216));
#164=EDGE_LOOP('',(#217,#218,#219,#220,#221,#222,#223,#224,#225,#226,#227,
#228,#229,#230,#231,#232));
#165=EDGE_LOOP('',(#233));
#166=EDGE_LOOP('',(#234));
#167=EDGE_LOOP('',(#235));
#168=EDGE_LOOP('',(#236));
#169=EDGE_LOOP('',(#237));
#170=EDGE_LOOP('',(#238));
#171=EDGE_LOOP('',(#239));
#172=EDGE_LOOP('',(#240));
#173=EDGE_LOOP('',(#241));
#174=ORIENTED_EDGE('',*,*,#269,.T.);
#175=ORIENTED_EDGE('',*,*,#270,.T.);
#176=ORIENTED_EDGE('',*,*,#271,.T.);
#177=ORIENTED_EDGE('',*,*,#272,.T.);
#178=ORIENTED_EDGE('',*,*,#273,.T.);
#179=ORIENTED_EDGE('',*,*,#269,.F.);
#180=ORIENTED_EDGE('',*,*,#271,.F.);
#181=ORIENTED_EDGE('',*,*,#273,.F.);
#182=ORIENTED_EDGE('',*,*,#274,.T.);
#183=ORIENTED_EDGE('',*,*,#275,.T.);
#184=ORIENTED_EDGE('',*,*,#276,.T.);
#185=ORIENTED_EDGE('',*,*,#277,.T.);
#186=ORIENTED_EDGE('',*,*,#278,.F.);
#187=ORIENTED_EDGE('',*,*,#279,.T.);
#188=ORIENTED_EDGE('',*,*,#276,.F.);
#189=ORIENTED_EDGE('',*,*,#280,.T.);
#190=ORIENTED_EDGE('',*,*,#281,.T.);
#191=ORIENTED_EDGE('',*,*,#282,.T.);
#192=ORIENTED_EDGE('',*,*,#283,.F.);
#193=ORIENTED_EDGE('',*,*,#284,.T.);
#194=ORIENTED_EDGE('',*,*,#281,.F.);
#195=ORIENTED_EDGE('',*,*,#285,.T.);
#196=ORIENTED_EDGE('',*,*,#286,.T.);
#197=ORIENTED_EDGE('',*,*,#287,.T.);
#198=ORIENTED_EDGE('',*,*,#288,.F.);
#199=ORIENTED_EDGE('',*,*,#289,.T.);
#200=ORIENTED_EDGE('',*,*,#286,.F.);
#201=ORIENTED_EDGE('',*,*,#274,.F.);
#202=ORIENTED_EDGE('',*,*,#290,.T.);
#203=ORIENTED_EDGE('',*,*,#291,.T.);
#204=ORIENTED_EDGE('',*,*,#292,.T.);
#205=ORIENTED_EDGE('',*,*,#278,.T.);
#206=ORIENTED_EDGE('',*,*,#293,.T.);
#207=ORIENTED_EDGE('',*,*,#283,.T.);
#208=ORIENTED_EDGE('',*,*,#294,.T.);
#209=ORIENTED_EDGE('',*,*,#288,.T.);
#210=ORIENTED_EDGE('',*,*,#295,.T.);
#211=ORIENTED_EDGE('',*,*,#296,.T.);
#212=ORIENTED_EDGE('',*,*,#297,.T.);
#213=ORIENTED_EDGE('',*,*,#291,.F.);
#214=ORIENTED_EDGE('',*,*,#298,.T.);
#215=ORIENTED_EDGE('',*,*,#296,.F.);
#216=ORIENTED_EDGE('',*,*,#299,.F.);
#217=ORIENTED_EDGE('',*,*,#297,.F.);
#218=ORIENTED_EDGE('',*,*,#295,.F.);
#219=ORIENTED_EDGE('',*,*,#298,.F.);
#220=ORIENTED_EDGE('',*,*,#290,.F.);
#221=ORIENTED_EDGE('',*,*,#287,.F.);
#222=ORIENTED_EDGE('',*,*,#285,.F.);
#223=ORIENTED_EDGE('',*,*,#289,.F.);
#224=ORIENTED_EDGE('',*,*,#294,.F.);
#225=ORIENTED_EDGE('',*,*,#282,.F.);
#226=ORIENTED_EDGE('',*,*,#280,.F.);
#227=ORIENTED_EDGE('',*,*,#284,.F.);
#228=ORIENTED_EDGE('',*,*,#293,.F.);
#229=ORIENTED_EDGE('',*,*,#277,.F.);
#230=ORIENTED_EDGE('',*,*,#275,.F.);
#231=ORIENTED_EDGE('',*,*,#279,.F.);
#232=ORIENTED_EDGE('',*,*,#292,.F.);
#233=ORIENTED_EDGE('',*,*,#299,.T.);
#234=ORIENTED_EDGE('',*,*,#272,.F.);
#235=ORIENTED_EDGE('',*,*,#270,.F.);
#236=ORIENTED_EDGE('',*,*,#300,.F.);
#237=ORIENTED_EDGE('',*,*,#301,.F.);
#238=ORIENTED_EDGE('',*,*,#300,.T.);
#239=ORIENTED_EDGE('',*,*,#301,.T.);
#240=ORIENTED_EDGE('',*,*,#302,.T.);
#241=ORIENTED_EDGE('',*,*,#302,.F.);
#242=VERTEX_POINT('',#526);
#243=VERTEX_POINT('',#528);
#244=VERTEX_POINT('',#531);
#245=VERTEX_POINT('',#533);
#246=VERTEX_POINT('',#536);
#247=VERTEX_POINT('',#540);
#248=VERTEX_POINT('',#543);
#249=VERTEX_POINT('',#544);
#250=VERTEX_POINT('',#548);
#251=VERTEX_POINT('',#555);
#252=VERTEX_POINT('',#559);
#253=VERTEX_POINT('',#560);
#254=VERTEX_POINT('',#564);
#255=VERTEX_POINT('',#571);
#256=VERTEX_POINT('',#575);
#257=VERTEX_POINT('',#576);
#258=VERTEX_POINT('',#580);
#259=VERTEX_POINT('',#587);
#260=VERTEX_POINT('',#591);
#261=VERTEX_POINT('',#598);
#262=VERTEX_POINT('',#604);
#263=VERTEX_POINT('',#605);
#264=VERTEX_POINT('',#612);
#265=VERTEX_POINT('',#617);
#266=VERTEX_POINT('',#620);
#267=VERTEX_POINT('',#623);
#268=VERTEX_POINT('',#625);
#269=EDGE_CURVE('',#242,#242,#303,.T.);
#270=EDGE_CURVE('',#243,#243,#304,.T.);
#271=EDGE_CURVE('',#244,#244,#305,.T.);
#272=EDGE_CURVE('',#245,#245,#306,.T.);
#273=EDGE_CURVE('',#246,#246,#307,.T.);
#274=EDGE_CURVE('',#247,#247,#308,.T.);
#275=EDGE_CURVE('',#248,#249,#67,.T.);
#276=EDGE_CURVE('',#249,#248,#43,.T.);
#277=EDGE_CURVE('',#249,#250,#44,.T.);
#278=EDGE_CURVE('',#251,#250,#326,.T.);
#279=EDGE_CURVE('',#251,#248,#45,.T.);
#280=EDGE_CURVE('',#252,#253,#68,.T.);
#281=EDGE_CURVE('',#253,#252,#46,.T.);
#282=EDGE_CURVE('',#253,#254,#47,.T.);
#283=EDGE_CURVE('',#255,#254,#327,.T.);
#284=EDGE_CURVE('',#255,#252,#48,.T.);
#285=EDGE_CURVE('',#256,#257,#69,.T.);
#286=EDGE_CURVE('',#257,#256,#49,.T.);
#287=EDGE_CURVE('',#257,#258,#50,.T.);
#288=EDGE_CURVE('',#259,#258,#328,.T.);
#289=EDGE_CURVE('',#259,#256,#51,.T.);
#290=EDGE_CURVE('',#258,#260,#309,.T.);
#291=EDGE_CURVE('',#260,#261,#329,.T.);
#292=EDGE_CURVE('',#261,#251,#310,.T.);
#293=EDGE_CURVE('',#250,#255,#311,.T.);
#294=EDGE_CURVE('',#254,#259,#312,.T.);
#295=EDGE_CURVE('',#262,#263,#70,.T.);
#296=EDGE_CURVE('',#263,#262,#52,.T.);
#297=EDGE_CURVE('',#263,#261,#53,.T.);
#298=EDGE_CURVE('',#260,#262,#54,.T.);
#299=EDGE_CURVE('',#264,#264,#313,.T.);
#300=EDGE_CURVE('',#265,#265,#314,.T.);
#301=EDGE_CURVE('',#266,#266,#315,.T.);
#302=EDGE_CURVE('',#267,#267,#316,.T.);
#303=CIRCLE('',#365,5.06405581635684);
#304=CIRCLE('',#366,5.06405581635684);
#305=CIRCLE('',#368,3.49999999999999);
#306=CIRCLE('',#369,3.5);
#307=CIRCLE('',#371,3.64737205583712);
#308=CIRCLE('',#374,1.96);
#309=CIRCLE('',#385,3.36);
#310=CIRCLE('',#386,3.36);
#311=CIRCLE('',#387,3.36);
#312=CIRCLE('',#388,3.36);
#313=CIRCLE('',#393,3.36);
#314=CIRCLE('',#397,5.06405581635684);
#315=CIRCLE('',#399,5.06405581635684);
#316=CIRCLE('',#401,4.34532866231649);
#317=CURVE_STYLE('',#321,POSITIVE_LENGTH_MEASURE(0.18),#331);
#318=CURVE_STYLE('',#322,POSITIVE_LENGTH_MEASURE(0.13),#358);
#319=CURVE_STYLE('',#323,POSITIVE_LENGTH_MEASURE(0.18),#357);
#320=CURVE_STYLE('',#324,POSITIVE_LENGTH_MEASURE(0.18),#357);
#321=DRAUGHTING_PRE_DEFINED_CURVE_FONT('continuous');
#322=DRAUGHTING_PRE_DEFINED_CURVE_FONT('continuous');
#323=DRAUGHTING_PRE_DEFINED_CURVE_FONT('continuous');
#324=DRAUGHTING_PRE_DEFINED_CURVE_FONT('continuous');
#325=B_SPLINE_CURVE_WITH_KNOTS('CUTTING PART LINE',3,(#506,#507,#508,#509,
#510,#511,#512,#513,#514,#515,#516,#517,#518,#519,#520,#521),
 .UNSPECIFIED.,.T.,.F.,(4,3,3,3,3,4),(0.,0.0972421497127976,0.530832895975451,
0.648836071717198,0.74326358381249,1.),.UNSPECIFIED.);
#326=B_SPLINE_CURVE_WITH_KNOTS('',3,(#549,#550,#551,#552,#553,#554),
 .UNSPECIFIED.,.F.,.F.,(4,2,4),(0.,0.5,1.),.UNSPECIFIED.);
#327=B_SPLINE_CURVE_WITH_KNOTS('',3,(#565,#566,#567,#568,#569,#570),
 .UNSPECIFIED.,.F.,.F.,(4,2,4),(0.,0.5,1.),.UNSPECIFIED.);
#328=B_SPLINE_CURVE_WITH_KNOTS('',3,(#581,#582,#583,#584,#585,#586),
 .UNSPECIFIED.,.F.,.F.,(4,2,4),(0.,0.5,1.),.UNSPECIFIED.);
#329=B_SPLINE_CURVE_WITH_KNOTS('',3,(#592,#593,#594,#595,#596,#597),
 .UNSPECIFIED.,.F.,.F.,(4,2,4),(0.,0.5,1.),.UNSPECIFIED.);
#330=DRAUGHTING_PRE_DEFINED_COLOUR('white');
#331=DRAUGHTING_PRE_DEFINED_COLOUR('blue');
#332=PRESENTATION_LAYER_ASSIGNMENT('1','Layer 1',(#503,#504,#505,#325,#362,
#363,#364,#39,#40));
#333=STYLED_ITEM('',(#342),#503);
#334=STYLED_ITEM('',(#343),#504);
#335=STYLED_ITEM('',(#344),#505);
#336=STYLED_ITEM('',(#345),#325);
#337=STYLED_ITEM('',(#346),#362);
#338=STYLED_ITEM('',(#347),#363);
#339=STYLED_ITEM('',(#348),#364);
#340=STYLED_ITEM('',(#349),#39);
#341=STYLED_ITEM('',(#350),#40);
#342=PRESENTATION_STYLE_ASSIGNMENT((#351));
#343=PRESENTATION_STYLE_ASSIGNMENT((#352));
#344=PRESENTATION_STYLE_ASSIGNMENT((#353));
#345=PRESENTATION_STYLE_ASSIGNMENT((#317));
#346=PRESENTATION_STYLE_ASSIGNMENT((#318));
#347=PRESENTATION_STYLE_ASSIGNMENT((#319));
#348=PRESENTATION_STYLE_ASSIGNMENT((#320));
#349=PRESENTATION_STYLE_ASSIGNMENT((#29));
#350=PRESENTATION_STYLE_ASSIGNMENT((#30));
#351=POINT_STYLE('',#354,POSITIVE_LENGTH_MEASURE(3.),#357);
#352=POINT_STYLE('',#355,POSITIVE_LENGTH_MEASURE(3.),#330);
#353=POINT_STYLE('',#356,POSITIVE_LENGTH_MEASURE(3.),#357);
#354=PRE_DEFINED_POINT_MARKER_SYMBOL('plus');
#355=PRE_DEFINED_POINT_MARKER_SYMBOL('plus');
#356=PRE_DEFINED_POINT_MARKER_SYMBOL('plus');
#357=COLOUR_RGB('Medium Maroon',0.6,0.4,0.4);
#358=COLOUR_RGB('Silver Gray',0.6,0.6,0.6);
#359=COLOUR_RGB('TLS_NOCUT',0.498023956664378,0.498023956664378,0.498023956664378);
#360=COLOUR_RGB('TLS_CUT',0.8,0.8,0.8);
#361=AXIS2_PLACEMENT_3D('',#502,#404,#405);
#362=AXIS2_PLACEMENT_3D('PCS',#522,#406,#407);
#363=AXIS2_PLACEMENT_3D('MCS',#523,#408,#409);
#364=AXIS2_PLACEMENT_3D('CIP',#524,#410,#411);
#365=AXIS2_PLACEMENT_3D('',#525,#412,#413);
#366=AXIS2_PLACEMENT_3D('',#527,#414,#415);
#367=AXIS2_PLACEMENT_3D('',#529,#416,#417);
#368=AXIS2_PLACEMENT_3D('',#530,#418,#419);
#369=AXIS2_PLACEMENT_3D('',#532,#420,#421);
#370=AXIS2_PLACEMENT_3D('',#534,#422,#423);
#371=AXIS2_PLACEMENT_3D('',#535,#424,#425);
#372=AXIS2_PLACEMENT_3D('',#537,#426,#427);
#373=AXIS2_PLACEMENT_3D('',#538,#428,#429);
#374=AXIS2_PLACEMENT_3D('',#539,#430,#431);
#375=AXIS2_PLACEMENT_3D('',#541,#432,#433);
#376=AXIS2_PLACEMENT_3D('',#542,#434,#435);
#377=AXIS2_PLACEMENT_3D('',#546,#437,#438);
#378=AXIS2_PLACEMENT_3D('',#557,#441,#442);
#379=AXIS2_PLACEMENT_3D('',#558,#443,#444);
#380=AXIS2_PLACEMENT_3D('',#562,#446,#447);
#381=AXIS2_PLACEMENT_3D('',#573,#450,#451);
#382=AXIS2_PLACEMENT_3D('',#574,#452,#453);
#383=AXIS2_PLACEMENT_3D('',#578,#455,#456);
#384=AXIS2_PLACEMENT_3D('',#589,#459,#460);
#385=AXIS2_PLACEMENT_3D('',#590,#461,#462);
#386=AXIS2_PLACEMENT_3D('',#599,#463,#464);
#387=AXIS2_PLACEMENT_3D('',#600,#465,#466);
#388=AXIS2_PLACEMENT_3D('',#601,#467,#468);
#389=AXIS2_PLACEMENT_3D('',#602,#469,#470);
#390=AXIS2_PLACEMENT_3D('',#603,#471,#472);
#391=AXIS2_PLACEMENT_3D('',#607,#474,#475);
#392=AXIS2_PLACEMENT_3D('',#610,#478,#479);
#393=AXIS2_PLACEMENT_3D('',#611,#480,#481);
#394=AXIS2_PLACEMENT_3D('',#613,#482,#483);
#395=AXIS2_PLACEMENT_3D('',#614,#484,#485);
#396=AXIS2_PLACEMENT_3D('',#615,#486,#487);
#397=AXIS2_PLACEMENT_3D('',#616,#488,#489);
#398=AXIS2_PLACEMENT_3D('',#618,#490,#491);
#399=AXIS2_PLACEMENT_3D('',#619,#492,#493);
#400=AXIS2_PLACEMENT_3D('',#621,#494,#495);
#401=AXIS2_PLACEMENT_3D('',#622,#496,#497);
#402=AXIS2_PLACEMENT_3D('',#624,#498,#499);
#403=AXIS2_PLACEMENT_3D('',#626,#500,#501);
#404=DIRECTION('',(0.,0.,1.));
#405=DIRECTION('',(1.,0.,0.));
#406=DIRECTION('',(0.,0.,1.));
#407=DIRECTION('',(1.,0.,0.));
#408=DIRECTION('',(0.,0.,1.));
#409=DIRECTION('',(1.,0.,0.));
#410=DIRECTION('',(0.,0.,1.));
#411=DIRECTION('',(1.,0.,0.));
#412=DIRECTION('',(0.,0.,-1.));
#413=DIRECTION('',(-1.,0.,0.));
#414=DIRECTION('',(0.,0.,1.));
#415=DIRECTION('',(-1.,0.,0.));
#416=DIRECTION('',(0.,0.,1.));
#417=DIRECTION('',(1.,0.,0.));
#418=DIRECTION('',(-6.63821271803591E-17,0.,1.));
#419=DIRECTION('',(-1.,0.,0.));
#420=DIRECTION('',(0.,0.,-1.));
#421=DIRECTION('',(-1.,0.,0.));
#422=DIRECTION('',(6.63821271803591E-17,0.,-1.));
#423=DIRECTION('',(-1.,0.,0.));
#424=DIRECTION('',(6.63821271803591E-17,0.,-1.));
#425=DIRECTION('',(-1.,0.,0.));
#426=DIRECTION('',(6.63821271803591E-17,0.,-1.));
#427=DIRECTION('',(-1.,0.,1.43353169075838E-16));
#428=DIRECTION('',(6.63821271803591E-17,0.,-1.));
#429=DIRECTION('',(-1.,0.,0.));
#430=DIRECTION('',(0.,0.,1.));
#431=DIRECTION('',(1.,0.,0.));
#432=DIRECTION('',(1.9702551424432E-16,0.,-1.));
#433=DIRECTION('',(-1.,0.,-1.9702551424432E-16));
#434=DIRECTION('',(8.28344032153662E-16,0.707106781186548,0.707106781186547));
#435=DIRECTION('',(-8.28344032153662E-16,-0.707106781186547,0.707106781186548));
#436=DIRECTION('',(1.,-1.17145536458252E-15,0.));
#437=DIRECTION('',(8.28344032153662E-16,0.707106781186548,0.707106781186547));
#438=DIRECTION('',(8.29197821516914E-16,0.707106781186547,-0.707106781186548));
#439=DIRECTION('',(0.,0.,1.));
#440=DIRECTION('',(0.,0.,-1.));
#441=DIRECTION('',(1.17145536458252E-15,1.,0.));
#442=DIRECTION('',(0.,0.,-1.));
#443=DIRECTION('',(-0.707106781186548,1.65668806430732E-15,0.707106781186547));
#444=DIRECTION('',(0.707106781186547,-1.65668806430732E-15,0.707106781186548));
#445=DIRECTION('',(2.34291072916505E-15,1.,0.));
#446=DIRECTION('',(-0.707106781186548,1.65668806430732E-15,0.707106781186547));
#447=DIRECTION('',(-0.707106781186547,1.65666091955785E-15,-0.707106781186548));
#448=DIRECTION('',(0.,0.,1.));
#449=DIRECTION('',(0.,0.,-1.));
#450=DIRECTION('',(-1.,2.34291072916505E-15,0.));
#451=DIRECTION('',(0.,0.,-1.));
#452=DIRECTION('',(-2.64204134232937E-15,-0.707106781186548,0.707106781186547));
#453=DIRECTION('',(2.64204134232936E-15,0.707106781186547,0.707106781186548));
#454=DIRECTION('',(-1.,3.7364106986726E-15,0.));
#455=DIRECTION('',(-2.64204134232936E-15,-0.707106781186548,0.707106781186547));
#456=DIRECTION('',(-2.64198385391268E-15,-0.707106781186547,-0.707106781186548));
#457=DIRECTION('',(0.,0.,1.));
#458=DIRECTION('',(0.,0.,-1.));
#459=DIRECTION('',(-3.7364106986726E-15,-1.,0.));
#460=DIRECTION('',(0.,0.,-1.));
#461=DIRECTION('',(0.,0.,1.));
#462=DIRECTION('',(-1.,0.,0.));
#463=DIRECTION('',(0.,0.,1.));
#464=DIRECTION('',(-1.,0.,0.));
#465=DIRECTION('',(0.,0.,1.));
#466=DIRECTION('',(-1.,0.,0.));
#467=DIRECTION('',(0.,0.,1.));
#468=DIRECTION('',(-1.,0.,0.));
#469=DIRECTION('',(0.,0.,-1.));
#470=DIRECTION('',(-1.,0.,0.));
#471=DIRECTION('',(0.707106781186548,0.,0.707106781186547));
#472=DIRECTION('',(-0.707106781186547,0.,0.707106781186548));
#473=DIRECTION('',(0.,-1.,0.));
#474=DIRECTION('',(0.707106781186548,0.,0.707106781186547));
#475=DIRECTION('',(0.707106781186547,0.,-0.707106781186548));
#476=DIRECTION('',(0.,0.,1.));
#477=DIRECTION('',(0.,0.,-1.));
#478=DIRECTION('',(1.,0.,0.));
#479=DIRECTION('',(0.,0.,-1.));
#480=DIRECTION('',(0.,0.,-1.));
#481=DIRECTION('',(1.,0.,0.));
#482=DIRECTION('',(0.,0.,1.));
#483=DIRECTION('',(1.,0.,0.));
#484=DIRECTION('',(0.,0.,-1.));
#485=DIRECTION('',(-1.,0.,-3.45321683283927E-17));
#486=DIRECTION('',(0.,0.,-1.));
#487=DIRECTION('',(-1.,0.,0.));
#488=DIRECTION('',(0.,0.,-1.));
#489=DIRECTION('',(1.,0.,0.));
#490=DIRECTION('',(0.,0.,1.));
#491=DIRECTION('',(1.,0.,0.));
#492=DIRECTION('',(0.,0.,-1.));
#493=DIRECTION('',(1.,0.,0.));
#494=DIRECTION('',(0.,0.,1.));
#495=DIRECTION('',(1.,0.,0.));
#496=DIRECTION('',(0.,0.,1.));
#497=DIRECTION('',(-1.,0.,0.));
#498=DIRECTION('',(0.,0.,1.));
#499=DIRECTION('',(1.,0.,1.82808433334578E-16));
#500=DIRECTION('',(-3.09279012462487E-16,0.,1.));
#501=DIRECTION('',(1.,0.,3.72626953642246E-16));
#502=CARTESIAN_POINT('',(0.,0.,0.));
#503=CARTESIAN_POINT('',(0.,0.,-23.));
#504=CARTESIAN_POINT('CRP',(-5.06405581635684,0.,-90.));
#505=CARTESIAN_POINT('CIP_DCSYS',(0.,0.,-90.));
#506=CARTESIAN_POINT('',(-5.06405581635684,0.,-72.));
#507=CARTESIAN_POINT('',(-3.37603721090456,0.,-72.));
#508=CARTESIAN_POINT('',(-1.68801860545228,0.,-72.));
#509=CARTESIAN_POINT('',(0.,0.,-72.));
#510=CARTESIAN_POINT('',(0.,0.,-79.5266666666667));
#511=CARTESIAN_POINT('',(0.,0.,-87.0533333333333));
#512=CARTESIAN_POINT('',(-8.88178419700125E-16,0.,-94.58));
#513=CARTESIAN_POINT('',(-1.44844288743882,0.,-93.1315571125611));
#514=CARTESIAN_POINT('',(-2.89688577487764,0.,-91.6831142251223));
#515=CARTESIAN_POINT('',(-4.34532866231648,0.,-90.2346713376835));
#516=CARTESIAN_POINT('',(-4.58490438032994,0.,-88.6131142251223));
#517=CARTESIAN_POINT('',(-4.82448009834339,0.,-86.9915571125611));
#518=CARTESIAN_POINT('',(-5.06405581635684,0.,-85.37));
#519=CARTESIAN_POINT('',(-5.06405581635684,0.,-80.9133333333333));
#520=CARTESIAN_POINT('',(-5.06405581635684,0.,-76.4566666666667));
#521=CARTESIAN_POINT('',(-5.06405581635684,0.,-72.));
#522=CARTESIAN_POINT('',(0.,0.,0.));
#523=CARTESIAN_POINT('',(0.,0.,-23.));
#524=CARTESIAN_POINT('',(0.,0.,-90.));
#525=CARTESIAN_POINT('',(0.,0.,-71.1339745962156));
#526=CARTESIAN_POINT('',(-5.06405581635684,0.,-71.1339745962156));
#527=CARTESIAN_POINT('',(0.,0.,-72.));
#528=CARTESIAN_POINT('',(-5.06405581635684,0.,-72.));
#529=CARTESIAN_POINT('',(0.,0.,20.9080749503476));
#530=CARTESIAN_POINT('',(7.33711435737857E-15,0.,-68.1302063447377));
#531=CARTESIAN_POINT('',(-3.49999999999999,0.,-68.1302063447377));
#532=CARTESIAN_POINT('',(0.,0.,-8.94));
#533=CARTESIAN_POINT('',(-3.5,0.,-8.94));
#534=CARTESIAN_POINT('',(7.32747196252603E-15,0.,-67.9849504564119));
#535=CARTESIAN_POINT('',(7.37362452732777E-15,0.,-68.6802063447377));
#536=CARTESIAN_POINT('',(-3.64737205583711,0.,-68.6802063447377));
#537=CARTESIAN_POINT('',(7.35668009848539E-15,0.,-68.4249504564119));
#538=CARTESIAN_POINT('',(7.33711435737857E-15,0.,-68.1302063447377));
#539=CARTESIAN_POINT('',(0.,0.,0.));
#540=CARTESIAN_POINT('',(1.96,0.,0.));
#541=CARTESIAN_POINT('',(3.7,0.,3.64497201351992E-16));
#542=CARTESIAN_POINT('',(0.,0.,-5.25));
#543=CARTESIAN_POINT('',(1.93056986405569,2.75,-8.));
#544=CARTESIAN_POINT('',(-1.93056986405569,2.75,-8.));
#545=CARTESIAN_POINT('',(8.25,2.74999999999999,-8.));
#546=CARTESIAN_POINT('',(8.25,2.74999999999999,-8.));
#547=CARTESIAN_POINT('',(-1.93056986405569,2.75,20.9080749503476));
#548=CARTESIAN_POINT('',(-1.93056986405569,2.75,-1.4));
#549=CARTESIAN_POINT('',(1.93056986405585,2.75,-1.40000000000008));
#550=CARTESIAN_POINT('',(1.33868652327781,2.75,-1.05991900573141));
#551=CARTESIAN_POINT('',(0.679895816961973,2.75,-0.790039297382016));
#552=CARTESIAN_POINT('',(-0.679577884616606,2.75,-0.789960711807166));
#553=CARTESIAN_POINT('',(-1.33903216041076,2.75,-1.06011759996735));
#554=CARTESIAN_POINT('',(-1.9305698640557,2.75,-1.39999999999998));
#555=CARTESIAN_POINT('',(1.9305698640559,2.75,-1.40000000000001));
#556=CARTESIAN_POINT('',(1.93056986405569,2.75,20.9080749503476));
#557=CARTESIAN_POINT('',(8.25,2.74999999999999,10.));
#558=CARTESIAN_POINT('',(0.,0.,-5.25));
#559=CARTESIAN_POINT('',(-2.75,1.9305698640557,-8.));
#560=CARTESIAN_POINT('',(-2.75,-1.93056986405568,-8.));
#561=CARTESIAN_POINT('',(-2.74999999999998,8.25000000000001,-8.));
#562=CARTESIAN_POINT('',(-2.74999999999998,8.25000000000001,-8.));
#563=CARTESIAN_POINT('',(-2.75,-1.93056986405568,20.9080749503476));
#564=CARTESIAN_POINT('',(-2.75,-1.93056986405568,-1.4));
#565=CARTESIAN_POINT('',(-2.75,1.93056986405593,-1.4000000000001));
#566=CARTESIAN_POINT('',(-2.75,1.33903216041099,-1.06011759996745));
#567=CARTESIAN_POINT('',(-2.75,0.679577884616842,-0.789960711807218));
#568=CARTESIAN_POINT('',(-2.75,-0.679895816961762,-0.790039297381963));
#569=CARTESIAN_POINT('',(-2.75,-1.33868652327763,-1.05991900573133));
#570=CARTESIAN_POINT('',(-2.75,-1.93056986405569,-1.4));
#571=CARTESIAN_POINT('',(-2.75,1.930569864056,-1.40000000000002));
#572=CARTESIAN_POINT('',(-2.75,1.9305698640557,20.9080749503476));
#573=CARTESIAN_POINT('',(-2.74999999999998,8.25000000000001,10.));
#574=CARTESIAN_POINT('',(0.,0.,-5.25));
#575=CARTESIAN_POINT('',(-1.9305698640557,-2.74999999999999,-8.));
#576=CARTESIAN_POINT('',(1.93056986405568,-2.75000000000001,-8.));
#577=CARTESIAN_POINT('',(-8.25000000000001,-2.74999999999997,-8.));
#578=CARTESIAN_POINT('',(-8.25000000000001,-2.74999999999997,-8.));
#579=CARTESIAN_POINT('',(1.93056986405568,-2.75000000000001,20.9080749503476));
#580=CARTESIAN_POINT('',(1.93056986405568,-2.75000000000001,-1.4));
#581=CARTESIAN_POINT('',(-1.93056986405594,-2.74999999999999,-1.40000000000011));
#582=CARTESIAN_POINT('',(-1.339032160411,-2.75,-1.06011759996745));
#583=CARTESIAN_POINT('',(-0.679577884616846,-2.75,-0.789960711807218));
#584=CARTESIAN_POINT('',(0.679895816961758,-2.75,-0.790039297381963));
#585=CARTESIAN_POINT('',(1.33868652327763,-2.75000000000001,-1.05991900573133));
#586=CARTESIAN_POINT('',(1.93056986405568,-2.75000000000001,-1.4));
#587=CARTESIAN_POINT('',(-1.930569864056,-2.74999999999999,-1.40000000000002));
#588=CARTESIAN_POINT('',(-1.9305698640557,-2.74999999999999,20.9080749503476));
#589=CARTESIAN_POINT('',(-8.25000000000001,-2.74999999999997,10.));
#590=CARTESIAN_POINT('',(0.,0.,-1.4));
#591=CARTESIAN_POINT('',(2.75,-1.9305698640559,-1.40000000000001));
#592=CARTESIAN_POINT('',(2.75,-1.93056986405585,-1.40000000000008));
#593=CARTESIAN_POINT('',(2.75,-1.33868652327781,-1.05991900573141));
#594=CARTESIAN_POINT('',(2.75,-0.679895816961969,-0.790039297382016));
#595=CARTESIAN_POINT('',(2.75,0.67957788461661,-0.789960711807166));
#596=CARTESIAN_POINT('',(2.75,1.33903216041076,-1.06011759996735));
#597=CARTESIAN_POINT('',(2.75,1.93056986405571,-1.39999999999998));
#598=CARTESIAN_POINT('',(2.75,1.93056986405569,-1.4));
#599=CARTESIAN_POINT('',(0.,0.,-1.4));
#600=CARTESIAN_POINT('',(0.,0.,-1.4));
#601=CARTESIAN_POINT('',(0.,0.,-1.4));
#602=CARTESIAN_POINT('',(0.,0.,0.));
#603=CARTESIAN_POINT('',(0.,0.,-5.25));
#604=CARTESIAN_POINT('',(2.75,-1.93056986405569,-8.));
#605=CARTESIAN_POINT('',(2.75,1.93056986405569,-8.));
#606=CARTESIAN_POINT('',(2.75,-8.25,-8.));
#607=CARTESIAN_POINT('',(2.75,-8.25,-8.));
#608=CARTESIAN_POINT('',(2.75,1.93056986405569,20.9080749503476));
#609=CARTESIAN_POINT('',(2.75,-1.93056986405569,20.9080749503476));
#610=CARTESIAN_POINT('',(2.75,-8.25,10.));
#611=CARTESIAN_POINT('',(0.,0.,-8.8));
#612=CARTESIAN_POINT('',(3.36,0.,-8.8));
#613=CARTESIAN_POINT('',(0.,0.,20.9080749503476));
#614=CARTESIAN_POINT('',(0.,0.,-10.14));
#615=CARTESIAN_POINT('',(0.,0.,-72.));
#616=CARTESIAN_POINT('',(0.,0.,-72.));
#617=CARTESIAN_POINT('',(5.06405581635684,0.,-72.));
#618=CARTESIAN_POINT('',(0.,0.,-72.));
#619=CARTESIAN_POINT('',(0.,0.,-85.37));
#620=CARTESIAN_POINT('',(5.06405581635684,0.,-85.37));
#621=CARTESIAN_POINT('',(0.,0.,20.9080749503476));
#622=CARTESIAN_POINT('',(2.65781901118165E-14,0.,-90.2346713376835));
#623=CARTESIAN_POINT('',(-4.34532866231646,0.,-90.2346713376835));
#624=CARTESIAN_POINT('',(0.,0.,-92.));
#625=CARTESIAN_POINT('',(2.75335310107039E-14,0.,-94.58));
#626=CARTESIAN_POINT('',(2.62012633811537E-14,0.,-89.0159441836432));
#627=MECHANICAL_DESIGN_GEOMETRIC_PRESENTATION_REPRESENTATION('',(#333,#334,
#335,#336,#337,#338,#339,#340,#341),#628);
#628=(
GEOMETRIC_REPRESENTATION_CONTEXT(3)
GLOBAL_UNCERTAINTY_ASSIGNED_CONTEXT((#629))
GLOBAL_UNIT_ASSIGNED_CONTEXT((#635,#631,#630))
REPRESENTATION_CONTEXT('TOOL','TOP_LEVEL_ASSEMBLY_PART')
);
#629=UNCERTAINTY_MEASURE_WITH_UNIT(LENGTH_MEASURE(0.0508),#635,
'DISTANCE_ACCURACY_VALUE','Maximum Tolerance applied to model');
#630=(
NAMED_UNIT(*)
SI_UNIT($,.STERADIAN.)
SOLID_ANGLE_UNIT()
);
#631=(
CONVERSION_BASED_UNIT('DEGREE',#633)
NAMED_UNIT(#632)
PLANE_ANGLE_UNIT()
);
#632=DIMENSIONAL_EXPONENTS(0.,0.,0.,0.,0.,0.,0.);
#633=PLANE_ANGLE_MEASURE_WITH_UNIT(PLANE_ANGLE_MEASURE(0.0174532925),#634);
#634=(
NAMED_UNIT(*)
PLANE_ANGLE_UNIT()
SI_UNIT($,.RADIAN.)
);
#635=(
LENGTH_UNIT()
NAMED_UNIT(*)
SI_UNIT(.MILLI.,.METRE.)
);
ENDSEC;
END-ISO-10303-21;
