ISO-10303-21;
HEADER;
/* Generated by software containing ST-Developer
 * from STEP Tools, Inc. (www.steptools.com) 
 */
/* OPTION: using custom schema-name function */

FILE_DESCRIPTION(
/* description */ (''),
/* implementation_level */ '2;1');

FILE_NAME(
/* name */ '1607510591478.stp',
/* time_stamp */ '2020-12-09T11:43:26+01:00',
/* author */ (''),
/* organization */ ('SMS'),
/* preprocessor_version */ 'ST-DEVELOPER v16.7',
/* originating_system */ 'SIEMENS PLM Software NX 12.0',
/* authorisation */ '');

FILE_SCHEMA (('AUTOMOTIVE_DESIGN { 1 0 10303 214 3 1 1 1 }'));
ENDSEC;

DATA;
#10=CONSTRUCTIVE_GEOMETRY_REPRESENTATION_RELATIONSHIP(
'supplemental geometry','',#26,#11);
#11=CONSTRUCTIVE_GEOMETRY_REPRESENTATION('supplemental geometry',(#215,
#216,#217),#339);
#12=GEOMETRICALLY_BOUNDED_WIREFRAME_SHAPE_REPRESENTATION(
'203243636mod000_00-None',(#27),#339);
#13=SHAPE_REPRESENTATION_RELATIONSHIP('None',
'relationship between 203243636mod000_00-None and 203243636mod000_00-N
one',#26,#15);
#14=SHAPE_REPRESENTATION_RELATIONSHIP('None',
'relationship between 203243636mod000_00-None and 203243636mod000_00-N
one',#26,#12);
#15=ADVANCED_BREP_SHAPE_REPRESENTATION('203243636mod000_00-None',(#39,#40),
#339);
#16=SHAPE_DEFINITION_REPRESENTATION(#17,#26);
#17=PRODUCT_DEFINITION_SHAPE('','',#18);
#18=PRODUCT_DEFINITION(' ','',#20,#19);
#19=PRODUCT_DEFINITION_CONTEXT('part definition',#25,'design');
#20=PRODUCT_DEFINITION_FORMATION_WITH_SPECIFIED_SOURCE(' ',' ',#22,
 .NOT_KNOWN.);
#21=PRODUCT_RELATED_PRODUCT_CATEGORY('part','',(#22));
#22=PRODUCT('203243636mod000_00','203243636mod000_00',' ',(#23));
#23=PRODUCT_CONTEXT(' ',#25,'mechanical');
#24=APPLICATION_PROTOCOL_DEFINITION('international standard',
'automotive_design',2010,#25);
#25=APPLICATION_CONTEXT(
'core data for automotive mechanical design processes');
#26=SHAPE_REPRESENTATION('203243636mod000_00-None',(#213),#339);
#27=GEOMETRIC_CURVE_SET('None',(#287,#288,#289,#290,#155,#156,#157,#158,
#159,#160));
#28=TOROIDAL_SURFACE('',#235,2.85,0.15);
#29=SURFACE_STYLE_USAGE(.BOTH.,#31);
#30=SURFACE_STYLE_USAGE(.BOTH.,#32);
#31=SURFACE_SIDE_STYLE('',(#33));
#32=SURFACE_SIDE_STYLE('',(#34));
#33=SURFACE_STYLE_FILL_AREA(#35);
#34=SURFACE_STYLE_FILL_AREA(#36);
#35=FILL_AREA_STYLE('',(#37));
#36=FILL_AREA_STYLE('',(#38));
#37=FILL_AREA_STYLE_COLOUR('',#211);
#38=FILL_AREA_STYLE_COLOUR('',#212);
#39=MANIFOLD_SOLID_BREP('NOCUT',#41);
#40=MANIFOLD_SOLID_BREP('CUT',#42);
#41=CLOSED_SHELL('',(#53,#54,#55,#56,#57,#58));
#42=CLOSED_SHELL('',(#59,#60,#61,#62));
#43=CONICAL_SURFACE('',#223,2.65,45.);
#44=PLANE('',#222);
#45=PLANE('',#225);
#46=PLANE('',#228);
#47=PLANE('',#230);
#48=PLANE('',#232);
#49=FACE_OUTER_BOUND('',#80,.T.);
#50=FACE_OUTER_BOUND('',#83,.T.);
#51=FACE_OUTER_BOUND('',#88,.T.);
#52=FACE_OUTER_BOUND('',#89,.T.);
#53=ADVANCED_FACE('',(#66,#67),#63,.T.);
#54=ADVANCED_FACE('',(#49),#44,.T.);
#55=ADVANCED_FACE('',(#68,#69),#43,.T.);
#56=ADVANCED_FACE('',(#50),#45,.F.);
#57=ADVANCED_FACE('',(#70,#71),#64,.T.);
#58=ADVANCED_FACE('',(#72,#73),#46,.T.);
#59=ADVANCED_FACE('',(#51),#47,.T.);
#60=ADVANCED_FACE('',(#52),#48,.T.);
#61=ADVANCED_FACE('',(#74,#75),#65,.T.);
#62=ADVANCED_FACE('',(#76,#77),#28,.T.);
#63=CYLINDRICAL_SURFACE('',#220,2.9);
#64=CYLINDRICAL_SURFACE('',#227,3.);
#65=CYLINDRICAL_SURFACE('',#234,3.);
#66=FACE_BOUND('',#78,.T.);
#67=FACE_BOUND('',#79,.T.);
#68=FACE_BOUND('',#81,.T.);
#69=FACE_BOUND('',#82,.T.);
#70=FACE_BOUND('',#84,.T.);
#71=FACE_BOUND('',#85,.T.);
#72=FACE_BOUND('',#86,.T.);
#73=FACE_BOUND('',#87,.T.);
#74=FACE_BOUND('',#90,.T.);
#75=FACE_BOUND('',#91,.T.);
#76=FACE_BOUND('',#92,.T.);
#77=FACE_BOUND('',#93,.T.);
#78=EDGE_LOOP('',(#94));
#79=EDGE_LOOP('',(#95));
#80=EDGE_LOOP('',(#96));
#81=EDGE_LOOP('',(#97));
#82=EDGE_LOOP('',(#98));
#83=EDGE_LOOP('',(#99));
#84=EDGE_LOOP('',(#100));
#85=EDGE_LOOP('',(#101));
#86=EDGE_LOOP('',(#102));
#87=EDGE_LOOP('',(#103));
#88=EDGE_LOOP('',(#104));
#89=EDGE_LOOP('',(#105));
#90=EDGE_LOOP('',(#106));
#91=EDGE_LOOP('',(#107));
#92=EDGE_LOOP('',(#108));
#93=EDGE_LOOP('',(#109));
#94=ORIENTED_EDGE('',*,*,#118,.T.);
#95=ORIENTED_EDGE('',*,*,#119,.F.);
#96=ORIENTED_EDGE('',*,*,#120,.T.);
#97=ORIENTED_EDGE('',*,*,#118,.F.);
#98=ORIENTED_EDGE('',*,*,#120,.F.);
#99=ORIENTED_EDGE('',*,*,#121,.T.);
#100=ORIENTED_EDGE('',*,*,#121,.F.);
#101=ORIENTED_EDGE('',*,*,#122,.F.);
#102=ORIENTED_EDGE('',*,*,#119,.T.);
#103=ORIENTED_EDGE('',*,*,#122,.T.);
#104=ORIENTED_EDGE('',*,*,#123,.T.);
#105=ORIENTED_EDGE('',*,*,#124,.T.);
#106=ORIENTED_EDGE('',*,*,#125,.T.);
#107=ORIENTED_EDGE('',*,*,#124,.F.);
#108=ORIENTED_EDGE('',*,*,#123,.F.);
#109=ORIENTED_EDGE('',*,*,#125,.F.);
#110=VERTEX_POINT('',#313);
#111=VERTEX_POINT('',#315);
#112=VERTEX_POINT('',#318);
#113=VERTEX_POINT('',#322);
#114=VERTEX_POINT('',#325);
#115=VERTEX_POINT('',#329);
#116=VERTEX_POINT('',#332);
#117=VERTEX_POINT('',#335);
#118=EDGE_CURVE('',#110,#110,#128,.T.);
#119=EDGE_CURVE('',#111,#111,#129,.T.);
#120=EDGE_CURVE('',#112,#112,#130,.T.);
#121=EDGE_CURVE('',#113,#113,#131,.T.);
#122=EDGE_CURVE('',#114,#114,#132,.T.);
#123=EDGE_CURVE('',#115,#115,#133,.T.);
#124=EDGE_CURVE('',#116,#116,#134,.T.);
#125=EDGE_CURVE('',#117,#117,#135,.T.);
#126=(
BOUNDED_CURVE()
B_SPLINE_CURVE(3,(#296,#297,#298,#299,#300,#301,#302,#303,#304,#305,#306,
#307,#308),.UNSPECIFIED.,.F.,.F.)
B_SPLINE_CURVE_WITH_KNOTS((4,3,3,3,4),(0.,0.190819002169273,0.206594675204309,
0.799137892460092,1.),.UNSPECIFIED.)
CURVE()
GEOMETRIC_REPRESENTATION_ITEM()
RATIONAL_B_SPLINE_CURVE((1.,1.,1.,1.,0.804737854124365,0.804737854124365,
1.,1.,1.,1.,1.,1.,1.))
REPRESENTATION_ITEM('CUTTING PART LINE')
);
#127=CIRCLE('Arc1',#214,0.149999999999999);
#128=CIRCLE('',#218,2.9);
#129=CIRCLE('',#219,2.9);
#130=CIRCLE('',#221,2.65);
#131=CIRCLE('',#224,3.);
#132=CIRCLE('',#226,3.);
#133=CIRCLE('',#229,2.85);
#134=CIRCLE('',#231,3.);
#135=CIRCLE('',#233,3.);
#136=INVISIBILITY((#176,#177,#178,#179,#180));
#137=CURVE_STYLE('',#146,POSITIVE_LENGTH_MEASURE(0.18),#170);
#138=CURVE_STYLE('',#147,POSITIVE_LENGTH_MEASURE(0.18),#170);
#139=CURVE_STYLE('',#148,POSITIVE_LENGTH_MEASURE(0.18),#170);
#140=CURVE_STYLE('',#149,POSITIVE_LENGTH_MEASURE(0.18),#170);
#141=CURVE_STYLE('',#150,POSITIVE_LENGTH_MEASURE(0.18),#170);
#142=CURVE_STYLE('',#151,POSITIVE_LENGTH_MEASURE(0.18),#169);
#143=CURVE_STYLE('',#152,POSITIVE_LENGTH_MEASURE(0.18),#210);
#144=CURVE_STYLE('',#153,POSITIVE_LENGTH_MEASURE(0.18),#210);
#145=CURVE_STYLE('',#154,POSITIVE_LENGTH_MEASURE(0.18),#210);
#146=DRAUGHTING_PRE_DEFINED_CURVE_FONT('continuous');
#147=DRAUGHTING_PRE_DEFINED_CURVE_FONT('continuous');
#148=DRAUGHTING_PRE_DEFINED_CURVE_FONT('chain double dash');
#149=DRAUGHTING_PRE_DEFINED_CURVE_FONT('continuous');
#150=DRAUGHTING_PRE_DEFINED_CURVE_FONT('continuous');
#151=DRAUGHTING_PRE_DEFINED_CURVE_FONT('continuous');
#152=DRAUGHTING_PRE_DEFINED_CURVE_FONT('continuous');
#153=DRAUGHTING_PRE_DEFINED_CURVE_FONT('continuous');
#154=DRAUGHTING_PRE_DEFINED_CURVE_FONT('continuous');
#155=TRIMMED_CURVE('Line6',#161,(PARAMETER_VALUE(0.)),(
PARAMETER_VALUE(1.)),.T.,.PARAMETER.);
#156=TRIMMED_CURVE('Line7',#162,(PARAMETER_VALUE(0.)),(
PARAMETER_VALUE(1.)),.T.,.PARAMETER.);
#157=TRIMMED_CURVE('Line8',#163,(PARAMETER_VALUE(0.)),(
PARAMETER_VALUE(1.)),.T.,.PARAMETER.);
#158=TRIMMED_CURVE('Line9',#164,(PARAMETER_VALUE(0.)),(
PARAMETER_VALUE(1.)),.T.,.PARAMETER.);
#159=TRIMMED_CURVE('Arc1',#127,(PARAMETER_VALUE(90.)),(
PARAMETER_VALUE(180.)),.T.,.PARAMETER.);
#160=TRIMMED_CURVE('CUTTING PART LINE',#126,(PARAMETER_VALUE(0.)),(
PARAMETER_VALUE(1.)),.T.,.PARAMETER.);
#161=LINE('Line6',#291,#165);
#162=LINE('Line7',#292,#166);
#163=LINE('Line8',#293,#167);
#164=LINE('Line9',#294,#168);
#165=VECTOR('',#238,3.);
#166=VECTOR('',#239,8.84999999999999);
#167=VECTOR('',#240,9.);
#168=VECTOR('',#241,2.85);
#169=DRAUGHTING_PRE_DEFINED_COLOUR('blue');
#170=DRAUGHTING_PRE_DEFINED_COLOUR('white');
#171=PRESENTATION_LAYER_ASSIGNMENT('1','Layer 1',(#287,#288,#289,#290,#155,
#156,#157,#158,#159,#160,#215,#216,#217,#39,#40));
#172=STYLED_ITEM('',(#187),#287);
#173=STYLED_ITEM('',(#188),#288);
#174=STYLED_ITEM('',(#189),#289);
#175=STYLED_ITEM('',(#190),#290);
#176=STYLED_ITEM('',(#191),#155);
#177=STYLED_ITEM('',(#192),#156);
#178=STYLED_ITEM('',(#193),#157);
#179=STYLED_ITEM('',(#194),#158);
#180=STYLED_ITEM('',(#195),#159);
#181=STYLED_ITEM('',(#196),#160);
#182=STYLED_ITEM('',(#197),#215);
#183=STYLED_ITEM('',(#198),#216);
#184=STYLED_ITEM('',(#199),#217);
#185=STYLED_ITEM('',(#200),#39);
#186=STYLED_ITEM('',(#201),#40);
#187=PRESENTATION_STYLE_ASSIGNMENT((#202));
#188=PRESENTATION_STYLE_ASSIGNMENT((#203));
#189=PRESENTATION_STYLE_ASSIGNMENT((#204));
#190=PRESENTATION_STYLE_ASSIGNMENT((#205));
#191=PRESENTATION_STYLE_ASSIGNMENT((#137));
#192=PRESENTATION_STYLE_ASSIGNMENT((#138));
#193=PRESENTATION_STYLE_ASSIGNMENT((#139));
#194=PRESENTATION_STYLE_ASSIGNMENT((#140));
#195=PRESENTATION_STYLE_ASSIGNMENT((#141));
#196=PRESENTATION_STYLE_ASSIGNMENT((#142));
#197=PRESENTATION_STYLE_ASSIGNMENT((#143));
#198=PRESENTATION_STYLE_ASSIGNMENT((#144));
#199=PRESENTATION_STYLE_ASSIGNMENT((#145));
#200=PRESENTATION_STYLE_ASSIGNMENT((#29));
#201=PRESENTATION_STYLE_ASSIGNMENT((#30));
#202=POINT_STYLE('',#206,POSITIVE_LENGTH_MEASURE(3.),#210);
#203=POINT_STYLE('',#207,POSITIVE_LENGTH_MEASURE(3.),#210);
#204=POINT_STYLE('',#208,POSITIVE_LENGTH_MEASURE(3.),#210);
#205=POINT_STYLE('',#209,POSITIVE_LENGTH_MEASURE(3.),#169);
#206=PRE_DEFINED_POINT_MARKER_SYMBOL('plus');
#207=PRE_DEFINED_POINT_MARKER_SYMBOL('plus');
#208=PRE_DEFINED_POINT_MARKER_SYMBOL('plus');
#209=PRE_DEFINED_POINT_MARKER_SYMBOL('plus');
#210=COLOUR_RGB('Strong Stone',0.576470588235294,0.54508278019379,0.392156862745098);
#211=COLOUR_RGB('Medium Gray',0.501960784313725,0.501960784313725,0.501960784313725);
#212=COLOUR_RGB('Light Gray',0.8,0.8,0.8);
#213=AXIS2_PLACEMENT_3D('',#286,#236,#237);
#214=AXIS2_PLACEMENT_3D('',#295,#242,#243);
#215=AXIS2_PLACEMENT_3D('PCS',#309,#244,#245);
#216=AXIS2_PLACEMENT_3D('CIP',#310,#246,#247);
#217=AXIS2_PLACEMENT_3D('MCS',#311,#248,#249);
#218=AXIS2_PLACEMENT_3D('',#312,#250,#251);
#219=AXIS2_PLACEMENT_3D('',#314,#252,#253);
#220=AXIS2_PLACEMENT_3D('',#316,#254,#255);
#221=AXIS2_PLACEMENT_3D('',#317,#256,#257);
#222=AXIS2_PLACEMENT_3D('',#319,#258,#259);
#223=AXIS2_PLACEMENT_3D('',#320,#260,#261);
#224=AXIS2_PLACEMENT_3D('',#321,#262,#263);
#225=AXIS2_PLACEMENT_3D('',#323,#264,#265);
#226=AXIS2_PLACEMENT_3D('',#324,#266,#267);
#227=AXIS2_PLACEMENT_3D('',#326,#268,#269);
#228=AXIS2_PLACEMENT_3D('',#327,#270,#271);
#229=AXIS2_PLACEMENT_3D('',#328,#272,#273);
#230=AXIS2_PLACEMENT_3D('',#330,#274,#275);
#231=AXIS2_PLACEMENT_3D('',#331,#276,#277);
#232=AXIS2_PLACEMENT_3D('',#333,#278,#279);
#233=AXIS2_PLACEMENT_3D('',#334,#280,#281);
#234=AXIS2_PLACEMENT_3D('',#336,#282,#283);
#235=AXIS2_PLACEMENT_3D('',#337,#284,#285);
#236=DIRECTION('',(0.,0.,1.));
#237=DIRECTION('',(1.,0.,0.));
#238=DIRECTION('',(-1.,0.,0.));
#239=DIRECTION('',(-7.02514004282585E-16,0.,-1.));
#240=DIRECTION('',(-6.81424705857864E-16,0.,-1.));
#241=DIRECTION('',(1.,0.,0.));
#242=DIRECTION('',(0.,1.,0.));
#243=DIRECTION('',(0.,0.,1.));
#244=DIRECTION('',(0.,0.,1.));
#245=DIRECTION('',(1.,0.,0.));
#246=DIRECTION('',(0.,0.,1.));
#247=DIRECTION('',(1.,0.,0.));
#248=DIRECTION('',(0.,0.,1.));
#249=DIRECTION('',(1.,0.,0.));
#250=DIRECTION('',(0.,0.,-1.));
#251=DIRECTION('',(1.,0.,0.));
#252=DIRECTION('',(0.,0.,-1.));
#253=DIRECTION('',(1.,0.,0.));
#254=DIRECTION('',(0.,0.,1.));
#255=DIRECTION('',(1.,0.,0.));
#256=DIRECTION('',(0.,0.,1.));
#257=DIRECTION('',(1.,0.,0.));
#258=DIRECTION('',(0.,0.,1.));
#259=DIRECTION('',(1.,0.,0.));
#260=DIRECTION('',(0.,0.,-1.));
#261=DIRECTION('',(-1.,0.,0.));
#262=DIRECTION('',(0.,0.,-1.));
#263=DIRECTION('',(1.,0.,0.));
#264=DIRECTION('',(0.,0.,1.));
#265=DIRECTION('',(1.,0.,0.));
#266=DIRECTION('',(0.,0.,1.));
#267=DIRECTION('',(1.,0.,0.));
#268=DIRECTION('',(0.,0.,1.));
#269=DIRECTION('',(1.,0.,0.));
#270=DIRECTION('',(0.,0.,1.));
#271=DIRECTION('',(1.,0.,0.));
#272=DIRECTION('',(0.,0.,-1.));
#273=DIRECTION('',(-1.,0.,0.));
#274=DIRECTION('',(0.,0.,-1.));
#275=DIRECTION('',(-1.,0.,0.));
#276=DIRECTION('',(0.,0.,1.));
#277=DIRECTION('',(-1.,1.22464679914735E-16,0.));
#278=DIRECTION('',(0.,0.,1.));
#279=DIRECTION('',(1.,0.,0.));
#280=DIRECTION('',(0.,0.,1.));
#281=DIRECTION('',(-1.,0.,0.));
#282=DIRECTION('',(0.,0.,1.));
#283=DIRECTION('',(1.,0.,0.));
#284=DIRECTION('',(0.,0.,-1.));
#285=DIRECTION('',(-1.,0.,0.));
#286=CARTESIAN_POINT('',(0.,0.,0.));
#287=CARTESIAN_POINT('PCS',(0.,0.,0.));
#288=CARTESIAN_POINT('CIP',(0.,0.,-100.));
#289=CARTESIAN_POINT('MCS',(0.,0.,-36.));
#290=CARTESIAN_POINT('CRP',(3.,0.,-100.));
#291=CARTESIAN_POINT('',(3.,0.,-91.));
#292=CARTESIAN_POINT('',(3.,0.,-91.));
#293=CARTESIAN_POINT('',(5.81707229594992E-16,0.,-91.));
#294=CARTESIAN_POINT('',(-5.55111512312578E-15,0.,-100.));
#295=CARTESIAN_POINT('',(2.84999999999999,0.,-99.85));
#296=CARTESIAN_POINT('',(-5.32907051820075E-15,0.,-100.));
#297=CARTESIAN_POINT('',(0.949999999999995,0.,-100.));
#298=CARTESIAN_POINT('',(1.9,0.,-100.));
#299=CARTESIAN_POINT('',(2.85,0.,-100.));
#300=CARTESIAN_POINT('',(2.93786796564403,0.,-100.));
#301=CARTESIAN_POINT('',(2.99999999999999,0.,-99.937867965644));
#302=CARTESIAN_POINT('',(2.99999999999999,0.,-99.85));
#303=CARTESIAN_POINT('',(2.99999999999999,0.,-96.9));
#304=CARTESIAN_POINT('',(3.,0.,-93.95));
#305=CARTESIAN_POINT('',(3.,0.,-91.));
#306=CARTESIAN_POINT('',(2.,0.,-91.));
#307=CARTESIAN_POINT('',(1.,0.,-91.));
#308=CARTESIAN_POINT('',(4.44089209850063E-16,0.,-91.));
#309=CARTESIAN_POINT('',(0.,0.,0.));
#310=CARTESIAN_POINT('',(0.,0.,-100.));
#311=CARTESIAN_POINT('',(0.,0.,-36.));
#312=CARTESIAN_POINT('',(0.,0.,-0.25));
#313=CARTESIAN_POINT('',(2.9,0.,-0.25));
#314=CARTESIAN_POINT('',(0.,0.,-90.5));
#315=CARTESIAN_POINT('',(2.9,0.,-90.5));
#316=CARTESIAN_POINT('',(0.,0.,-99.55));
#317=CARTESIAN_POINT('',(0.,0.,0.));
#318=CARTESIAN_POINT('',(2.65,0.,0.));
#319=CARTESIAN_POINT('',(0.,0.,0.));
#320=CARTESIAN_POINT('',(0.,0.,0.));
#321=CARTESIAN_POINT('',(0.,0.,-91.));
#322=CARTESIAN_POINT('',(3.,0.,-91.));
#323=CARTESIAN_POINT('',(0.,0.,-91.));
#324=CARTESIAN_POINT('',(0.,0.,-90.5));
#325=CARTESIAN_POINT('',(3.,0.,-90.5));
#326=CARTESIAN_POINT('',(0.,0.,-91.05));
#327=CARTESIAN_POINT('',(0.,0.,-90.5));
#328=CARTESIAN_POINT('',(0.,0.,-100.));
#329=CARTESIAN_POINT('',(-2.85,0.,-100.));
#330=CARTESIAN_POINT('',(0.,0.,-100.));
#331=CARTESIAN_POINT('',(0.,0.,-91.));
#332=CARTESIAN_POINT('',(-3.,3.67394039744206E-16,-91.));
#333=CARTESIAN_POINT('',(0.,0.,-91.));
#334=CARTESIAN_POINT('',(0.,0.,-99.85));
#335=CARTESIAN_POINT('',(-3.,0.,-99.85));
#336=CARTESIAN_POINT('',(0.,0.,-100.9));
#337=CARTESIAN_POINT('',(0.,0.,-99.85));
#338=MECHANICAL_DESIGN_GEOMETRIC_PRESENTATION_REPRESENTATION('',(#172,#173,
#174,#175,#176,#177,#178,#179,#180,#181,#182,#183,#184,#185,#186),#339);
#339=(
GEOMETRIC_REPRESENTATION_CONTEXT(3)
GLOBAL_UNCERTAINTY_ASSIGNED_CONTEXT((#340))
GLOBAL_UNIT_ASSIGNED_CONTEXT((#346,#342,#341))
REPRESENTATION_CONTEXT('1607510591478','TOP_LEVEL_ASSEMBLY_PART')
);
#340=UNCERTAINTY_MEASURE_WITH_UNIT(LENGTH_MEASURE(2.E-5),#346,
'DISTANCE_ACCURACY_VALUE','Maximum Tolerance applied to model');
#341=(
NAMED_UNIT(*)
SI_UNIT($,.STERADIAN.)
SOLID_ANGLE_UNIT()
);
#342=(
CONVERSION_BASED_UNIT('DEGREE',#344)
NAMED_UNIT(#343)
PLANE_ANGLE_UNIT()
);
#343=DIMENSIONAL_EXPONENTS(0.,0.,0.,0.,0.,0.,0.);
#344=PLANE_ANGLE_MEASURE_WITH_UNIT(PLANE_ANGLE_MEASURE(0.0174532925),#345);
#345=(
NAMED_UNIT(*)
PLANE_ANGLE_UNIT()
SI_UNIT($,.RADIAN.)
);
#346=(
LENGTH_UNIT()
NAMED_UNIT(*)
SI_UNIT(.MILLI.,.METRE.)
);
ENDSEC;
END-ISO-10303-21;
