ISO-10303-21;
HEADER;
/* Generated by software containing ST-Developer
 * from STEP Tools, Inc. (www.steptools.com) 
 */
/* OPTION: using custom schema-name function */

FILE_DESCRIPTION(
/* description */ (''),
/* implementation_level */ '2;1');

FILE_NAME(
/* name */ 'aaa351780_a.stp',
/* time_stamp */ '2020-09-08T12:53:38+02:00',
/* author */ (''),
/* organization */ ('SMS'),
/* preprocessor_version */ 'ST-DEVELOPER v16.7',
/* originating_system */ 'SIEMENS PLM Software NX 12.0',
/* authorisation */ '');

FILE_SCHEMA (('AUTOMOTIVE_DESIGN { 1 0 10303 214 3 1 1 1 }'));
ENDSEC;

DATA;
#10=CONSTRUCTIVE_GEOMETRY_REPRESENTATION_RELATIONSHIP(
'supplemental geometry','',#26,#11);
#11=CONSTRUCTIVE_GEOMETRY_REPRESENTATION('supplemental geometry',(#141,
#142),#221);
#12=GEOMETRICALLY_BOUNDED_WIREFRAME_SHAPE_REPRESENTATION(
'AAA351780_A-None',(#27),#221);
#13=SHAPE_REPRESENTATION_RELATIONSHIP('None',
'relationship between AAA351780_A-None and AAA351780_A-None',#26,#15);
#14=SHAPE_REPRESENTATION_RELATIONSHIP('None',
'relationship between AAA351780_A-None and AAA351780_A-None',#26,#12);
#15=ADVANCED_BREP_SHAPE_REPRESENTATION('AAA351780_A-None',(#33),#221);
#16=SHAPE_DEFINITION_REPRESENTATION(#17,#26);
#17=PRODUCT_DEFINITION_SHAPE('','',#18);
#18=PRODUCT_DEFINITION(' ','',#20,#19);
#19=PRODUCT_DEFINITION_CONTEXT('part definition',#25,'design');
#20=PRODUCT_DEFINITION_FORMATION_WITH_SPECIFIED_SOURCE(' ',' ',#22,
 .NOT_KNOWN.);
#21=PRODUCT_RELATED_PRODUCT_CATEGORY('part','',(#22));
#22=PRODUCT('AAA351780_A','AAA351780_A','',(#23));
#23=PRODUCT_CONTEXT(' ',#25,'mechanical');
#24=APPLICATION_PROTOCOL_DEFINITION('international standard',
'automotive_design',2010,#25);
#25=APPLICATION_CONTEXT(
'core data for automotive mechanical design processes');
#26=SHAPE_REPRESENTATION('AAA351780_A-None',(#139),#221);
#27=GEOMETRIC_CURVE_SET('None',(#194,#195,#112));
#28=SURFACE_STYLE_USAGE(.BOTH.,#29);
#29=SURFACE_SIDE_STYLE('',(#30));
#30=SURFACE_STYLE_FILL_AREA(#31);
#31=FILL_AREA_STYLE('',(#32));
#32=FILL_AREA_STYLE_COLOUR('',#138);
#33=MANIFOLD_SOLID_BREP('CUT',#34);
#34=CLOSED_SHELL('',(#40,#41,#42,#43,#44,#45,#46));
#35=PLANE('',#155);
#36=PLANE('',#156);
#37=TOROIDAL_SURFACE('',#153,2.51117873496779,0.499999999999999);
#38=TOROIDAL_SURFACE('',#154,6.2,4.);
#39=CYLINDRICAL_SURFACE('',#151,2.2);
#40=ADVANCED_FACE('',(#49,#50),#47,.T.);
#41=ADVANCED_FACE('',(#51,#52),#48,.F.);
#42=ADVANCED_FACE('',(#53,#54),#39,.F.);
#43=ADVANCED_FACE('',(#55,#56),#37,.F.);
#44=ADVANCED_FACE('',(#57,#58),#38,.T.);
#45=ADVANCED_FACE('',(#59,#60),#35,.T.);
#46=ADVANCED_FACE('',(#61,#62),#36,.F.);
#47=CONICAL_SURFACE('',#145,6.,6.99999999999999);
#48=CONICAL_SURFACE('',#148,3.0099607600977,4.00000000000002);
#49=FACE_BOUND('',#63,.T.);
#50=FACE_BOUND('',#64,.T.);
#51=FACE_BOUND('',#65,.T.);
#52=FACE_BOUND('',#66,.T.);
#53=FACE_BOUND('',#67,.T.);
#54=FACE_BOUND('',#68,.T.);
#55=FACE_BOUND('',#69,.T.);
#56=FACE_BOUND('',#70,.T.);
#57=FACE_BOUND('',#71,.T.);
#58=FACE_BOUND('',#72,.T.);
#59=FACE_BOUND('',#73,.T.);
#60=FACE_BOUND('',#74,.T.);
#61=FACE_BOUND('',#75,.T.);
#62=FACE_BOUND('',#76,.T.);
#63=EDGE_LOOP('',(#77));
#64=EDGE_LOOP('',(#78));
#65=EDGE_LOOP('',(#79));
#66=EDGE_LOOP('',(#80));
#67=EDGE_LOOP('',(#81));
#68=EDGE_LOOP('',(#82));
#69=EDGE_LOOP('',(#83));
#70=EDGE_LOOP('',(#84));
#71=EDGE_LOOP('',(#85));
#72=EDGE_LOOP('',(#86));
#73=EDGE_LOOP('',(#87));
#74=EDGE_LOOP('',(#88));
#75=EDGE_LOOP('',(#89));
#76=EDGE_LOOP('',(#90));
#77=ORIENTED_EDGE('',*,*,#98,.T.);
#78=ORIENTED_EDGE('',*,*,#99,.F.);
#79=ORIENTED_EDGE('',*,*,#100,.T.);
#80=ORIENTED_EDGE('',*,*,#101,.T.);
#81=ORIENTED_EDGE('',*,*,#102,.F.);
#82=ORIENTED_EDGE('',*,*,#103,.F.);
#83=ORIENTED_EDGE('',*,*,#100,.F.);
#84=ORIENTED_EDGE('',*,*,#104,.T.);
#85=ORIENTED_EDGE('',*,*,#103,.T.);
#86=ORIENTED_EDGE('',*,*,#104,.F.);
#87=ORIENTED_EDGE('',*,*,#101,.F.);
#88=ORIENTED_EDGE('',*,*,#99,.T.);
#89=ORIENTED_EDGE('',*,*,#102,.T.);
#90=ORIENTED_EDGE('',*,*,#98,.F.);
#91=VERTEX_POINT('',#200);
#92=VERTEX_POINT('',#202);
#93=VERTEX_POINT('',#205);
#94=VERTEX_POINT('',#207);
#95=VERTEX_POINT('',#210);
#96=VERTEX_POINT('',#212);
#97=VERTEX_POINT('',#215);
#98=EDGE_CURVE('',#91,#91,#113,.T.);
#99=EDGE_CURVE('',#92,#92,#114,.T.);
#100=EDGE_CURVE('',#93,#93,#115,.T.);
#101=EDGE_CURVE('',#94,#94,#116,.T.);
#102=EDGE_CURVE('',#95,#95,#117,.T.);
#103=EDGE_CURVE('',#96,#96,#118,.T.);
#104=EDGE_CURVE('',#97,#97,#119,.T.);
#105=CURVE_STYLE('',#109,POSITIVE_LENGTH_MEASURE(0.18),#108);
#106=CURVE_STYLE('',#110,POSITIVE_LENGTH_MEASURE(0.18),#137);
#107=CURVE_STYLE('',#111,POSITIVE_LENGTH_MEASURE(0.18),#137);
#108=DRAUGHTING_PRE_DEFINED_COLOUR('blue');
#109=DRAUGHTING_PRE_DEFINED_CURVE_FONT('continuous');
#110=DRAUGHTING_PRE_DEFINED_CURVE_FONT('continuous');
#111=DRAUGHTING_PRE_DEFINED_CURVE_FONT('continuous');
#112=CIRCLE('CUTTING EDGE LINE',#140,6.);
#113=CIRCLE('',#143,5.41554549010217);
#114=CIRCLE('',#144,6.);
#115=CIRCLE('',#146,3.0099607600977);
#116=CIRCLE('',#147,3.06782900758521);
#117=CIRCLE('',#149,2.2);
#118=CIRCLE('',#150,2.2);
#119=CIRCLE('',#152,2.92104776441581);
#120=PRESENTATION_LAYER_ASSIGNMENT('1','Layer 1',(#194,#195,#112,#141,#142,
#33));
#121=STYLED_ITEM('',(#127),#194);
#122=STYLED_ITEM('',(#128),#195);
#123=STYLED_ITEM('',(#129),#112);
#124=STYLED_ITEM('',(#130),#141);
#125=STYLED_ITEM('',(#131),#142);
#126=STYLED_ITEM('',(#132),#33);
#127=PRESENTATION_STYLE_ASSIGNMENT((#133));
#128=PRESENTATION_STYLE_ASSIGNMENT((#134));
#129=PRESENTATION_STYLE_ASSIGNMENT((#105));
#130=PRESENTATION_STYLE_ASSIGNMENT((#106));
#131=PRESENTATION_STYLE_ASSIGNMENT((#107));
#132=PRESENTATION_STYLE_ASSIGNMENT((#28));
#133=POINT_STYLE('',#135,POSITIVE_LENGTH_MEASURE(3.),#137);
#134=POINT_STYLE('',#136,POSITIVE_LENGTH_MEASURE(3.),#137);
#135=PRE_DEFINED_POINT_MARKER_SYMBOL('plus');
#136=PRE_DEFINED_POINT_MARKER_SYMBOL('plus');
#137=COLOUR_RGB('Dark Red Pink',0.8,0.,0.2);
#138=COLOUR_RGB('Pale Gray',0.8,0.8,0.8);
#139=AXIS2_PLACEMENT_3D('',#193,#157,#158);
#140=AXIS2_PLACEMENT_3D('',#196,#159,#160);
#141=AXIS2_PLACEMENT_3D('PCS',#197,#161,#162);
#142=AXIS2_PLACEMENT_3D('MCS',#198,#163,#164);
#143=AXIS2_PLACEMENT_3D('',#199,#165,#166);
#144=AXIS2_PLACEMENT_3D('',#201,#167,#168);
#145=AXIS2_PLACEMENT_3D('',#203,#169,#170);
#146=AXIS2_PLACEMENT_3D('',#204,#171,#172);
#147=AXIS2_PLACEMENT_3D('',#206,#173,#174);
#148=AXIS2_PLACEMENT_3D('',#208,#175,#176);
#149=AXIS2_PLACEMENT_3D('',#209,#177,#178);
#150=AXIS2_PLACEMENT_3D('',#211,#179,#180);
#151=AXIS2_PLACEMENT_3D('',#213,#181,#182);
#152=AXIS2_PLACEMENT_3D('',#214,#183,#184);
#153=AXIS2_PLACEMENT_3D('',#216,#185,#186);
#154=AXIS2_PLACEMENT_3D('',#217,#187,#188);
#155=AXIS2_PLACEMENT_3D('',#218,#189,#190);
#156=AXIS2_PLACEMENT_3D('',#219,#191,#192);
#157=DIRECTION('',(0.,0.,1.));
#158=DIRECTION('',(1.,0.,0.));
#159=DIRECTION('',(0.,0.,1.));
#160=DIRECTION('',(1.,0.,0.));
#161=DIRECTION('',(0.,0.,1.));
#162=DIRECTION('',(0.,-1.,0.));
#163=DIRECTION('',(0.,0.,1.));
#164=DIRECTION('',(0.,-1.,0.));
#165=DIRECTION('',(0.,0.,1.));
#166=DIRECTION('',(1.,0.,0.));
#167=DIRECTION('',(0.,0.,1.));
#168=DIRECTION('',(1.,0.,0.));
#169=DIRECTION('',(0.,0.,1.));
#170=DIRECTION('',(1.,0.,0.));
#171=DIRECTION('',(0.,0.,-1.));
#172=DIRECTION('',(-1.,0.,0.));
#173=DIRECTION('',(0.,0.,1.));
#174=DIRECTION('',(1.,0.,0.));
#175=DIRECTION('',(0.,0.,1.));
#176=DIRECTION('',(-1.,0.,4.50408272927128E-16));
#177=DIRECTION('',(0.,0.,1.));
#178=DIRECTION('',(1.,0.,0.));
#179=DIRECTION('',(0.,0.,-1.));
#180=DIRECTION('',(-1.,0.,0.));
#181=DIRECTION('',(0.,0.,1.));
#182=DIRECTION('',(-1.,0.,0.));
#183=DIRECTION('',(0.,0.,-1.));
#184=DIRECTION('',(-1.,0.,0.));
#185=DIRECTION('',(0.,0.,1.));
#186=DIRECTION('',(-1.,0.,0.));
#187=DIRECTION('',(0.,0.,1.));
#188=DIRECTION('',(-1.,0.,0.));
#189=DIRECTION('',(0.,0.,1.));
#190=DIRECTION('',(1.,0.,0.));
#191=DIRECTION('',(0.,0.,1.));
#192=DIRECTION('',(1.,0.,0.));
#193=CARTESIAN_POINT('',(0.,0.,0.));
#194=CARTESIAN_POINT('',(-6.,6.,0.));
#195=CARTESIAN_POINT('',(0.,0.,0.));
#196=CARTESIAN_POINT('',(0.,0.,0.));
#197=CARTESIAN_POINT('',(-6.,6.,0.));
#198=CARTESIAN_POINT('',(0.,0.,0.));
#199=CARTESIAN_POINT('',(0.,0.,-4.76));
#200=CARTESIAN_POINT('',(5.41554549010217,0.,-4.76));
#201=CARTESIAN_POINT('',(0.,0.,0.));
#202=CARTESIAN_POINT('',(6.,0.,0.));
#203=CARTESIAN_POINT('',(0.,0.,0.));
#204=CARTESIAN_POINT('',(0.,0.,-0.827554494179627));
#205=CARTESIAN_POINT('',(-3.0099607600977,0.,-0.827554494179627));
#206=CARTESIAN_POINT('',(0.,0.,0.));
#207=CARTESIAN_POINT('',(3.06782900758521,0.,0.));
#208=CARTESIAN_POINT('',(0.,0.,-0.827554494179627));
#209=CARTESIAN_POINT('',(0.,0.,-4.76));
#210=CARTESIAN_POINT('',(2.2,0.,-4.76));
#211=CARTESIAN_POINT('',(0.,0.,-3.37));
#212=CARTESIAN_POINT('',(-2.2,0.,-3.37));
#213=CARTESIAN_POINT('',(0.,0.,-6.45));
#214=CARTESIAN_POINT('',(0.,0.,-1.07904556205117));
#215=CARTESIAN_POINT('',(-2.92104776441581,0.,-1.07904556205117));
#216=CARTESIAN_POINT('',(0.,0.,-0.792676257307565));
#217=CARTESIAN_POINT('',(0.,0.,-3.37));
#218=CARTESIAN_POINT('',(0.,0.,0.));
#219=CARTESIAN_POINT('',(0.,0.,-4.76));
#220=MECHANICAL_DESIGN_GEOMETRIC_PRESENTATION_REPRESENTATION('',(#121,#122,
#123,#124,#125,#126),#221);
#221=(
GEOMETRIC_REPRESENTATION_CONTEXT(3)
GLOBAL_UNCERTAINTY_ASSIGNED_CONTEXT((#222))
GLOBAL_UNIT_ASSIGNED_CONTEXT((#228,#224,#223))
REPRESENTATION_CONTEXT('aaa351780_a','TOP_LEVEL_ASSEMBLY_PART')
);
#222=UNCERTAINTY_MEASURE_WITH_UNIT(LENGTH_MEASURE(2.E-5),#228,
'DISTANCE_ACCURACY_VALUE','Maximum Tolerance applied to model');
#223=(
NAMED_UNIT(*)
SI_UNIT($,.STERADIAN.)
SOLID_ANGLE_UNIT()
);
#224=(
CONVERSION_BASED_UNIT('DEGREE',#226)
NAMED_UNIT(#225)
PLANE_ANGLE_UNIT()
);
#225=DIMENSIONAL_EXPONENTS(0.,0.,0.,0.,0.,0.,0.);
#226=PLANE_ANGLE_MEASURE_WITH_UNIT(PLANE_ANGLE_MEASURE(0.0174532925),#227);
#227=(
NAMED_UNIT(*)
PLANE_ANGLE_UNIT()
SI_UNIT($,.RADIAN.)
);
#228=(
LENGTH_UNIT()
NAMED_UNIT(*)
SI_UNIT(.MILLI.,.METRE.)
);
ENDSEC;
END-ISO-10303-21;
