ISO-10303-21;
HEADER;
/* Generated by software containing ST-Developer
 * from STEP Tools, Inc. (www.steptools.com) 
 */
/* OPTION: using custom schema-name function */

FILE_DESCRIPTION(
/* description */ (''),
/* implementation_level */ '2;1');

FILE_NAME(
/* name */ 'aaa336590_b.stp',
/* time_stamp */ '2020-06-24T13:07:09+02:00',
/* author */ (''),
/* organization */ ('SMS'),
/* preprocessor_version */ 'ST-DEVELOPER v16.7',
/* originating_system */ 'SIEMENS PLM Software NX 12.0',
/* authorisation */ '');

FILE_SCHEMA (('AUTOMOTIVE_DESIGN { 1 0 10303 214 3 1 1 1 }'));
ENDSEC;

DATA;
#10=CONSTRUCTIVE_GEOMETRY_REPRESENTATION_RELATIONSHIP(
'supplemental geometry','',#26,#11);
#11=CONSTRUCTIVE_GEOMETRY_REPRESENTATION('supplemental geometry',(#306,
#307),#543);
#12=GEOMETRICALLY_BOUNDED_WIREFRAME_SHAPE_REPRESENTATION(
'AAA336590_B-None',(#27),#543);
#13=SHAPE_REPRESENTATION_RELATIONSHIP('None',
'relationship between AAA336590_B-None and AAA336590_B-None',#26,#15);
#14=SHAPE_REPRESENTATION_RELATIONSHIP('None',
'relationship between AAA336590_B-None and AAA336590_B-None',#26,#12);
#15=ADVANCED_BREP_SHAPE_REPRESENTATION('AAA336590_B-None',(#33),#543);
#16=SHAPE_DEFINITION_REPRESENTATION(#17,#26);
#17=PRODUCT_DEFINITION_SHAPE('','',#18);
#18=PRODUCT_DEFINITION(' ','',#20,#19);
#19=PRODUCT_DEFINITION_CONTEXT('part definition',#25,'design');
#20=PRODUCT_DEFINITION_FORMATION_WITH_SPECIFIED_SOURCE(' ',' ',#22,
 .NOT_KNOWN.);
#21=PRODUCT_RELATED_PRODUCT_CATEGORY('part','',(#22));
#22=PRODUCT('AAA336590_B','AAA336590_B',' ',(#23));
#23=PRODUCT_CONTEXT(' ',#25,'mechanical');
#24=APPLICATION_PROTOCOL_DEFINITION('international standard',
'automotive_design',2010,#25);
#25=APPLICATION_CONTEXT(
'core data for automotive mechanical design processes');
#26=SHAPE_REPRESENTATION('AAA336590_B-None',(#305),#543);
#27=GEOMETRIC_CURVE_SET('None',(#424,#425,#285));
#28=SURFACE_STYLE_USAGE(.BOTH.,#29);
#29=SURFACE_SIDE_STYLE('',(#30));
#30=SURFACE_STYLE_FILL_AREA(#31);
#31=FILL_AREA_STYLE('',(#32));
#32=FILL_AREA_STYLE_COLOUR('',#304);
#33=MANIFOLD_SOLID_BREP('CUT',#34);
#34=CLOSED_SHELL('',(#53,#54,#55,#56,#57,#58,#59,#60,#61,#62,#63,#64,#65,
#66,#67,#68));
#35=TOROIDAL_SURFACE('',#334,1.10808960072078,0.3);
#36=TOROIDAL_SURFACE('',#337,1.79181042478067,0.37454181872136);
#37=TOROIDAL_SURFACE('',#338,2.1,1.);
#38=CONICAL_SURFACE('',#329,1.45236025790263,25.);
#39=CONICAL_SURFACE('',#332,1.40735881579873,3.99999999999888);
#40=CYLINDRICAL_SURFACE('',#324,0.5);
#41=CYLINDRICAL_SURFACE('',#325,0.5);
#42=CYLINDRICAL_SURFACE('',#326,0.5);
#43=CYLINDRICAL_SURFACE('',#327,0.5);
#44=CYLINDRICAL_SURFACE('',#336,1.1);
#45=FACE_OUTER_BOUND('',#102,.T.);
#46=FACE_OUTER_BOUND('',#103,.T.);
#47=FACE_OUTER_BOUND('',#104,.T.);
#48=FACE_OUTER_BOUND('',#105,.T.);
#49=FACE_OUTER_BOUND('',#106,.T.);
#50=FACE_OUTER_BOUND('',#107,.T.);
#51=FACE_OUTER_BOUND('',#108,.T.);
#52=FACE_OUTER_BOUND('',#109,.T.);
#53=ADVANCED_FACE('',(#82,#83),#69,.T.);
#54=ADVANCED_FACE('',(#84,#85),#70,.F.);
#55=ADVANCED_FACE('',(#45),#71,.T.);
#56=ADVANCED_FACE('',(#46),#72,.T.);
#57=ADVANCED_FACE('',(#47),#73,.T.);
#58=ADVANCED_FACE('',(#48),#74,.T.);
#59=ADVANCED_FACE('',(#49),#40,.T.);
#60=ADVANCED_FACE('',(#50),#41,.T.);
#61=ADVANCED_FACE('',(#51),#42,.T.);
#62=ADVANCED_FACE('',(#52),#43,.T.);
#63=ADVANCED_FACE('',(#86,#87),#38,.F.);
#64=ADVANCED_FACE('',(#88,#89),#39,.F.);
#65=ADVANCED_FACE('',(#90,#91),#35,.F.);
#66=ADVANCED_FACE('',(#92,#93),#44,.F.);
#67=ADVANCED_FACE('',(#94,#95),#36,.T.);
#68=ADVANCED_FACE('',(#96,#97),#37,.T.);
#69=PLANE('',#313);
#70=PLANE('',#319);
#71=PLANE('',#320);
#72=PLANE('',#321);
#73=PLANE('',#322);
#74=PLANE('',#323);
#75=CIRCLE('',#312,1.1);
#76=CIRCLE('',#318,1.54927694405495);
#77=CIRCLE('',#328,1.45236025790263);
#78=CIRCLE('',#330,1.41818097110531);
#79=CIRCLE('',#331,1.40735881579873);
#80=CIRCLE('',#333,1.33699200055445);
#81=CIRCLE('',#335,1.1);
#82=FACE_BOUND('',#98,.T.);
#83=FACE_BOUND('',#99,.T.);
#84=FACE_BOUND('',#100,.T.);
#85=FACE_BOUND('',#101,.T.);
#86=FACE_BOUND('',#110,.T.);
#87=FACE_BOUND('',#111,.T.);
#88=FACE_BOUND('',#112,.T.);
#89=FACE_BOUND('',#113,.T.);
#90=FACE_BOUND('',#114,.T.);
#91=FACE_BOUND('',#115,.T.);
#92=FACE_BOUND('',#116,.T.);
#93=FACE_BOUND('',#117,.T.);
#94=FACE_BOUND('',#118,.T.);
#95=FACE_BOUND('',#119,.T.);
#96=FACE_BOUND('',#120,.T.);
#97=FACE_BOUND('',#121,.T.);
#98=EDGE_LOOP('',(#130,#131,#132,#133,#134,#135,#136,#137));
#99=EDGE_LOOP('',(#138));
#100=EDGE_LOOP('',(#139,#140,#141,#142,#143,#144,#145,#146));
#101=EDGE_LOOP('',(#147));
#102=EDGE_LOOP('',(#148,#149,#150,#151));
#103=EDGE_LOOP('',(#152,#153,#154,#155));
#104=EDGE_LOOP('',(#156,#157,#158,#159));
#105=EDGE_LOOP('',(#160,#161,#162,#163));
#106=EDGE_LOOP('',(#164,#165,#166,#167));
#107=EDGE_LOOP('',(#168,#169,#170,#171));
#108=EDGE_LOOP('',(#172,#173,#174,#175));
#109=EDGE_LOOP('',(#176,#177,#178,#179));
#110=EDGE_LOOP('',(#180));
#111=EDGE_LOOP('',(#181));
#112=EDGE_LOOP('',(#182));
#113=EDGE_LOOP('',(#183));
#114=EDGE_LOOP('',(#184));
#115=EDGE_LOOP('',(#185));
#116=EDGE_LOOP('',(#186));
#117=EDGE_LOOP('',(#187));
#118=EDGE_LOOP('',(#188));
#119=EDGE_LOOP('',(#189));
#120=EDGE_LOOP('',(#190));
#121=EDGE_LOOP('',(#191));
#122=ELLIPSE('',#308,0.518547830282065,0.5);
#123=ELLIPSE('',#309,0.518547830282065,0.5);
#124=ELLIPSE('',#310,0.518547830282065,0.5);
#125=ELLIPSE('',#311,0.518547830282065,0.5);
#126=ELLIPSE('',#314,0.518547830282065,0.5);
#127=ELLIPSE('',#315,0.518547830282065,0.5);
#128=ELLIPSE('',#316,0.518547830282065,0.5);
#129=ELLIPSE('',#317,0.518547830282065,0.5);
#130=ORIENTED_EDGE('',*,*,#215,.T.);
#131=ORIENTED_EDGE('',*,*,#216,.T.);
#132=ORIENTED_EDGE('',*,*,#217,.T.);
#133=ORIENTED_EDGE('',*,*,#218,.T.);
#134=ORIENTED_EDGE('',*,*,#219,.T.);
#135=ORIENTED_EDGE('',*,*,#220,.T.);
#136=ORIENTED_EDGE('',*,*,#221,.T.);
#137=ORIENTED_EDGE('',*,*,#222,.T.);
#138=ORIENTED_EDGE('',*,*,#223,.T.);
#139=ORIENTED_EDGE('',*,*,#224,.F.);
#140=ORIENTED_EDGE('',*,*,#225,.T.);
#141=ORIENTED_EDGE('',*,*,#226,.F.);
#142=ORIENTED_EDGE('',*,*,#227,.T.);
#143=ORIENTED_EDGE('',*,*,#228,.F.);
#144=ORIENTED_EDGE('',*,*,#229,.T.);
#145=ORIENTED_EDGE('',*,*,#230,.F.);
#146=ORIENTED_EDGE('',*,*,#231,.T.);
#147=ORIENTED_EDGE('',*,*,#232,.F.);
#148=ORIENTED_EDGE('',*,*,#219,.F.);
#149=ORIENTED_EDGE('',*,*,#233,.T.);
#150=ORIENTED_EDGE('',*,*,#230,.T.);
#151=ORIENTED_EDGE('',*,*,#234,.T.);
#152=ORIENTED_EDGE('',*,*,#228,.T.);
#153=ORIENTED_EDGE('',*,*,#235,.T.);
#154=ORIENTED_EDGE('',*,*,#221,.F.);
#155=ORIENTED_EDGE('',*,*,#236,.T.);
#156=ORIENTED_EDGE('',*,*,#226,.T.);
#157=ORIENTED_EDGE('',*,*,#237,.T.);
#158=ORIENTED_EDGE('',*,*,#215,.F.);
#159=ORIENTED_EDGE('',*,*,#238,.T.);
#160=ORIENTED_EDGE('',*,*,#217,.F.);
#161=ORIENTED_EDGE('',*,*,#239,.T.);
#162=ORIENTED_EDGE('',*,*,#224,.T.);
#163=ORIENTED_EDGE('',*,*,#240,.T.);
#164=ORIENTED_EDGE('',*,*,#216,.F.);
#165=ORIENTED_EDGE('',*,*,#237,.F.);
#166=ORIENTED_EDGE('',*,*,#225,.F.);
#167=ORIENTED_EDGE('',*,*,#239,.F.);
#168=ORIENTED_EDGE('',*,*,#222,.F.);
#169=ORIENTED_EDGE('',*,*,#235,.F.);
#170=ORIENTED_EDGE('',*,*,#227,.F.);
#171=ORIENTED_EDGE('',*,*,#238,.F.);
#172=ORIENTED_EDGE('',*,*,#218,.F.);
#173=ORIENTED_EDGE('',*,*,#240,.F.);
#174=ORIENTED_EDGE('',*,*,#231,.F.);
#175=ORIENTED_EDGE('',*,*,#233,.F.);
#176=ORIENTED_EDGE('',*,*,#220,.F.);
#177=ORIENTED_EDGE('',*,*,#234,.F.);
#178=ORIENTED_EDGE('',*,*,#229,.F.);
#179=ORIENTED_EDGE('',*,*,#236,.F.);
#180=ORIENTED_EDGE('',*,*,#241,.T.);
#181=ORIENTED_EDGE('',*,*,#232,.T.);
#182=ORIENTED_EDGE('',*,*,#242,.F.);
#183=ORIENTED_EDGE('',*,*,#243,.T.);
#184=ORIENTED_EDGE('',*,*,#243,.F.);
#185=ORIENTED_EDGE('',*,*,#244,.T.);
#186=ORIENTED_EDGE('',*,*,#223,.F.);
#187=ORIENTED_EDGE('',*,*,#245,.F.);
#188=ORIENTED_EDGE('',*,*,#242,.T.);
#189=ORIENTED_EDGE('',*,*,#241,.F.);
#190=ORIENTED_EDGE('',*,*,#245,.T.);
#191=ORIENTED_EDGE('',*,*,#244,.F.);
#192=VERTEX_POINT('',#473);
#193=VERTEX_POINT('',#474);
#194=VERTEX_POINT('',#476);
#195=VERTEX_POINT('',#478);
#196=VERTEX_POINT('',#480);
#197=VERTEX_POINT('',#482);
#198=VERTEX_POINT('',#484);
#199=VERTEX_POINT('',#486);
#200=VERTEX_POINT('',#489);
#201=VERTEX_POINT('',#492);
#202=VERTEX_POINT('',#493);
#203=VERTEX_POINT('',#495);
#204=VERTEX_POINT('',#497);
#205=VERTEX_POINT('',#499);
#206=VERTEX_POINT('',#501);
#207=VERTEX_POINT('',#503);
#208=VERTEX_POINT('',#505);
#209=VERTEX_POINT('',#508);
#210=VERTEX_POINT('',#527);
#211=VERTEX_POINT('',#530);
#212=VERTEX_POINT('',#532);
#213=VERTEX_POINT('',#535);
#214=VERTEX_POINT('',#538);
#215=EDGE_CURVE('',#192,#193,#246,.T.);
#216=EDGE_CURVE('',#193,#194,#122,.T.);
#217=EDGE_CURVE('',#194,#195,#247,.T.);
#218=EDGE_CURVE('',#195,#196,#123,.T.);
#219=EDGE_CURVE('',#196,#197,#248,.T.);
#220=EDGE_CURVE('',#197,#198,#124,.T.);
#221=EDGE_CURVE('',#198,#199,#249,.T.);
#222=EDGE_CURVE('',#199,#192,#125,.T.);
#223=EDGE_CURVE('',#200,#200,#75,.T.);
#224=EDGE_CURVE('',#201,#202,#250,.T.);
#225=EDGE_CURVE('',#201,#203,#126,.T.);
#226=EDGE_CURVE('',#204,#203,#251,.T.);
#227=EDGE_CURVE('',#204,#205,#127,.T.);
#228=EDGE_CURVE('',#206,#205,#252,.T.);
#229=EDGE_CURVE('',#206,#207,#128,.T.);
#230=EDGE_CURVE('',#208,#207,#253,.T.);
#231=EDGE_CURVE('',#208,#202,#129,.T.);
#232=EDGE_CURVE('',#209,#209,#76,.T.);
#233=EDGE_CURVE('',#196,#208,#254,.T.);
#234=EDGE_CURVE('',#207,#197,#255,.T.);
#235=EDGE_CURVE('',#205,#199,#256,.T.);
#236=EDGE_CURVE('',#198,#206,#257,.T.);
#237=EDGE_CURVE('',#203,#193,#258,.T.);
#238=EDGE_CURVE('',#192,#204,#259,.T.);
#239=EDGE_CURVE('',#194,#201,#260,.T.);
#240=EDGE_CURVE('',#202,#195,#261,.T.);
#241=EDGE_CURVE('',#210,#210,#77,.T.);
#242=EDGE_CURVE('',#211,#211,#78,.T.);
#243=EDGE_CURVE('',#212,#212,#79,.T.);
#244=EDGE_CURVE('',#213,#213,#80,.T.);
#245=EDGE_CURVE('',#214,#214,#81,.T.);
#246=LINE('',#472,#262);
#247=LINE('',#477,#263);
#248=LINE('',#481,#264);
#249=LINE('',#485,#265);
#250=LINE('',#491,#266);
#251=LINE('',#496,#267);
#252=LINE('',#500,#268);
#253=LINE('',#504,#269);
#254=LINE('',#510,#270);
#255=LINE('',#511,#271);
#256=LINE('',#513,#272);
#257=LINE('',#514,#273);
#258=LINE('',#516,#274);
#259=LINE('',#517,#275);
#260=LINE('',#519,#276);
#261=LINE('',#520,#277);
#262=VECTOR('',#345,1.);
#263=VECTOR('',#348,1.);
#264=VECTOR('',#351,1.);
#265=VECTOR('',#354,1.);
#266=VECTOR('',#361,1.);
#267=VECTOR('',#364,1.);
#268=VECTOR('',#367,1.);
#269=VECTOR('',#370,1.);
#270=VECTOR('',#377,1.);
#271=VECTOR('',#378,1.);
#272=VECTOR('',#381,1.);
#273=VECTOR('',#382,1.);
#274=VECTOR('',#385,1.);
#275=VECTOR('',#386,1.);
#276=VECTOR('',#389,1.);
#277=VECTOR('',#390,1.);
#278=CURVE_STYLE('',#282,POSITIVE_LENGTH_MEASURE(0.25),#281);
#279=CURVE_STYLE('',#283,POSITIVE_LENGTH_MEASURE(0.18),#303);
#280=CURVE_STYLE('',#284,POSITIVE_LENGTH_MEASURE(0.18),#303);
#281=DRAUGHTING_PRE_DEFINED_COLOUR('blue');
#282=DRAUGHTING_PRE_DEFINED_CURVE_FONT('continuous');
#283=DRAUGHTING_PRE_DEFINED_CURVE_FONT('continuous');
#284=DRAUGHTING_PRE_DEFINED_CURVE_FONT('continuous');
#285=B_SPLINE_CURVE_WITH_KNOTS('CUTTING EDGE LINE',3,(#426,#427,#428,#429,
#430,#431,#432,#433,#434,#435,#436,#437,#438,#439,#440,#441,#442,#443,#444,
#445,#446,#447,#448,#449,#450,#451,#452,#453,#454,#455,#456,#457,#458,#459,
#460,#461,#462,#463,#464,#465,#466,#467,#468,#469),.UNSPECIFIED.,.T.,.F.,
(1,1,2,1,1,1,1,1,1,1,1,1,1,1,1,1,1,1,1,1,1,1,1,1,1,1,1,1,1,1,1,1,1,1,1,
1,1,1,1,1,1,1,1,2,1,1),(-0.0197372920000001,-0.00986864599999993,0.,0.105262708,
0.2078938483,0.210525416,0.215459739,0.220394062,0.230262708,0.240131354,
0.245065677,0.25,0.2523026217375,0.302631354,0.355262708,0.4578938483,0.460525416,
0.465459739,0.470394062,0.480262708,0.490131354,0.495065677,0.5,0.5023026217375,
0.552631354,0.605262708,0.7078938483,0.710525416,0.715459739,0.720394062,
0.730262708,0.740131354,0.745065677,0.75,0.7523026217375,0.802631354,0.855262708,
0.9578938483,0.960525416,0.965459739,0.970394062,0.980262708,0.990131354,
1.,1.105262708,1.2078938483),.UNSPECIFIED.);
#286=PRESENTATION_LAYER_ASSIGNMENT('1','Layer 1',(#424,#425,#285,#306,#307,
#33));
#287=STYLED_ITEM('',(#293),#424);
#288=STYLED_ITEM('',(#294),#425);
#289=STYLED_ITEM('',(#295),#285);
#290=STYLED_ITEM('',(#296),#306);
#291=STYLED_ITEM('',(#297),#307);
#292=STYLED_ITEM('',(#298),#33);
#293=PRESENTATION_STYLE_ASSIGNMENT((#299));
#294=PRESENTATION_STYLE_ASSIGNMENT((#300));
#295=PRESENTATION_STYLE_ASSIGNMENT((#278));
#296=PRESENTATION_STYLE_ASSIGNMENT((#279));
#297=PRESENTATION_STYLE_ASSIGNMENT((#280));
#298=PRESENTATION_STYLE_ASSIGNMENT((#28));
#299=POINT_STYLE('',#301,POSITIVE_LENGTH_MEASURE(3.),#303);
#300=POINT_STYLE('',#302,POSITIVE_LENGTH_MEASURE(3.),#303);
#301=PRE_DEFINED_POINT_MARKER_SYMBOL('plus');
#302=PRE_DEFINED_POINT_MARKER_SYMBOL('plus');
#303=COLOUR_RGB('Medium Maroon',0.6,0.4,0.4);
#304=COLOUR_RGB('Light Gray',0.8,0.8,0.8);
#305=AXIS2_PLACEMENT_3D('',#423,#339,#340);
#306=AXIS2_PLACEMENT_3D('MCS',#470,#341,#342);
#307=AXIS2_PLACEMENT_3D('PCS',#471,#343,#344);
#308=AXIS2_PLACEMENT_3D('',#475,#346,#347);
#309=AXIS2_PLACEMENT_3D('',#479,#349,#350);
#310=AXIS2_PLACEMENT_3D('',#483,#352,#353);
#311=AXIS2_PLACEMENT_3D('',#487,#355,#356);
#312=AXIS2_PLACEMENT_3D('',#488,#357,#358);
#313=AXIS2_PLACEMENT_3D('',#490,#359,#360);
#314=AXIS2_PLACEMENT_3D('',#494,#362,#363);
#315=AXIS2_PLACEMENT_3D('',#498,#365,#366);
#316=AXIS2_PLACEMENT_3D('',#502,#368,#369);
#317=AXIS2_PLACEMENT_3D('',#506,#371,#372);
#318=AXIS2_PLACEMENT_3D('',#507,#373,#374);
#319=AXIS2_PLACEMENT_3D('',#509,#375,#376);
#320=AXIS2_PLACEMENT_3D('',#512,#379,#380);
#321=AXIS2_PLACEMENT_3D('',#515,#383,#384);
#322=AXIS2_PLACEMENT_3D('',#518,#387,#388);
#323=AXIS2_PLACEMENT_3D('',#521,#391,#392);
#324=AXIS2_PLACEMENT_3D('',#522,#393,#394);
#325=AXIS2_PLACEMENT_3D('',#523,#395,#396);
#326=AXIS2_PLACEMENT_3D('',#524,#397,#398);
#327=AXIS2_PLACEMENT_3D('',#525,#399,#400);
#328=AXIS2_PLACEMENT_3D('',#526,#401,#402);
#329=AXIS2_PLACEMENT_3D('',#528,#403,#404);
#330=AXIS2_PLACEMENT_3D('',#529,#405,#406);
#331=AXIS2_PLACEMENT_3D('',#531,#407,#408);
#332=AXIS2_PLACEMENT_3D('',#533,#409,#410);
#333=AXIS2_PLACEMENT_3D('',#534,#411,#412);
#334=AXIS2_PLACEMENT_3D('',#536,#413,#414);
#335=AXIS2_PLACEMENT_3D('',#537,#415,#416);
#336=AXIS2_PLACEMENT_3D('',#539,#417,#418);
#337=AXIS2_PLACEMENT_3D('',#540,#419,#420);
#338=AXIS2_PLACEMENT_3D('',#541,#421,#422);
#339=DIRECTION('',(0.,0.,1.));
#340=DIRECTION('',(1.,0.,0.));
#341=DIRECTION('',(0.,0.,1.));
#342=DIRECTION('',(1.,0.,0.));
#343=DIRECTION('',(0.,0.,1.));
#344=DIRECTION('',(1.,0.,0.));
#345=DIRECTION('',(1.61567382566467E-15,1.,0.));
#346=DIRECTION('',(0.,0.,-1.));
#347=DIRECTION('',(-0.707106781186546,0.707106781186549,0.));
#348=DIRECTION('',(1.,-2.72113486427734E-15,0.));
#349=DIRECTION('',(0.,0.,-1.));
#350=DIRECTION('',(0.70710678118655,0.707106781186546,0.));
#351=DIRECTION('',(-2.80617032878601E-15,-1.,0.));
#352=DIRECTION('',(0.,0.,-1.));
#353=DIRECTION('',(0.707106781186545,-0.70710678118655,0.));
#354=DIRECTION('',(-1.,3.74156043838135E-15,0.));
#355=DIRECTION('',(0.,0.,-1.));
#356=DIRECTION('',(-0.707106781186549,-0.707106781186546,0.));
#357=DIRECTION('',(0.,0.,1.));
#358=DIRECTION('',(-1.,0.,0.));
#359=DIRECTION('',(0.,0.,-1.));
#360=DIRECTION('',(-1.,0.,0.));
#361=DIRECTION('',(1.,-2.72113486427734E-15,0.));
#362=DIRECTION('',(0.,0.,1.));
#363=DIRECTION('',(-0.707106781186546,0.707106781186549,0.));
#364=DIRECTION('',(1.61567382566467E-15,1.,0.));
#365=DIRECTION('',(0.,0.,1.));
#366=DIRECTION('',(-0.707106781186549,-0.707106781186546,0.));
#367=DIRECTION('',(-1.,3.74156043838135E-15,0.));
#368=DIRECTION('',(0.,0.,1.));
#369=DIRECTION('',(0.707106781186545,-0.70710678118655,0.));
#370=DIRECTION('',(-2.80617032878601E-15,-1.,0.));
#371=DIRECTION('',(0.,0.,1.));
#372=DIRECTION('',(0.70710678118655,0.707106781186546,0.));
#373=DIRECTION('',(0.,0.,1.));
#374=DIRECTION('',(-1.,0.,0.));
#375=DIRECTION('',(0.,0.,-1.));
#376=DIRECTION('',(-1.,0.,0.));
#377=DIRECTION('',(0.187427559991896,0.187427559991895,0.964231206459824));
#378=DIRECTION('',(-0.187427559991895,0.187427559991897,-0.964231206459825));
#379=DIRECTION('',(0.981627183447664,-2.75461307612062E-15,-0.190808995376545));
#380=DIRECTION('',(-0.190808995376545,0.,-0.981627183447664));
#381=DIRECTION('',(0.187427559991896,0.187427559991895,-0.964231206459825));
#382=DIRECTION('',(0.187427559991895,-0.187427559991897,0.964231206459825));
#383=DIRECTION('',(-3.67281743482749E-15,-0.981627183447664,-0.190808995376545));
#384=DIRECTION('',(0.,0.190808995376545,-0.981627183447664));
#385=DIRECTION('',(0.187427559991896,-0.187427559991896,-0.964231206459825));
#386=DIRECTION('',(-0.187427559991896,-0.187427559991895,0.964231206459825));
#387=DIRECTION('',(-0.981627183447664,1.58598934685733E-15,-0.190808995376545));
#388=DIRECTION('',(-0.190808995376545,0.,0.981627183447664));
#389=DIRECTION('',(-0.187427559991895,0.187427559991896,0.964231206459824));
#390=DIRECTION('',(-0.187427559991896,-0.187427559991895,-0.964231206459825));
#391=DIRECTION('',(2.67113995260181E-15,0.981627183447664,-0.190808995376545));
#392=DIRECTION('',(0.,0.190808995376545,0.981627183447664));
#393=DIRECTION('',(-0.187427559991895,0.187427559991896,0.964231206459825));
#394=DIRECTION('',(0.,-0.981627183447664,0.190808995376545));
#395=DIRECTION('',(-0.187427559991896,-0.187427559991895,0.964231206459825));
#396=DIRECTION('',(0.981627183447664,0.,0.190808995376545));
#397=DIRECTION('',(0.187427559991896,0.187427559991895,0.964231206459825));
#398=DIRECTION('',(0.981627183447664,0.,-0.190808995376545));
#399=DIRECTION('',(0.187427559991895,-0.187427559991897,0.964231206459825));
#400=DIRECTION('',(0.,-0.981627183447664,-0.190808995376545));
#401=DIRECTION('',(0.,0.,-1.));
#402=DIRECTION('',(1.,0.,0.));
#403=DIRECTION('',(0.,0.,1.));
#404=DIRECTION('',(1.,0.,-1.97018088407716E-17));
#405=DIRECTION('',(0.,0.,-1.));
#406=DIRECTION('',(1.,0.,0.));
#407=DIRECTION('',(0.,0.,-1.));
#408=DIRECTION('',(1.,0.,0.));
#409=DIRECTION('',(0.,0.,1.));
#410=DIRECTION('',(1.,0.,5.48680919818918E-16));
#411=DIRECTION('',(0.,0.,-1.));
#412=DIRECTION('',(1.,0.,0.));
#413=DIRECTION('',(0.,0.,1.));
#414=DIRECTION('',(1.,0.,0.));
#415=DIRECTION('',(0.,0.,-1.));
#416=DIRECTION('',(1.,0.,0.));
#417=DIRECTION('',(0.,0.,1.));
#418=DIRECTION('',(1.,0.,0.));
#419=DIRECTION('',(0.,0.,1.));
#420=DIRECTION('',(1.,0.,0.));
#421=DIRECTION('',(0.,0.,1.));
#422=DIRECTION('',(1.,0.,0.));
#423=CARTESIAN_POINT('',(0.,0.,0.));
#424=CARTESIAN_POINT('',(0.,0.,0.));
#425=CARTESIAN_POINT('',(-2.55,-2.54999999999999,0.));
#426=CARTESIAN_POINT('',(-2.12353772545974,-2.54999999999999,0.));
#427=CARTESIAN_POINT('',(-1.37279093885078,-2.54999999999999,0.));
#428=CARTESIAN_POINT('',(-0.0171598867356409,-2.55,0.));
#429=CARTESIAN_POINT('',(1.35563105211514,-2.55000000000001,0.));
#430=CARTESIAN_POINT('',(2.07419933938408,-2.55082503726313,0.));
#431=CARTESIAN_POINT('',(2.15573469006659,-2.54381205303097,0.));
#432=CARTESIAN_POINT('',(2.27969999665974,-2.50713552019107,0.));
#433=CARTESIAN_POINT('',(2.4165720605225,-2.41657206052719,0.));
#434=CARTESIAN_POINT('',(2.5071355201948,-2.27969999664945,0.));
#435=CARTESIAN_POINT('',(2.54381205303231,-2.15573469006329,0.));
#436=CARTESIAN_POINT('',(2.55072190760506,-2.07634468031809,0.));
#437=CARTESIAN_POINT('',(2.55,-1.7009737726698,0.));
#438=CARTESIAN_POINT('',(2.55,-1.01457830324441,0.));
#439=CARTESIAN_POINT('',(2.55,0.326037847977053,0.));
#440=CARTESIAN_POINT('',(2.55,1.35563105211514,0.));
#441=CARTESIAN_POINT('',(2.55082503726277,2.07419933938455,0.));
#442=CARTESIAN_POINT('',(2.54381205303362,2.15573469006313,0.));
#443=CARTESIAN_POINT('',(2.50713552019277,2.27969999665533,0.));
#444=CARTESIAN_POINT('',(2.4165720604844,2.41657206056529,0.));
#445=CARTESIAN_POINT('',(2.27969999665387,2.5071355201931,0.));
#446=CARTESIAN_POINT('',(2.15573469006675,2.54381205302966,0.));
#447=CARTESIAN_POINT('',(2.07634468031768,2.55072190760537,0.));
#448=CARTESIAN_POINT('',(1.7009737726698,2.55,0.));
#449=CARTESIAN_POINT('',(1.01457830324441,2.55,0.));
#450=CARTESIAN_POINT('',(-0.326037847977055,2.55,0.));
#451=CARTESIAN_POINT('',(-1.35563105211514,2.55,0.));
#452=CARTESIAN_POINT('',(-2.07419933938409,2.55082503726312,0.));
#453=CARTESIAN_POINT('',(-2.1557346900666,2.54381205303097,0.));
#454=CARTESIAN_POINT('',(-2.27969999665974,2.50713552019107,0.));
#455=CARTESIAN_POINT('',(-2.4165720605225,2.41657206052719,0.));
#456=CARTESIAN_POINT('',(-2.5071355201948,2.27969999664945,0.));
#457=CARTESIAN_POINT('',(-2.54381205303231,2.15573469006328,0.));
#458=CARTESIAN_POINT('',(-2.55072190760507,2.07634468031808,0.));
#459=CARTESIAN_POINT('',(-2.55,1.7009737726698,0.));
#460=CARTESIAN_POINT('',(-2.55,1.01457830324441,0.));
#461=CARTESIAN_POINT('',(-2.55,-0.326037847977052,0.));
#462=CARTESIAN_POINT('',(-2.55,-1.35563105211514,0.));
#463=CARTESIAN_POINT('',(-2.55082503726277,-2.07419933938454,0.));
#464=CARTESIAN_POINT('',(-2.54381205303361,-2.15573469006313,0.));
#465=CARTESIAN_POINT('',(-2.50713552019277,-2.27969999665532,0.));
#466=CARTESIAN_POINT('',(-2.4165720604844,-2.41657206056528,0.));
#467=CARTESIAN_POINT('',(-2.25232558388776,-2.52524821211866,0.));
#468=CARTESIAN_POINT('',(-2.12353772545974,-2.54999999999999,0.));
#469=CARTESIAN_POINT('',(-1.37279093885078,-2.54999999999999,0.));
#470=CARTESIAN_POINT('',(0.,0.,0.));
#471=CARTESIAN_POINT('',(-2.55,-2.54999999999999,0.));
#472=CARTESIAN_POINT('',(-2.08348725806947,2.55,-2.4));
#473=CARTESIAN_POINT('',(-2.08348725806948,-1.59267366634564,-2.4));
#474=CARTESIAN_POINT('',(-2.08348725806947,1.59267366634565,-2.4));
#475=CARTESIAN_POINT('',(-1.57412891059187,1.57412891059187,-2.4));
#476=CARTESIAN_POINT('',(-1.59267366634564,2.08348725806948,-2.4));
#477=CARTESIAN_POINT('',(2.55000000000001,2.08348725806947,-2.4));
#478=CARTESIAN_POINT('',(1.59267366634565,2.08348725806947,-2.4));
#479=CARTESIAN_POINT('',(1.57412891059187,1.57412891059186,-2.4));
#480=CARTESIAN_POINT('',(2.08348725806948,1.59267366634564,-2.4));
#481=CARTESIAN_POINT('',(2.08348725806948,2.54999999999999,-2.4));
#482=CARTESIAN_POINT('',(2.08348725806947,-1.59267366634565,-2.4));
#483=CARTESIAN_POINT('',(1.57412891059186,-1.57412891059187,-2.4));
#484=CARTESIAN_POINT('',(1.59267366634564,-2.08348725806948,-2.4));
#485=CARTESIAN_POINT('',(2.54999999999999,-2.08348725806949,-2.4));
#486=CARTESIAN_POINT('',(-1.59267366634565,-2.08348725806947,-2.4));
#487=CARTESIAN_POINT('',(-1.57412891059187,-1.57412891059186,-2.4));
#488=CARTESIAN_POINT('',(0.,0.,-2.4));
#489=CARTESIAN_POINT('',(-1.1,0.,-2.4));
#490=CARTESIAN_POINT('',(0.,0.,-2.4));
#491=CARTESIAN_POINT('',(2.55000000000001,2.54999999999999,0.));
#492=CARTESIAN_POINT('',(-2.05918640827616,2.55000000000001,0.));
#493=CARTESIAN_POINT('',(2.05918640827618,2.54999999999999,0.));
#494=CARTESIAN_POINT('',(-2.04064165252239,2.0406416525224,0.));
#495=CARTESIAN_POINT('',(-2.55,2.05918640827617,0.));
#496=CARTESIAN_POINT('',(-2.55,2.55,0.));
#497=CARTESIAN_POINT('',(-2.55,-2.05918640827616,0.));
#498=CARTESIAN_POINT('',(-2.0406416525224,-2.04064165252238,0.));
#499=CARTESIAN_POINT('',(-2.05918640827617,-2.54999999999999,0.));
#500=CARTESIAN_POINT('',(2.54999999999999,-2.55000000000001,0.));
#501=CARTESIAN_POINT('',(2.05918640827616,-2.55000000000001,0.));
#502=CARTESIAN_POINT('',(2.04064165252239,-2.0406416525224,0.));
#503=CARTESIAN_POINT('',(2.54999999999999,-2.05918640827618,0.));
#504=CARTESIAN_POINT('',(2.55000000000001,2.54999999999999,0.));
#505=CARTESIAN_POINT('',(2.55000000000001,2.05918640827616,0.));
#506=CARTESIAN_POINT('',(2.0406416525224,2.04064165252239,0.));
#507=CARTESIAN_POINT('',(0.,0.,0.));
#508=CARTESIAN_POINT('',(-1.54927694405495,0.,0.));
#509=CARTESIAN_POINT('',(0.,0.,0.));
#510=CARTESIAN_POINT('',(2.56724183495691,2.07642824323306,0.0887015512702243));
#511=CARTESIAN_POINT('',(2.38808347470987,-1.89726988298605,-0.832988310433291));
#512=CARTESIAN_POINT('',(2.55000000000001,2.54999999999999,0.));
#513=CARTESIAN_POINT('',(-1.89726988298604,-2.38808347470986,-0.832988310433287));
#514=CARTESIAN_POINT('',(2.07642824323306,-2.56724183495691,0.0887015512702236));
#515=CARTESIAN_POINT('',(2.54999999999999,-2.55000000000001,0.));
#516=CARTESIAN_POINT('',(-2.5672418349569,2.07642824323308,0.0887015512702234));
#517=CARTESIAN_POINT('',(-2.38808347470987,-1.89726988298603,-0.832988310433288));
#518=CARTESIAN_POINT('',(-2.55,2.55,0.));
#519=CARTESIAN_POINT('',(-1.89726988298604,2.38808347470988,-0.832988310433292));
#520=CARTESIAN_POINT('',(2.07642824323308,2.5672418349569,0.0887015512702243));
#521=CARTESIAN_POINT('',(2.55000000000001,2.54999999999999,0.));
#522=CARTESIAN_POINT('',(-1.89726988298604,1.89726988298604,-0.737583812745019));
#523=CARTESIAN_POINT('',(-1.89726988298604,-1.89726988298603,-0.737583812745015));
#524=CARTESIAN_POINT('',(2.07642824323307,2.07642824323306,0.184106048958497));
#525=CARTESIAN_POINT('',(2.07642824323306,-2.07642824323308,0.184106048958496));
#526=CARTESIAN_POINT('',(0.,0.,-0.207838504166493));
#527=CARTESIAN_POINT('',(1.45236025790263,0.,-0.207838504166493));
#528=CARTESIAN_POINT('',(0.,0.,-0.207838504166493));
#529=CARTESIAN_POINT('',(0.,0.,-0.34));
#530=CARTESIAN_POINT('',(1.41818097110531,0.,-0.34));
#531=CARTESIAN_POINT('',(0.,0.,-0.494764031217771));
#532=CARTESIAN_POINT('',(1.40735881579873,0.,-0.494764031217771));
#533=CARTESIAN_POINT('',(0.,0.,-0.494764031217771));
#534=CARTESIAN_POINT('',(0.,0.,-0.66775380150063));
#535=CARTESIAN_POINT('',(1.33699200055445,0.,-0.66775380150063));
#536=CARTESIAN_POINT('',(0.,0.,-0.473837089094533));
#537=CARTESIAN_POINT('',(0.,0.,-1.31414284285429));
#538=CARTESIAN_POINT('',(1.1,0.,-1.31414284285429));
#539=CARTESIAN_POINT('',(0.,0.,-0.970890890041747));
#540=CARTESIAN_POINT('',(0.,0.,-0.366126716543713));
#541=CARTESIAN_POINT('',(0.,0.,-1.31414284285429));
#542=MECHANICAL_DESIGN_GEOMETRIC_PRESENTATION_REPRESENTATION('',(#287,#288,
#289,#290,#291,#292),#543);
#543=(
GEOMETRIC_REPRESENTATION_CONTEXT(3)
GLOBAL_UNCERTAINTY_ASSIGNED_CONTEXT((#544))
GLOBAL_UNIT_ASSIGNED_CONTEXT((#550,#546,#545))
REPRESENTATION_CONTEXT('aaa336590_b','TOP_LEVEL_ASSEMBLY_PART')
);
#544=UNCERTAINTY_MEASURE_WITH_UNIT(LENGTH_MEASURE(2.E-5),#550,
'DISTANCE_ACCURACY_VALUE','Maximum Tolerance applied to model');
#545=(
NAMED_UNIT(*)
SI_UNIT($,.STERADIAN.)
SOLID_ANGLE_UNIT()
);
#546=(
CONVERSION_BASED_UNIT('DEGREE',#548)
NAMED_UNIT(#547)
PLANE_ANGLE_UNIT()
);
#547=DIMENSIONAL_EXPONENTS(0.,0.,0.,0.,0.,0.,0.);
#548=PLANE_ANGLE_MEASURE_WITH_UNIT(PLANE_ANGLE_MEASURE(0.0174532925),#549);
#549=(
NAMED_UNIT(*)
PLANE_ANGLE_UNIT()
SI_UNIT($,.RADIAN.)
);
#550=(
LENGTH_UNIT()
NAMED_UNIT(*)
SI_UNIT(.MILLI.,.METRE.)
);
ENDSEC;
END-ISO-10303-21;
