ISO-10303-21;
HEADER;
/* Generated by software containing ST-Developer
 * from STEP Tools, Inc. (www.steptools.com) 
 */
/* OPTION: using custom schema-name function */

FILE_DESCRIPTION(
/* description */ (''),
/* implementation_level */ '2;1');

FILE_NAME(
/* name */ 'aaa336607_b.stp',
/* time_stamp */ '2020-06-24T12:58:11+02:00',
/* author */ (''),
/* organization */ ('SMS'),
/* preprocessor_version */ 'ST-DEVELOPER v16.7',
/* originating_system */ 'SIEMENS PLM Software NX 12.0',
/* authorisation */ '');

FILE_SCHEMA (('AUTOMOTIVE_DESIGN { 1 0 10303 214 3 1 1 1 }'));
ENDSEC;

DATA;
#10=CONSTRUCTIVE_GEOMETRY_REPRESENTATION_RELATIONSHIP(
'supplemental geometry','',#26,#11);
#11=CONSTRUCTIVE_GEOMETRY_REPRESENTATION('supplemental geometry',(#284,
#285),#503);
#12=GEOMETRICALLY_BOUNDED_WIREFRAME_SHAPE_REPRESENTATION(
'AAA336607_B-None',(#27),#503);
#13=SHAPE_REPRESENTATION_RELATIONSHIP('None',
'relationship between AAA336607_B-None and AAA336607_B-None',#26,#15);
#14=SHAPE_REPRESENTATION_RELATIONSHIP('None',
'relationship between AAA336607_B-None and AAA336607_B-None',#26,#12);
#15=ADVANCED_BREP_SHAPE_REPRESENTATION('AAA336607_B-None',(#33),#503);
#16=SHAPE_DEFINITION_REPRESENTATION(#17,#26);
#17=PRODUCT_DEFINITION_SHAPE('','',#18);
#18=PRODUCT_DEFINITION(' ','',#20,#19);
#19=PRODUCT_DEFINITION_CONTEXT('part definition',#25,'design');
#20=PRODUCT_DEFINITION_FORMATION_WITH_SPECIFIED_SOURCE(' ',' ',#22,
 .NOT_KNOWN.);
#21=PRODUCT_RELATED_PRODUCT_CATEGORY('part','',(#22));
#22=PRODUCT('AAA336607_B','AAA336607_B',' ',(#23));
#23=PRODUCT_CONTEXT(' ',#25,'mechanical');
#24=APPLICATION_PROTOCOL_DEFINITION('international standard',
'automotive_design',2010,#25);
#25=APPLICATION_CONTEXT(
'core data for automotive mechanical design processes');
#26=SHAPE_REPRESENTATION('AAA336607_B-None',(#283),#503);
#27=GEOMETRIC_CURVE_SET('None',(#390,#391,#263));
#28=SURFACE_STYLE_USAGE(.BOTH.,#29);
#29=SURFACE_SIDE_STYLE('',(#30));
#30=SURFACE_STYLE_FILL_AREA(#31);
#31=FILL_AREA_STYLE('',(#32));
#32=FILL_AREA_STYLE_COLOUR('',#282);
#33=MANIFOLD_SOLID_BREP('CUT',#34);
#34=CLOSED_SHELL('',(#51,#52,#53,#54,#55,#56,#57,#58,#59,#60,#61,#62,#63,
#64));
#35=TOROIDAL_SURFACE('',#311,2.58729037704159,0.5);
#36=TOROIDAL_SURFACE('',#312,5.35,3.);
#37=CONICAL_SURFACE('',#307,3.0860724021715,4.00000000000006);
#38=CYLINDRICAL_SURFACE('',#302,0.5);
#39=CYLINDRICAL_SURFACE('',#303,0.5);
#40=CYLINDRICAL_SURFACE('',#304,0.5);
#41=CYLINDRICAL_SURFACE('',#305,0.5);
#42=CYLINDRICAL_SURFACE('',#309,2.35);
#43=FACE_OUTER_BOUND('',#92,.T.);
#44=FACE_OUTER_BOUND('',#93,.T.);
#45=FACE_OUTER_BOUND('',#94,.T.);
#46=FACE_OUTER_BOUND('',#95,.T.);
#47=FACE_OUTER_BOUND('',#96,.T.);
#48=FACE_OUTER_BOUND('',#97,.T.);
#49=FACE_OUTER_BOUND('',#98,.T.);
#50=FACE_OUTER_BOUND('',#99,.T.);
#51=ADVANCED_FACE('',(#76,#77),#65,.T.);
#52=ADVANCED_FACE('',(#78,#79),#66,.F.);
#53=ADVANCED_FACE('',(#43),#67,.T.);
#54=ADVANCED_FACE('',(#44),#68,.T.);
#55=ADVANCED_FACE('',(#45),#69,.T.);
#56=ADVANCED_FACE('',(#46),#70,.T.);
#57=ADVANCED_FACE('',(#47),#38,.T.);
#58=ADVANCED_FACE('',(#48),#39,.T.);
#59=ADVANCED_FACE('',(#49),#40,.T.);
#60=ADVANCED_FACE('',(#50),#41,.T.);
#61=ADVANCED_FACE('',(#80,#81),#37,.F.);
#62=ADVANCED_FACE('',(#82,#83),#42,.F.);
#63=ADVANCED_FACE('',(#84,#85),#35,.F.);
#64=ADVANCED_FACE('',(#86,#87),#36,.T.);
#65=PLANE('',#291);
#66=PLANE('',#297);
#67=PLANE('',#298);
#68=PLANE('',#299);
#69=PLANE('',#300);
#70=PLANE('',#301);
#71=CIRCLE('',#290,2.35);
#72=CIRCLE('',#296,3.14492681194351);
#73=CIRCLE('',#306,3.0860724021715);
#74=CIRCLE('',#308,2.35);
#75=CIRCLE('',#310,2.98196318032136);
#76=FACE_BOUND('',#88,.T.);
#77=FACE_BOUND('',#89,.T.);
#78=FACE_BOUND('',#90,.T.);
#79=FACE_BOUND('',#91,.T.);
#80=FACE_BOUND('',#100,.T.);
#81=FACE_BOUND('',#101,.T.);
#82=FACE_BOUND('',#102,.T.);
#83=FACE_BOUND('',#103,.T.);
#84=FACE_BOUND('',#104,.T.);
#85=FACE_BOUND('',#105,.T.);
#86=FACE_BOUND('',#106,.T.);
#87=FACE_BOUND('',#107,.T.);
#88=EDGE_LOOP('',(#116,#117,#118,#119,#120,#121,#122,#123));
#89=EDGE_LOOP('',(#124));
#90=EDGE_LOOP('',(#125,#126,#127,#128,#129,#130,#131,#132));
#91=EDGE_LOOP('',(#133));
#92=EDGE_LOOP('',(#134,#135,#136,#137));
#93=EDGE_LOOP('',(#138,#139,#140,#141));
#94=EDGE_LOOP('',(#142,#143,#144,#145));
#95=EDGE_LOOP('',(#146,#147,#148,#149));
#96=EDGE_LOOP('',(#150,#151,#152,#153));
#97=EDGE_LOOP('',(#154,#155,#156,#157));
#98=EDGE_LOOP('',(#158,#159,#160,#161));
#99=EDGE_LOOP('',(#162,#163,#164,#165));
#100=EDGE_LOOP('',(#166));
#101=EDGE_LOOP('',(#167));
#102=EDGE_LOOP('',(#168));
#103=EDGE_LOOP('',(#169));
#104=EDGE_LOOP('',(#170));
#105=EDGE_LOOP('',(#171));
#106=EDGE_LOOP('',(#172));
#107=EDGE_LOOP('',(#173));
#108=ELLIPSE('',#286,0.518547830282065,0.5);
#109=ELLIPSE('',#287,0.518547830282065,0.5);
#110=ELLIPSE('',#288,0.518547830282065,0.5);
#111=ELLIPSE('',#289,0.518547830282065,0.5);
#112=ELLIPSE('',#292,0.518547830282065,0.5);
#113=ELLIPSE('',#293,0.518547830282065,0.5);
#114=ELLIPSE('',#294,0.518547830282065,0.5);
#115=ELLIPSE('',#295,0.518547830282065,0.5);
#116=ORIENTED_EDGE('',*,*,#195,.T.);
#117=ORIENTED_EDGE('',*,*,#196,.T.);
#118=ORIENTED_EDGE('',*,*,#197,.T.);
#119=ORIENTED_EDGE('',*,*,#198,.T.);
#120=ORIENTED_EDGE('',*,*,#199,.T.);
#121=ORIENTED_EDGE('',*,*,#200,.T.);
#122=ORIENTED_EDGE('',*,*,#201,.T.);
#123=ORIENTED_EDGE('',*,*,#202,.T.);
#124=ORIENTED_EDGE('',*,*,#203,.T.);
#125=ORIENTED_EDGE('',*,*,#204,.F.);
#126=ORIENTED_EDGE('',*,*,#205,.T.);
#127=ORIENTED_EDGE('',*,*,#206,.F.);
#128=ORIENTED_EDGE('',*,*,#207,.T.);
#129=ORIENTED_EDGE('',*,*,#208,.F.);
#130=ORIENTED_EDGE('',*,*,#209,.T.);
#131=ORIENTED_EDGE('',*,*,#210,.F.);
#132=ORIENTED_EDGE('',*,*,#211,.T.);
#133=ORIENTED_EDGE('',*,*,#212,.F.);
#134=ORIENTED_EDGE('',*,*,#199,.F.);
#135=ORIENTED_EDGE('',*,*,#213,.T.);
#136=ORIENTED_EDGE('',*,*,#210,.T.);
#137=ORIENTED_EDGE('',*,*,#214,.T.);
#138=ORIENTED_EDGE('',*,*,#208,.T.);
#139=ORIENTED_EDGE('',*,*,#215,.T.);
#140=ORIENTED_EDGE('',*,*,#201,.F.);
#141=ORIENTED_EDGE('',*,*,#216,.T.);
#142=ORIENTED_EDGE('',*,*,#206,.T.);
#143=ORIENTED_EDGE('',*,*,#217,.T.);
#144=ORIENTED_EDGE('',*,*,#195,.F.);
#145=ORIENTED_EDGE('',*,*,#218,.T.);
#146=ORIENTED_EDGE('',*,*,#197,.F.);
#147=ORIENTED_EDGE('',*,*,#219,.T.);
#148=ORIENTED_EDGE('',*,*,#204,.T.);
#149=ORIENTED_EDGE('',*,*,#220,.T.);
#150=ORIENTED_EDGE('',*,*,#196,.F.);
#151=ORIENTED_EDGE('',*,*,#217,.F.);
#152=ORIENTED_EDGE('',*,*,#205,.F.);
#153=ORIENTED_EDGE('',*,*,#219,.F.);
#154=ORIENTED_EDGE('',*,*,#202,.F.);
#155=ORIENTED_EDGE('',*,*,#215,.F.);
#156=ORIENTED_EDGE('',*,*,#207,.F.);
#157=ORIENTED_EDGE('',*,*,#218,.F.);
#158=ORIENTED_EDGE('',*,*,#198,.F.);
#159=ORIENTED_EDGE('',*,*,#220,.F.);
#160=ORIENTED_EDGE('',*,*,#211,.F.);
#161=ORIENTED_EDGE('',*,*,#213,.F.);
#162=ORIENTED_EDGE('',*,*,#200,.F.);
#163=ORIENTED_EDGE('',*,*,#214,.F.);
#164=ORIENTED_EDGE('',*,*,#209,.F.);
#165=ORIENTED_EDGE('',*,*,#216,.F.);
#166=ORIENTED_EDGE('',*,*,#221,.T.);
#167=ORIENTED_EDGE('',*,*,#212,.T.);
#168=ORIENTED_EDGE('',*,*,#203,.F.);
#169=ORIENTED_EDGE('',*,*,#222,.F.);
#170=ORIENTED_EDGE('',*,*,#221,.F.);
#171=ORIENTED_EDGE('',*,*,#223,.T.);
#172=ORIENTED_EDGE('',*,*,#222,.T.);
#173=ORIENTED_EDGE('',*,*,#223,.F.);
#174=VERTEX_POINT('',#439);
#175=VERTEX_POINT('',#440);
#176=VERTEX_POINT('',#442);
#177=VERTEX_POINT('',#444);
#178=VERTEX_POINT('',#446);
#179=VERTEX_POINT('',#448);
#180=VERTEX_POINT('',#450);
#181=VERTEX_POINT('',#452);
#182=VERTEX_POINT('',#455);
#183=VERTEX_POINT('',#458);
#184=VERTEX_POINT('',#459);
#185=VERTEX_POINT('',#461);
#186=VERTEX_POINT('',#463);
#187=VERTEX_POINT('',#465);
#188=VERTEX_POINT('',#467);
#189=VERTEX_POINT('',#469);
#190=VERTEX_POINT('',#471);
#191=VERTEX_POINT('',#474);
#192=VERTEX_POINT('',#493);
#193=VERTEX_POINT('',#496);
#194=VERTEX_POINT('',#499);
#195=EDGE_CURVE('',#174,#175,#224,.T.);
#196=EDGE_CURVE('',#175,#176,#108,.T.);
#197=EDGE_CURVE('',#176,#177,#225,.T.);
#198=EDGE_CURVE('',#177,#178,#109,.T.);
#199=EDGE_CURVE('',#178,#179,#226,.T.);
#200=EDGE_CURVE('',#179,#180,#110,.T.);
#201=EDGE_CURVE('',#180,#181,#227,.T.);
#202=EDGE_CURVE('',#181,#174,#111,.T.);
#203=EDGE_CURVE('',#182,#182,#71,.T.);
#204=EDGE_CURVE('',#183,#184,#228,.T.);
#205=EDGE_CURVE('',#183,#185,#112,.T.);
#206=EDGE_CURVE('',#186,#185,#229,.T.);
#207=EDGE_CURVE('',#186,#187,#113,.T.);
#208=EDGE_CURVE('',#188,#187,#230,.T.);
#209=EDGE_CURVE('',#188,#189,#114,.T.);
#210=EDGE_CURVE('',#190,#189,#231,.T.);
#211=EDGE_CURVE('',#190,#184,#115,.T.);
#212=EDGE_CURVE('',#191,#191,#72,.T.);
#213=EDGE_CURVE('',#178,#190,#232,.T.);
#214=EDGE_CURVE('',#189,#179,#233,.T.);
#215=EDGE_CURVE('',#187,#181,#234,.T.);
#216=EDGE_CURVE('',#180,#188,#235,.T.);
#217=EDGE_CURVE('',#185,#175,#236,.T.);
#218=EDGE_CURVE('',#174,#186,#237,.T.);
#219=EDGE_CURVE('',#176,#183,#238,.T.);
#220=EDGE_CURVE('',#184,#177,#239,.T.);
#221=EDGE_CURVE('',#192,#192,#73,.T.);
#222=EDGE_CURVE('',#193,#193,#74,.T.);
#223=EDGE_CURVE('',#194,#194,#75,.T.);
#224=LINE('',#438,#240);
#225=LINE('',#443,#241);
#226=LINE('',#447,#242);
#227=LINE('',#451,#243);
#228=LINE('',#457,#244);
#229=LINE('',#462,#245);
#230=LINE('',#466,#246);
#231=LINE('',#470,#247);
#232=LINE('',#476,#248);
#233=LINE('',#477,#249);
#234=LINE('',#479,#250);
#235=LINE('',#480,#251);
#236=LINE('',#482,#252);
#237=LINE('',#483,#253);
#238=LINE('',#485,#254);
#239=LINE('',#486,#255);
#240=VECTOR('',#319,1.);
#241=VECTOR('',#322,1.);
#242=VECTOR('',#325,1.);
#243=VECTOR('',#328,1.);
#244=VECTOR('',#335,1.);
#245=VECTOR('',#338,1.);
#246=VECTOR('',#341,1.);
#247=VECTOR('',#344,1.);
#248=VECTOR('',#351,1.);
#249=VECTOR('',#352,1.);
#250=VECTOR('',#355,1.);
#251=VECTOR('',#356,1.);
#252=VECTOR('',#359,1.);
#253=VECTOR('',#360,1.);
#254=VECTOR('',#363,1.);
#255=VECTOR('',#364,1.);
#256=CURVE_STYLE('',#260,POSITIVE_LENGTH_MEASURE(0.25),#259);
#257=CURVE_STYLE('',#261,POSITIVE_LENGTH_MEASURE(0.18),#281);
#258=CURVE_STYLE('',#262,POSITIVE_LENGTH_MEASURE(0.18),#281);
#259=DRAUGHTING_PRE_DEFINED_COLOUR('blue');
#260=DRAUGHTING_PRE_DEFINED_CURVE_FONT('continuous');
#261=DRAUGHTING_PRE_DEFINED_CURVE_FONT('continuous');
#262=DRAUGHTING_PRE_DEFINED_CURVE_FONT('continuous');
#263=B_SPLINE_CURVE_WITH_KNOTS('CUTTING EDGE LINE',3,(#392,#393,#394,#395,
#396,#397,#398,#399,#400,#401,#402,#403,#404,#405,#406,#407,#408,#409,#410,
#411,#412,#413,#414,#415,#416,#417,#418,#419,#420,#421,#422,#423,#424,#425,
#426,#427,#428,#429,#430,#431,#432,#433,#434,#435),.UNSPECIFIED.,.T.,.F.,
(1,1,2,1,1,1,1,1,1,1,1,1,1,1,1,1,1,1,1,1,1,1,1,1,1,1,1,1,1,1,1,1,1,1,1,
1,1,1,1,1,1,1,1,2,1,1),(-0.00633354640000006,-0.00316677320000003,0.,0.1186664536,
0.236591241865,0.2373329072,0.2389162938,0.2404996804,0.2436664536,0.2468332268,
0.2484166134,0.25,0.250741665335,0.3093332268,0.3686664536,0.486591241865,
0.4873329072,0.4889162938,0.4904996804,0.4936664536,0.4968332268,0.4984166134,
0.5,0.500741665335,0.5593332268,0.6186664536,0.736591241865,0.7373329072,
0.7389162938,0.7404996804,0.7436664536,0.7468332268,0.7484166134,0.75,0.750741665335,
0.8093332268,0.8686664536,0.986591241865,0.9873329072,0.9889162938,0.9904996804,
0.9936664536,0.9968332268,1.,1.1186664536,1.236591241865),.UNSPECIFIED.);
#264=PRESENTATION_LAYER_ASSIGNMENT('1','Layer 1',(#390,#391,#263,#284,#285,
#33));
#265=STYLED_ITEM('',(#271),#390);
#266=STYLED_ITEM('',(#272),#391);
#267=STYLED_ITEM('',(#273),#263);
#268=STYLED_ITEM('',(#274),#284);
#269=STYLED_ITEM('',(#275),#285);
#270=STYLED_ITEM('',(#276),#33);
#271=PRESENTATION_STYLE_ASSIGNMENT((#277));
#272=PRESENTATION_STYLE_ASSIGNMENT((#278));
#273=PRESENTATION_STYLE_ASSIGNMENT((#256));
#274=PRESENTATION_STYLE_ASSIGNMENT((#257));
#275=PRESENTATION_STYLE_ASSIGNMENT((#258));
#276=PRESENTATION_STYLE_ASSIGNMENT((#28));
#277=POINT_STYLE('',#279,POSITIVE_LENGTH_MEASURE(3.),#281);
#278=POINT_STYLE('',#280,POSITIVE_LENGTH_MEASURE(3.),#281);
#279=PRE_DEFINED_POINT_MARKER_SYMBOL('plus');
#280=PRE_DEFINED_POINT_MARKER_SYMBOL('plus');
#281=COLOUR_RGB('Medium Maroon',0.6,0.4,0.4);
#282=COLOUR_RGB('Light Gray',0.8,0.8,0.8);
#283=AXIS2_PLACEMENT_3D('',#389,#313,#314);
#284=AXIS2_PLACEMENT_3D('MCS',#436,#315,#316);
#285=AXIS2_PLACEMENT_3D('PCS',#437,#317,#318);
#286=AXIS2_PLACEMENT_3D('',#441,#320,#321);
#287=AXIS2_PLACEMENT_3D('',#445,#323,#324);
#288=AXIS2_PLACEMENT_3D('',#449,#326,#327);
#289=AXIS2_PLACEMENT_3D('',#453,#329,#330);
#290=AXIS2_PLACEMENT_3D('',#454,#331,#332);
#291=AXIS2_PLACEMENT_3D('',#456,#333,#334);
#292=AXIS2_PLACEMENT_3D('',#460,#336,#337);
#293=AXIS2_PLACEMENT_3D('',#464,#339,#340);
#294=AXIS2_PLACEMENT_3D('',#468,#342,#343);
#295=AXIS2_PLACEMENT_3D('',#472,#345,#346);
#296=AXIS2_PLACEMENT_3D('',#473,#347,#348);
#297=AXIS2_PLACEMENT_3D('',#475,#349,#350);
#298=AXIS2_PLACEMENT_3D('',#478,#353,#354);
#299=AXIS2_PLACEMENT_3D('',#481,#357,#358);
#300=AXIS2_PLACEMENT_3D('',#484,#361,#362);
#301=AXIS2_PLACEMENT_3D('',#487,#365,#366);
#302=AXIS2_PLACEMENT_3D('',#488,#367,#368);
#303=AXIS2_PLACEMENT_3D('',#489,#369,#370);
#304=AXIS2_PLACEMENT_3D('',#490,#371,#372);
#305=AXIS2_PLACEMENT_3D('',#491,#373,#374);
#306=AXIS2_PLACEMENT_3D('',#492,#375,#376);
#307=AXIS2_PLACEMENT_3D('',#494,#377,#378);
#308=AXIS2_PLACEMENT_3D('',#495,#379,#380);
#309=AXIS2_PLACEMENT_3D('',#497,#381,#382);
#310=AXIS2_PLACEMENT_3D('',#498,#383,#384);
#311=AXIS2_PLACEMENT_3D('',#500,#385,#386);
#312=AXIS2_PLACEMENT_3D('',#501,#387,#388);
#313=DIRECTION('',(0.,0.,1.));
#314=DIRECTION('',(1.,0.,0.));
#315=DIRECTION('',(0.,0.,1.));
#316=DIRECTION('',(1.,0.,0.));
#317=DIRECTION('',(0.,0.,1.));
#318=DIRECTION('',(1.,0.,0.));
#319=DIRECTION('',(1.74033746780845E-15,1.,0.));
#320=DIRECTION('',(0.,0.,-1.));
#321=DIRECTION('',(-0.707106781186546,0.707106781186549,0.));
#322=DIRECTION('',(1.,-2.58243624255447E-15,0.));
#323=DIRECTION('',(0.,0.,-1.));
#324=DIRECTION('',(0.707106781186549,0.707106781186546,0.));
#325=DIRECTION('',(-2.75085599750367E-15,-1.,0.));
#326=DIRECTION('',(0.,0.,-1.));
#327=DIRECTION('',(0.707106781186545,-0.70710678118655,0.));
#328=DIRECTION('',(-1.,3.7052346088825E-15,0.));
#329=DIRECTION('',(0.,0.,-1.));
#330=DIRECTION('',(-0.70710678118655,-0.707106781186546,0.));
#331=DIRECTION('',(0.,0.,1.));
#332=DIRECTION('',(-1.,0.,0.));
#333=DIRECTION('',(0.,0.,-1.));
#334=DIRECTION('',(-1.,0.,0.));
#335=DIRECTION('',(1.,-2.58243624255447E-15,0.));
#336=DIRECTION('',(0.,0.,1.));
#337=DIRECTION('',(-0.707106781186546,0.707106781186549,0.));
#338=DIRECTION('',(1.74033746780845E-15,1.,0.));
#339=DIRECTION('',(0.,0.,1.));
#340=DIRECTION('',(-0.70710678118655,-0.707106781186546,0.));
#341=DIRECTION('',(-1.,3.7052346088825E-15,0.));
#342=DIRECTION('',(0.,0.,1.));
#343=DIRECTION('',(0.707106781186545,-0.70710678118655,0.));
#344=DIRECTION('',(-2.75085599750367E-15,-1.,0.));
#345=DIRECTION('',(0.,0.,1.));
#346=DIRECTION('',(0.707106781186549,0.707106781186546,0.));
#347=DIRECTION('',(0.,0.,1.));
#348=DIRECTION('',(-1.,0.,0.));
#349=DIRECTION('',(0.,0.,-1.));
#350=DIRECTION('',(-1.,0.,0.));
#351=DIRECTION('',(0.187427559991896,0.187427559991895,0.964231206459824));
#352=DIRECTION('',(-0.187427559991895,0.187427559991897,-0.964231206459825));
#353=DIRECTION('',(0.981627183447664,-2.70031502489965E-15,-0.190808995376545));
#354=DIRECTION('',(-0.190808995376545,0.,-0.981627183447664));
#355=DIRECTION('',(0.187427559991896,0.187427559991895,-0.964231206459825));
#356=DIRECTION('',(0.187427559991895,-0.187427559991897,0.964231206459825));
#357=DIRECTION('',(-3.63715901313014E-15,-0.981627183447664,-0.190808995376545));
#358=DIRECTION('',(0.,0.190808995376545,-0.981627183447664));
#359=DIRECTION('',(0.187427559991895,-0.187427559991896,-0.964231206459825));
#360=DIRECTION('',(-0.187427559991896,-0.187427559991895,0.964231206459825));
#361=DIRECTION('',(-0.981627183447664,1.70836256677325E-15,-0.190808995376545));
#362=DIRECTION('',(-0.190808995376545,0.,0.981627183447664));
#363=DIRECTION('',(-0.187427559991895,0.187427559991896,0.964231206459824));
#364=DIRECTION('',(-0.187427559991896,-0.187427559991895,-0.964231206459825));
#365=DIRECTION('',(2.53498961521191E-15,0.981627183447664,-0.190808995376545));
#366=DIRECTION('',(0.,0.190808995376545,0.981627183447664));
#367=DIRECTION('',(-0.187427559991895,0.187427559991896,0.964231206459825));
#368=DIRECTION('',(0.,-0.981627183447664,0.190808995376545));
#369=DIRECTION('',(-0.187427559991896,-0.187427559991895,0.964231206459825));
#370=DIRECTION('',(0.981627183447664,0.,0.190808995376545));
#371=DIRECTION('',(0.187427559991896,0.187427559991895,0.964231206459825));
#372=DIRECTION('',(0.981627183447664,0.,-0.190808995376545));
#373=DIRECTION('',(0.187427559991895,-0.187427559991897,0.964231206459825));
#374=DIRECTION('',(0.,-0.981627183447664,-0.190808995376545));
#375=DIRECTION('',(0.,0.,-1.));
#376=DIRECTION('',(1.,0.,0.));
#377=DIRECTION('',(0.,0.,1.));
#378=DIRECTION('',(1.,0.,5.28640906141194E-16));
#379=DIRECTION('',(0.,0.,-1.));
#380=DIRECTION('',(1.,0.,0.));
#381=DIRECTION('',(0.,0.,1.));
#382=DIRECTION('',(1.,0.,0.));
#383=DIRECTION('',(0.,0.,-1.));
#384=DIRECTION('',(1.,0.,0.));
#385=DIRECTION('',(0.,0.,1.));
#386=DIRECTION('',(1.,0.,0.));
#387=DIRECTION('',(0.,0.,1.));
#388=DIRECTION('',(1.,0.,0.));
#389=CARTESIAN_POINT('',(0.,0.,0.));
#390=CARTESIAN_POINT('',(0.,0.,0.));
#391=CARTESIAN_POINT('',(-7.72500000000001,-7.72499999999997,0.));
#392=CARTESIAN_POINT('',(-7.29853772545975,-7.72499999999997,0.));
#393=CARTESIAN_POINT('',(-4.82279093885079,-7.72499999999998,0.));
#394=CARTESIAN_POINT('',(-0.0150712216839273,-7.725,0.));
#395=CARTESIAN_POINT('',(4.80771971716685,-7.72500000000002,0.));
#396=CARTESIAN_POINT('',(7.25128835007944,-7.72572461547925,0.));
#397=CARTESIAN_POINT('',(7.33073469006312,-7.71881205303364,0.));
#398=CARTESIAN_POINT('',(7.45469999665531,-7.68213552019279,0.));
#399=CARTESIAN_POINT('',(7.59157206056527,-7.59157206048442,0.));
#400=CARTESIAN_POINT('',(7.68213552019309,-7.45469999665389,0.));
#401=CARTESIAN_POINT('',(7.71881205302965,-7.33073469006677,0.));
#402=CARTESIAN_POINT('',(7.72572461547966,-7.25128835007907,0.));
#403=CARTESIAN_POINT('',(7.72499999999998,-6.01341745187959,0.));
#404=CARTESIAN_POINT('',(7.72499999999999,-3.6020219824542,0.));
#405=CARTESIAN_POINT('',(7.725,1.19062651302876,0.));
#406=CARTESIAN_POINT('',(7.72500000000001,4.80771971716685,0.));
#407=CARTESIAN_POINT('',(7.72572461547924,7.25128835007944,0.));
#408=CARTESIAN_POINT('',(7.71881205303363,7.33073469006312,0.));
#409=CARTESIAN_POINT('',(7.68213552019278,7.45469999665531,0.));
#410=CARTESIAN_POINT('',(7.59157206048441,7.59157206056528,0.));
#411=CARTESIAN_POINT('',(7.45469999665388,7.68213552019309,0.));
#412=CARTESIAN_POINT('',(7.33073469006676,7.71881205302965,0.));
#413=CARTESIAN_POINT('',(7.25128835007906,7.72572461547966,0.));
#414=CARTESIAN_POINT('',(6.01341745187958,7.72499999999999,0.));
#415=CARTESIAN_POINT('',(3.60202198245419,7.72499999999999,0.));
#416=CARTESIAN_POINT('',(-1.19062651302877,7.725,0.));
#417=CARTESIAN_POINT('',(-4.80771971716685,7.72500000000001,0.));
#418=CARTESIAN_POINT('',(-7.25128835007905,7.72572461547955,0.));
#419=CARTESIAN_POINT('',(-7.33073469006659,7.71881205303098,0.));
#420=CARTESIAN_POINT('',(-7.45469999665973,7.68213552019108,0.));
#421=CARTESIAN_POINT('',(-7.59157206052249,7.5915720605272,0.));
#422=CARTESIAN_POINT('',(-7.68213552019479,7.45469999664946,0.));
#423=CARTESIAN_POINT('',(-7.7188120530323,7.3307346900633,0.));
#424=CARTESIAN_POINT('',(-7.72572461547936,7.25128835007947,0.));
#425=CARTESIAN_POINT('',(-7.72499999999999,6.01341745187958,0.));
#426=CARTESIAN_POINT('',(-7.72499999999999,3.6020219824542,0.));
#427=CARTESIAN_POINT('',(-7.725,-1.19062651302876,0.));
#428=CARTESIAN_POINT('',(-7.72500000000001,-4.80771971716684,0.));
#429=CARTESIAN_POINT('',(-7.72572461547923,-7.25128835007944,0.));
#430=CARTESIAN_POINT('',(-7.71881205303362,-7.33073469006311,0.));
#431=CARTESIAN_POINT('',(-7.68213552019277,-7.4546999966553,0.));
#432=CARTESIAN_POINT('',(-7.59157206048441,-7.59157206056527,0.));
#433=CARTESIAN_POINT('',(-7.42732558388777,-7.70024821211864,0.));
#434=CARTESIAN_POINT('',(-7.29853772545975,-7.72499999999997,0.));
#435=CARTESIAN_POINT('',(-4.82279093885079,-7.72499999999998,0.));
#436=CARTESIAN_POINT('',(0.,0.,0.));
#437=CARTESIAN_POINT('',(-7.72500000000001,-7.72499999999997,0.));
#438=CARTESIAN_POINT('',(-6.85028860888025,7.725,-4.5));
#439=CARTESIAN_POINT('',(-6.85028860888028,-6.35947501715641,-4.5));
#440=CARTESIAN_POINT('',(-6.85028860888026,6.35947501715645,-4.5));
#441=CARTESIAN_POINT('',(-6.34093026140265,6.34093026140268,-4.5));
#442=CARTESIAN_POINT('',(-6.35947501715642,6.85028860888028,-4.5));
#443=CARTESIAN_POINT('',(7.72500000000002,6.85028860888025,-4.5));
#444=CARTESIAN_POINT('',(6.35947501715645,6.85028860888025,-4.5));
#445=CARTESIAN_POINT('',(6.34093026140268,6.34093026140264,-4.5));
#446=CARTESIAN_POINT('',(6.85028860888028,6.35947501715642,-4.5));
#447=CARTESIAN_POINT('',(6.85028860888029,7.72499999999998,-4.5));
#448=CARTESIAN_POINT('',(6.85028860888025,-6.35947501715646,-4.5));
#449=CARTESIAN_POINT('',(6.34093026140264,-6.34093026140268,-4.5));
#450=CARTESIAN_POINT('',(6.35947501715642,-6.85028860888029,-4.5));
#451=CARTESIAN_POINT('',(7.72499999999997,-6.8502886088803,-4.5));
#452=CARTESIAN_POINT('',(-6.35947501715645,-6.85028860888024,-4.5));
#453=CARTESIAN_POINT('',(-6.34093026140267,-6.34093026140264,-4.5));
#454=CARTESIAN_POINT('',(0.,0.,-4.5));
#455=CARTESIAN_POINT('',(-2.35,0.,-4.5));
#456=CARTESIAN_POINT('',(0.,0.,-4.5));
#457=CARTESIAN_POINT('',(7.72500000000002,7.72499999999998,0.));
#458=CARTESIAN_POINT('',(-7.23418640827615,7.72500000000002,0.));
#459=CARTESIAN_POINT('',(7.23418640827619,7.72499999999998,0.));
#460=CARTESIAN_POINT('',(-7.21564165252238,7.21564165252241,0.));
#461=CARTESIAN_POINT('',(-7.72499999999999,7.23418640827619,0.));
#462=CARTESIAN_POINT('',(-7.72499999999999,7.72500000000001,0.));
#463=CARTESIAN_POINT('',(-7.72500000000001,-7.23418640827614,0.));
#464=CARTESIAN_POINT('',(-7.2156416525224,-7.21564165252237,0.));
#465=CARTESIAN_POINT('',(-7.23418640827618,-7.72499999999997,0.));
#466=CARTESIAN_POINT('',(7.72499999999996,-7.72500000000003,0.));
#467=CARTESIAN_POINT('',(7.23418640827615,-7.72500000000003,0.));
#468=CARTESIAN_POINT('',(7.21564165252237,-7.21564165252242,0.));
#469=CARTESIAN_POINT('',(7.72499999999998,-7.2341864082762,0.));
#470=CARTESIAN_POINT('',(7.72500000000002,7.72499999999998,0.));
#471=CARTESIAN_POINT('',(7.72500000000002,7.23418640827615,0.));
#472=CARTESIAN_POINT('',(7.21564165252241,7.21564165252237,0.));
#473=CARTESIAN_POINT('',(0.,0.,0.));
#474=CARTESIAN_POINT('',(-3.14492681194351,0.,0.));
#475=CARTESIAN_POINT('',(0.,0.,0.));
#476=CARTESIAN_POINT('',(7.74224183495692,7.25142824323305,0.0887015512702244));
#477=CARTESIAN_POINT('',(7.19949739067911,-6.70868379895533,-2.70347655918455));
#478=CARTESIAN_POINT('',(7.72500000000002,7.72499999999998,0.));
#479=CARTESIAN_POINT('',(-6.70868379895532,-7.19949739067911,-2.70347655918453));
#480=CARTESIAN_POINT('',(7.25142824323305,-7.74224183495693,0.0887015512702217));
#481=CARTESIAN_POINT('',(7.72499999999996,-7.72500000000003,0.));
#482=CARTESIAN_POINT('',(-7.74224183495689,7.25142824323309,0.0887015512702221));
#483=CARTESIAN_POINT('',(-7.19949739067915,-6.70868379895528,-2.70347655918453));
#484=CARTESIAN_POINT('',(-7.72499999999999,7.72500000000001,0.));
#485=CARTESIAN_POINT('',(-6.70868379895529,7.19949739067915,-2.70347655918454));
#486=CARTESIAN_POINT('',(7.25142824323309,7.74224183495688,0.0887015512702244));
#487=CARTESIAN_POINT('',(7.72500000000002,7.72499999999998,0.));
#488=CARTESIAN_POINT('',(-6.70868379895529,6.70868379895532,-2.60807206149627));
#489=CARTESIAN_POINT('',(-6.70868379895531,-6.70868379895528,-2.60807206149626));
#490=CARTESIAN_POINT('',(7.25142824323309,7.25142824323305,0.184106048958497));
#491=CARTESIAN_POINT('',(7.25142824323305,-7.2514282432331,0.184106048958494));
#492=CARTESIAN_POINT('',(0.,0.,-0.841657271885271));
#493=CARTESIAN_POINT('',(3.0860724021715,0.,-0.841657271885271));
#494=CARTESIAN_POINT('',(0.,0.,-0.841657271885271));
#495=CARTESIAN_POINT('',(0.,0.,-2.95560093066045));
#496=CARTESIAN_POINT('',(2.35,0.,-2.95560093066045));
#497=CARTESIAN_POINT('',(0.,0.,-2.275));
#498=CARTESIAN_POINT('',(0.,0.,-1.11375359153424));
#499=CARTESIAN_POINT('',(2.98196318032136,0.,-1.11375359153424));
#500=CARTESIAN_POINT('',(0.,0.,-0.806779035013208));
#501=CARTESIAN_POINT('',(0.,0.,-2.95560093066044));
#502=MECHANICAL_DESIGN_GEOMETRIC_PRESENTATION_REPRESENTATION('',(#265,#266,
#267,#268,#269,#270),#503);
#503=(
GEOMETRIC_REPRESENTATION_CONTEXT(3)
GLOBAL_UNCERTAINTY_ASSIGNED_CONTEXT((#504))
GLOBAL_UNIT_ASSIGNED_CONTEXT((#510,#506,#505))
REPRESENTATION_CONTEXT('aaa336607_b','TOP_LEVEL_ASSEMBLY_PART')
);
#504=UNCERTAINTY_MEASURE_WITH_UNIT(LENGTH_MEASURE(2.E-5),#510,
'DISTANCE_ACCURACY_VALUE','Maximum Tolerance applied to model');
#505=(
NAMED_UNIT(*)
SI_UNIT($,.STERADIAN.)
SOLID_ANGLE_UNIT()
);
#506=(
CONVERSION_BASED_UNIT('DEGREE',#508)
NAMED_UNIT(#507)
PLANE_ANGLE_UNIT()
);
#507=DIMENSIONAL_EXPONENTS(0.,0.,0.,0.,0.,0.,0.);
#508=PLANE_ANGLE_MEASURE_WITH_UNIT(PLANE_ANGLE_MEASURE(0.0174532925),#509);
#509=(
NAMED_UNIT(*)
PLANE_ANGLE_UNIT()
SI_UNIT($,.RADIAN.)
);
#510=(
LENGTH_UNIT()
NAMED_UNIT(*)
SI_UNIT(.MILLI.,.METRE.)
);
ENDSEC;
END-ISO-10303-21;
