ISO-10303-21;
HEADER;
/* Generated by software containing ST-Developer
 * from STEP Tools, Inc. (www.steptools.com) 
 */
/* OPTION: using custom schema-name function */

FILE_DESCRIPTION(
/* description */ (''),
/* implementation_level */ '2;1');

FILE_NAME(
/* name */ 'aaa336593_b.stp',
/* time_stamp */ '2020-06-10T15:47:30+02:00',
/* author */ (''),
/* organization */ ('SMS'),
/* preprocessor_version */ 'ST-DEVELOPER v16.7',
/* originating_system */ 'SIEMENS PLM Software NX 12.0',
/* authorisation */ '');

FILE_SCHEMA (('AUTOMOTIVE_DESIGN { 1 0 10303 214 3 1 1 1 }'));
ENDSEC;

DATA;
#10=CONSTRUCTIVE_GEOMETRY_REPRESENTATION_RELATIONSHIP(
'supplemental geometry','',#26,#11);
#11=CONSTRUCTIVE_GEOMETRY_REPRESENTATION('supplemental geometry',(#295,
#296),#523);
#12=GEOMETRICALLY_BOUNDED_WIREFRAME_SHAPE_REPRESENTATION(
'AAA336593_B-None',(#27),#523);
#13=SHAPE_REPRESENTATION_RELATIONSHIP('None',
'relationship between AAA336593_B-None and AAA336593_B-None',#26,#15);
#14=SHAPE_REPRESENTATION_RELATIONSHIP('None',
'relationship between AAA336593_B-None and AAA336593_B-None',#26,#12);
#15=ADVANCED_BREP_SHAPE_REPRESENTATION('AAA336593_B-None',(#33),#523);
#16=SHAPE_DEFINITION_REPRESENTATION(#17,#26);
#17=PRODUCT_DEFINITION_SHAPE('','',#18);
#18=PRODUCT_DEFINITION(' ','',#20,#19);
#19=PRODUCT_DEFINITION_CONTEXT('part definition',#25,'design');
#20=PRODUCT_DEFINITION_FORMATION_WITH_SPECIFIED_SOURCE(' ',' ',#22,
 .NOT_KNOWN.);
#21=PRODUCT_RELATED_PRODUCT_CATEGORY('part','',(#22));
#22=PRODUCT('AAA336593_B','AAA336593_B',' ',(#23));
#23=PRODUCT_CONTEXT(' ',#25,'mechanical');
#24=APPLICATION_PROTOCOL_DEFINITION('international standard',
'automotive_design',2010,#25);
#25=APPLICATION_CONTEXT(
'core data for automotive mechanical design processes');
#26=SHAPE_REPRESENTATION('AAA336593_B-None',(#294),#523);
#27=GEOMETRIC_CURVE_SET('None',(#407,#408,#274));
#28=SURFACE_STYLE_USAGE(.BOTH.,#29);
#29=SURFACE_SIDE_STYLE('',(#30));
#30=SURFACE_STYLE_FILL_AREA(#31);
#31=FILL_AREA_STYLE('',(#32));
#32=FILL_AREA_STYLE_COLOUR('',#293);
#33=MANIFOLD_SOLID_BREP('CUT',#34);
#34=CLOSED_SHELL('',(#72,#73,#74,#75,#76,#77,#78,#79,#80,#81,#82,#83,#84,
#85,#86));
#35=CONICAL_SURFACE('',#325,1.63933499644842,3.99999999999867);
#36=TOROIDAL_SURFACE('',#318,2.13811702157834,0.5);
#37=TOROIDAL_SURFACE('',#322,2.94999999999994,1.7);
#38=TOROIDAL_SURFACE('',#324,1.13638247510432,0.499999999999999);
#39=CYLINDRICAL_SURFACE('',#313,0.5);
#40=CYLINDRICAL_SURFACE('',#314,0.5);
#41=CYLINDRICAL_SURFACE('',#315,0.5);
#42=CYLINDRICAL_SURFACE('',#316,0.5);
#43=CYLINDRICAL_SURFACE('',#320,1.24999999999997);
#44=ELLIPSE('',#302,0.518547830282065,0.5);
#45=ELLIPSE('',#303,0.518547830282065,0.5);
#46=ELLIPSE('',#304,0.518547830282065,0.5);
#47=ELLIPSE('',#305,0.518547830282065,0.5);
#48=ELLIPSE('',#308,0.518547830282065,0.5);
#49=ELLIPSE('',#309,0.518547830282065,0.5);
#50=ELLIPSE('',#310,0.518547830282065,0.5);
#51=ELLIPSE('',#311,0.518547830282065,0.5);
#52=FACE_BOUND('',#105,.T.);
#53=FACE_BOUND('',#106,.T.);
#54=FACE_BOUND('',#107,.T.);
#55=FACE_BOUND('',#108,.T.);
#56=FACE_BOUND('',#113,.T.);
#57=FACE_BOUND('',#114,.T.);
#58=FACE_BOUND('',#115,.T.);
#59=FACE_BOUND('',#116,.T.);
#60=FACE_BOUND('',#117,.T.);
#61=FACE_BOUND('',#118,.T.);
#62=FACE_BOUND('',#119,.T.);
#63=FACE_BOUND('',#120,.T.);
#64=FACE_BOUND('',#121,.T.);
#65=FACE_BOUND('',#122,.T.);
#66=CIRCLE('',#301,1.24999999999997);
#67=CIRCLE('',#307,1.77609630154697);
#68=CIRCLE('',#317,1.63933499644842);
#69=CIRCLE('',#319,1.24999999999994);
#70=CIRCLE('',#321,1.54856827621696);
#71=CIRCLE('',#323,1.63516450023422);
#72=ADVANCED_FACE('',(#93),#87,.T.);
#73=ADVANCED_FACE('',(#94),#88,.T.);
#74=ADVANCED_FACE('',(#95),#89,.T.);
#75=ADVANCED_FACE('',(#96),#90,.T.);
#76=ADVANCED_FACE('',(#52,#53),#91,.T.);
#77=ADVANCED_FACE('',(#54,#55),#92,.F.);
#78=ADVANCED_FACE('',(#97),#39,.T.);
#79=ADVANCED_FACE('',(#98),#40,.T.);
#80=ADVANCED_FACE('',(#99),#41,.T.);
#81=ADVANCED_FACE('',(#100),#42,.T.);
#82=ADVANCED_FACE('',(#56,#57),#36,.T.);
#83=ADVANCED_FACE('',(#58,#59),#43,.F.);
#84=ADVANCED_FACE('',(#60,#61),#37,.T.);
#85=ADVANCED_FACE('',(#62,#63),#38,.F.);
#86=ADVANCED_FACE('',(#64,#65),#35,.F.);
#87=PLANE('',#297);
#88=PLANE('',#298);
#89=PLANE('',#299);
#90=PLANE('',#300);
#91=PLANE('',#306);
#92=PLANE('',#312);
#93=FACE_OUTER_BOUND('',#101,.T.);
#94=FACE_OUTER_BOUND('',#102,.T.);
#95=FACE_OUTER_BOUND('',#103,.T.);
#96=FACE_OUTER_BOUND('',#104,.T.);
#97=FACE_OUTER_BOUND('',#109,.T.);
#98=FACE_OUTER_BOUND('',#110,.T.);
#99=FACE_OUTER_BOUND('',#111,.T.);
#100=FACE_OUTER_BOUND('',#112,.T.);
#101=EDGE_LOOP('',(#123,#124,#125,#126));
#102=EDGE_LOOP('',(#127,#128,#129,#130));
#103=EDGE_LOOP('',(#131,#132,#133,#134));
#104=EDGE_LOOP('',(#135,#136,#137,#138));
#105=EDGE_LOOP('',(#139));
#106=EDGE_LOOP('',(#140,#141,#142,#143,#144,#145,#146,#147));
#107=EDGE_LOOP('',(#148));
#108=EDGE_LOOP('',(#149,#150,#151,#152,#153,#154,#155,#156));
#109=EDGE_LOOP('',(#157,#158,#159,#160));
#110=EDGE_LOOP('',(#161,#162,#163,#164));
#111=EDGE_LOOP('',(#165,#166,#167,#168));
#112=EDGE_LOOP('',(#169,#170,#171,#172));
#113=EDGE_LOOP('',(#173));
#114=EDGE_LOOP('',(#174));
#115=EDGE_LOOP('',(#175));
#116=EDGE_LOOP('',(#176));
#117=EDGE_LOOP('',(#177));
#118=EDGE_LOOP('',(#178));
#119=EDGE_LOOP('',(#179));
#120=EDGE_LOOP('',(#180));
#121=EDGE_LOOP('',(#181));
#122=EDGE_LOOP('',(#182));
#123=ORIENTED_EDGE('',*,*,#205,.F.);
#124=ORIENTED_EDGE('',*,*,#206,.T.);
#125=ORIENTED_EDGE('',*,*,#207,.T.);
#126=ORIENTED_EDGE('',*,*,#208,.T.);
#127=ORIENTED_EDGE('',*,*,#209,.T.);
#128=ORIENTED_EDGE('',*,*,#210,.T.);
#129=ORIENTED_EDGE('',*,*,#211,.F.);
#130=ORIENTED_EDGE('',*,*,#212,.T.);
#131=ORIENTED_EDGE('',*,*,#213,.T.);
#132=ORIENTED_EDGE('',*,*,#214,.T.);
#133=ORIENTED_EDGE('',*,*,#215,.F.);
#134=ORIENTED_EDGE('',*,*,#216,.T.);
#135=ORIENTED_EDGE('',*,*,#217,.F.);
#136=ORIENTED_EDGE('',*,*,#218,.T.);
#137=ORIENTED_EDGE('',*,*,#219,.T.);
#138=ORIENTED_EDGE('',*,*,#220,.T.);
#139=ORIENTED_EDGE('',*,*,#221,.F.);
#140=ORIENTED_EDGE('',*,*,#215,.T.);
#141=ORIENTED_EDGE('',*,*,#222,.T.);
#142=ORIENTED_EDGE('',*,*,#217,.T.);
#143=ORIENTED_EDGE('',*,*,#223,.T.);
#144=ORIENTED_EDGE('',*,*,#205,.T.);
#145=ORIENTED_EDGE('',*,*,#224,.T.);
#146=ORIENTED_EDGE('',*,*,#211,.T.);
#147=ORIENTED_EDGE('',*,*,#225,.T.);
#148=ORIENTED_EDGE('',*,*,#226,.T.);
#149=ORIENTED_EDGE('',*,*,#219,.F.);
#150=ORIENTED_EDGE('',*,*,#227,.T.);
#151=ORIENTED_EDGE('',*,*,#213,.F.);
#152=ORIENTED_EDGE('',*,*,#228,.T.);
#153=ORIENTED_EDGE('',*,*,#209,.F.);
#154=ORIENTED_EDGE('',*,*,#229,.T.);
#155=ORIENTED_EDGE('',*,*,#207,.F.);
#156=ORIENTED_EDGE('',*,*,#230,.T.);
#157=ORIENTED_EDGE('',*,*,#222,.F.);
#158=ORIENTED_EDGE('',*,*,#214,.F.);
#159=ORIENTED_EDGE('',*,*,#227,.F.);
#160=ORIENTED_EDGE('',*,*,#218,.F.);
#161=ORIENTED_EDGE('',*,*,#225,.F.);
#162=ORIENTED_EDGE('',*,*,#210,.F.);
#163=ORIENTED_EDGE('',*,*,#228,.F.);
#164=ORIENTED_EDGE('',*,*,#216,.F.);
#165=ORIENTED_EDGE('',*,*,#223,.F.);
#166=ORIENTED_EDGE('',*,*,#220,.F.);
#167=ORIENTED_EDGE('',*,*,#230,.F.);
#168=ORIENTED_EDGE('',*,*,#206,.F.);
#169=ORIENTED_EDGE('',*,*,#224,.F.);
#170=ORIENTED_EDGE('',*,*,#208,.F.);
#171=ORIENTED_EDGE('',*,*,#229,.F.);
#172=ORIENTED_EDGE('',*,*,#212,.F.);
#173=ORIENTED_EDGE('',*,*,#231,.T.);
#174=ORIENTED_EDGE('',*,*,#226,.F.);
#175=ORIENTED_EDGE('',*,*,#221,.T.);
#176=ORIENTED_EDGE('',*,*,#232,.F.);
#177=ORIENTED_EDGE('',*,*,#232,.T.);
#178=ORIENTED_EDGE('',*,*,#233,.F.);
#179=ORIENTED_EDGE('',*,*,#233,.T.);
#180=ORIENTED_EDGE('',*,*,#234,.F.);
#181=ORIENTED_EDGE('',*,*,#234,.T.);
#182=ORIENTED_EDGE('',*,*,#231,.F.);
#183=VERTEX_POINT('',#456);
#184=VERTEX_POINT('',#457);
#185=VERTEX_POINT('',#459);
#186=VERTEX_POINT('',#461);
#187=VERTEX_POINT('',#465);
#188=VERTEX_POINT('',#466);
#189=VERTEX_POINT('',#468);
#190=VERTEX_POINT('',#470);
#191=VERTEX_POINT('',#474);
#192=VERTEX_POINT('',#475);
#193=VERTEX_POINT('',#477);
#194=VERTEX_POINT('',#479);
#195=VERTEX_POINT('',#483);
#196=VERTEX_POINT('',#484);
#197=VERTEX_POINT('',#486);
#198=VERTEX_POINT('',#488);
#199=VERTEX_POINT('',#492);
#200=VERTEX_POINT('',#499);
#201=VERTEX_POINT('',#510);
#202=VERTEX_POINT('',#513);
#203=VERTEX_POINT('',#516);
#204=VERTEX_POINT('',#519);
#205=EDGE_CURVE('',#183,#184,#235,.T.);
#206=EDGE_CURVE('',#183,#185,#236,.T.);
#207=EDGE_CURVE('',#185,#186,#237,.T.);
#208=EDGE_CURVE('',#186,#184,#238,.T.);
#209=EDGE_CURVE('',#187,#188,#239,.T.);
#210=EDGE_CURVE('',#188,#189,#240,.T.);
#211=EDGE_CURVE('',#190,#189,#241,.T.);
#212=EDGE_CURVE('',#190,#187,#242,.T.);
#213=EDGE_CURVE('',#191,#192,#243,.T.);
#214=EDGE_CURVE('',#192,#193,#244,.T.);
#215=EDGE_CURVE('',#194,#193,#245,.T.);
#216=EDGE_CURVE('',#194,#191,#246,.T.);
#217=EDGE_CURVE('',#195,#196,#247,.T.);
#218=EDGE_CURVE('',#195,#197,#248,.T.);
#219=EDGE_CURVE('',#197,#198,#249,.T.);
#220=EDGE_CURVE('',#198,#196,#250,.T.);
#221=EDGE_CURVE('',#199,#199,#66,.T.);
#222=EDGE_CURVE('',#193,#195,#44,.T.);
#223=EDGE_CURVE('',#196,#183,#45,.T.);
#224=EDGE_CURVE('',#184,#190,#46,.T.);
#225=EDGE_CURVE('',#189,#194,#47,.T.);
#226=EDGE_CURVE('',#200,#200,#67,.T.);
#227=EDGE_CURVE('',#197,#192,#48,.T.);
#228=EDGE_CURVE('',#191,#188,#49,.T.);
#229=EDGE_CURVE('',#187,#186,#50,.T.);
#230=EDGE_CURVE('',#185,#198,#51,.T.);
#231=EDGE_CURVE('',#201,#201,#68,.T.);
#232=EDGE_CURVE('',#202,#202,#69,.T.);
#233=EDGE_CURVE('',#203,#203,#70,.T.);
#234=EDGE_CURVE('',#204,#204,#71,.T.);
#235=LINE('',#455,#251);
#236=LINE('',#458,#252);
#237=LINE('',#460,#253);
#238=LINE('',#462,#254);
#239=LINE('',#464,#255);
#240=LINE('',#467,#256);
#241=LINE('',#469,#257);
#242=LINE('',#471,#258);
#243=LINE('',#473,#259);
#244=LINE('',#476,#260);
#245=LINE('',#478,#261);
#246=LINE('',#480,#262);
#247=LINE('',#482,#263);
#248=LINE('',#485,#264);
#249=LINE('',#487,#265);
#250=LINE('',#489,#266);
#251=VECTOR('',#332,1.);
#252=VECTOR('',#333,1.);
#253=VECTOR('',#334,1.);
#254=VECTOR('',#335,1.);
#255=VECTOR('',#338,1.);
#256=VECTOR('',#339,1.);
#257=VECTOR('',#340,1.);
#258=VECTOR('',#341,1.);
#259=VECTOR('',#344,1.);
#260=VECTOR('',#345,1.);
#261=VECTOR('',#346,1.);
#262=VECTOR('',#347,1.);
#263=VECTOR('',#350,1.);
#264=VECTOR('',#351,1.);
#265=VECTOR('',#352,1.);
#266=VECTOR('',#353,1.);
#267=CURVE_STYLE('',#271,POSITIVE_LENGTH_MEASURE(0.25),#270);
#268=CURVE_STYLE('',#272,POSITIVE_LENGTH_MEASURE(0.18),#292);
#269=CURVE_STYLE('',#273,POSITIVE_LENGTH_MEASURE(0.18),#292);
#270=DRAUGHTING_PRE_DEFINED_COLOUR('blue');
#271=DRAUGHTING_PRE_DEFINED_CURVE_FONT('continuous');
#272=DRAUGHTING_PRE_DEFINED_CURVE_FONT('continuous');
#273=DRAUGHTING_PRE_DEFINED_CURVE_FONT('continuous');
#274=B_SPLINE_CURVE_WITH_KNOTS('CUTTING EDGE LINE',3,(#409,#410,#411,#412,
#413,#414,#415,#416,#417,#418,#419,#420,#421,#422,#423,#424,#425,#426,#427,
#428,#429,#430,#431,#432,#433,#434,#435,#436,#437,#438,#439,#440,#441,#442,
#443,#444,#445,#446,#447,#448,#449,#450,#451,#452),.UNSPECIFIED.,.T.,.F.,
(1,1,2,1,1,1,1,1,1,1,1,1,1,1,1,1,1,1,1,1,1,1,1,1,1,1,1,1,1,1,1,1,1,1,1,
1,1,1,1,1,1,1,1,2,1,1),(-0.0166696310000001,-0.00833481550000004,0.,0.108330369,
0.21462954358125,0.216660738,0.22082814575,0.2249955535,0.233330369,0.2416651845,
0.24583259225,0.25,0.25203119441875,0.3041651845,0.358330369,0.46462954358125,
0.466660738,0.47082814575,0.4749955535,0.483330369,0.4916651845,0.49583259225,
0.5,0.50203119441875,0.5541651845,0.608330369,0.71462954358125,0.716660738,
0.72082814575,0.7249955535,0.733330369,0.7416651845,0.74583259225,0.75,
0.75203119441875,0.8041651845,0.858330369,0.96462954358125,0.966660738,
0.97082814575,0.9749955535,0.983330369,0.9916651845,1.,1.108330369,1.21462954358125),
 .UNSPECIFIED.);
#275=PRESENTATION_LAYER_ASSIGNMENT('1','Layer 1',(#407,#408,#274,#295,#296,
#33));
#276=STYLED_ITEM('',(#282),#407);
#277=STYLED_ITEM('',(#283),#408);
#278=STYLED_ITEM('',(#284),#274);
#279=STYLED_ITEM('',(#285),#295);
#280=STYLED_ITEM('',(#286),#296);
#281=STYLED_ITEM('',(#287),#33);
#282=PRESENTATION_STYLE_ASSIGNMENT((#288));
#283=PRESENTATION_STYLE_ASSIGNMENT((#289));
#284=PRESENTATION_STYLE_ASSIGNMENT((#267));
#285=PRESENTATION_STYLE_ASSIGNMENT((#268));
#286=PRESENTATION_STYLE_ASSIGNMENT((#269));
#287=PRESENTATION_STYLE_ASSIGNMENT((#28));
#288=POINT_STYLE('',#290,POSITIVE_LENGTH_MEASURE(3.),#292);
#289=POINT_STYLE('',#291,POSITIVE_LENGTH_MEASURE(3.),#292);
#290=PRE_DEFINED_POINT_MARKER_SYMBOL('plus');
#291=PRE_DEFINED_POINT_MARKER_SYMBOL('plus');
#292=COLOUR_RGB('Medium Maroon',0.6,0.4,0.4);
#293=COLOUR_RGB('Light Gray',0.8,0.8,0.8);
#294=AXIS2_PLACEMENT_3D('',#406,#326,#327);
#295=AXIS2_PLACEMENT_3D('MCS',#453,#328,#329);
#296=AXIS2_PLACEMENT_3D('PCS',#454,#330,#331);
#297=AXIS2_PLACEMENT_3D('',#463,#336,#337);
#298=AXIS2_PLACEMENT_3D('',#472,#342,#343);
#299=AXIS2_PLACEMENT_3D('',#481,#348,#349);
#300=AXIS2_PLACEMENT_3D('',#490,#354,#355);
#301=AXIS2_PLACEMENT_3D('',#491,#356,#357);
#302=AXIS2_PLACEMENT_3D('',#493,#358,#359);
#303=AXIS2_PLACEMENT_3D('',#494,#360,#361);
#304=AXIS2_PLACEMENT_3D('',#495,#362,#363);
#305=AXIS2_PLACEMENT_3D('',#496,#364,#365);
#306=AXIS2_PLACEMENT_3D('',#497,#366,#367);
#307=AXIS2_PLACEMENT_3D('',#498,#368,#369);
#308=AXIS2_PLACEMENT_3D('',#500,#370,#371);
#309=AXIS2_PLACEMENT_3D('',#501,#372,#373);
#310=AXIS2_PLACEMENT_3D('',#502,#374,#375);
#311=AXIS2_PLACEMENT_3D('',#503,#376,#377);
#312=AXIS2_PLACEMENT_3D('',#504,#378,#379);
#313=AXIS2_PLACEMENT_3D('',#505,#380,#381);
#314=AXIS2_PLACEMENT_3D('',#506,#382,#383);
#315=AXIS2_PLACEMENT_3D('',#507,#384,#385);
#316=AXIS2_PLACEMENT_3D('',#508,#386,#387);
#317=AXIS2_PLACEMENT_3D('',#509,#388,#389);
#318=AXIS2_PLACEMENT_3D('',#511,#390,#391);
#319=AXIS2_PLACEMENT_3D('',#512,#392,#393);
#320=AXIS2_PLACEMENT_3D('',#514,#394,#395);
#321=AXIS2_PLACEMENT_3D('',#515,#396,#397);
#322=AXIS2_PLACEMENT_3D('',#517,#398,#399);
#323=AXIS2_PLACEMENT_3D('',#518,#400,#401);
#324=AXIS2_PLACEMENT_3D('',#520,#402,#403);
#325=AXIS2_PLACEMENT_3D('',#521,#404,#405);
#326=DIRECTION('',(0.,0.,1.));
#327=DIRECTION('',(1.,0.,0.));
#328=DIRECTION('',(0.,0.,1.));
#329=DIRECTION('',(1.,0.,0.));
#330=DIRECTION('',(0.,0.,1.));
#331=DIRECTION('',(1.,0.,0.));
#332=DIRECTION('',(-2.74664550362994E-15,-1.,0.));
#333=DIRECTION('',(0.187427559991896,0.187427559991895,0.964231206459824));
#334=DIRECTION('',(-2.74664550362994E-15,-1.,0.));
#335=DIRECTION('',(-0.187427559991895,0.187427559991897,-0.964231206459825));
#336=DIRECTION('',(0.981627183447664,-2.69618188965745E-15,-0.190808995376545));
#337=DIRECTION('',(-0.190808995376545,0.,-0.981627183447664));
#338=DIRECTION('',(-1.,3.83084767611545E-15,0.));
#339=DIRECTION('',(0.187427559991896,0.187427559991895,-0.964231206459825));
#340=DIRECTION('',(-1.,3.83084767611545E-15,0.));
#341=DIRECTION('',(0.187427559991895,-0.187427559991897,0.964231206459825));
#342=DIRECTION('',(-3.76046421452224E-15,-0.981627183447664,-0.190808995376545));
#343=DIRECTION('',(0.,0.190808995376545,-0.981627183447664));
#344=DIRECTION('',(1.59016318631207E-15,1.,0.));
#345=DIRECTION('',(0.187427559991896,-0.187427559991896,-0.964231206459825));
#346=DIRECTION('',(1.59016318631207E-15,1.,0.));
#347=DIRECTION('',(-0.187427559991896,-0.187427559991895,0.964231206459825));
#348=DIRECTION('',(-0.981627183447664,1.56094740980168E-15,-0.190808995376545));
#349=DIRECTION('',(-0.190808995376545,0.,0.981627183447664));
#350=DIRECTION('',(1.,-2.60208521396521E-15,0.));
#351=DIRECTION('',(-0.187427559991895,0.187427559991896,0.964231206459824));
#352=DIRECTION('',(1.,-2.60208521396521E-15,0.));
#353=DIRECTION('',(-0.187427559991896,-0.187427559991895,-0.964231206459825));
#354=DIRECTION('',(2.55427757967548E-15,0.981627183447664,-0.190808995376545));
#355=DIRECTION('',(0.,0.190808995376545,0.981627183447664));
#356=DIRECTION('',(0.,0.,-1.));
#357=DIRECTION('',(-1.,0.,0.));
#358=DIRECTION('',(0.,0.,-1.));
#359=DIRECTION('',(-0.707106781186546,0.707106781186549,0.));
#360=DIRECTION('',(0.,0.,-1.));
#361=DIRECTION('',(0.707106781186549,0.707106781186546,0.));
#362=DIRECTION('',(0.,0.,-1.));
#363=DIRECTION('',(0.707106781186545,-0.70710678118655,0.));
#364=DIRECTION('',(0.,0.,-1.));
#365=DIRECTION('',(-0.707106781186549,-0.707106781186546,0.));
#366=DIRECTION('',(0.,0.,-1.));
#367=DIRECTION('',(-1.,0.,0.));
#368=DIRECTION('',(0.,0.,-1.));
#369=DIRECTION('',(1.,0.,0.));
#370=DIRECTION('',(0.,0.,1.));
#371=DIRECTION('',(-0.707106781186546,0.707106781186549,0.));
#372=DIRECTION('',(0.,0.,1.));
#373=DIRECTION('',(-0.707106781186549,-0.707106781186546,0.));
#374=DIRECTION('',(0.,0.,1.));
#375=DIRECTION('',(0.707106781186545,-0.70710678118655,0.));
#376=DIRECTION('',(0.,0.,1.));
#377=DIRECTION('',(0.707106781186549,0.707106781186546,0.));
#378=DIRECTION('',(0.,0.,-1.));
#379=DIRECTION('',(-1.,0.,0.));
#380=DIRECTION('',(-0.187427559991895,0.187427559991896,0.964231206459825));
#381=DIRECTION('',(0.,-0.981627183447664,0.190808995376545));
#382=DIRECTION('',(-0.187427559991896,-0.187427559991895,0.964231206459825));
#383=DIRECTION('',(0.981627183447664,0.,0.190808995376545));
#384=DIRECTION('',(0.187427559991896,0.187427559991895,0.964231206459825));
#385=DIRECTION('',(0.981627183447664,0.,-0.190808995376545));
#386=DIRECTION('',(0.187427559991895,-0.187427559991897,0.964231206459825));
#387=DIRECTION('',(0.,-0.981627183447664,-0.190808995376545));
#388=DIRECTION('',(0.,0.,-1.));
#389=DIRECTION('',(1.,0.,0.));
#390=DIRECTION('',(0.,0.,1.));
#391=DIRECTION('',(1.,0.,0.));
#392=DIRECTION('',(0.,0.,-1.));
#393=DIRECTION('',(1.,0.,0.));
#394=DIRECTION('',(0.,0.,1.));
#395=DIRECTION('',(1.,0.,0.));
#396=DIRECTION('',(0.,0.,-1.));
#397=DIRECTION('',(1.,0.,0.));
#398=DIRECTION('',(0.,0.,1.));
#399=DIRECTION('',(1.,0.,0.));
#400=DIRECTION('',(0.,0.,-1.));
#401=DIRECTION('',(1.,0.,0.));
#402=DIRECTION('',(0.,0.,1.));
#403=DIRECTION('',(1.,0.,0.));
#404=DIRECTION('',(0.,0.,1.));
#405=DIRECTION('',(1.,0.,-4.54489539612407E-16));
#406=CARTESIAN_POINT('',(0.,0.,0.));
#407=CARTESIAN_POINT('',(0.,0.,0.));
#408=CARTESIAN_POINT('',(-3.,-2.99999999999999,0.));
#409=CARTESIAN_POINT('',(-2.57353772545974,-2.99999999999999,0.));
#410=CARTESIAN_POINT('',(-1.67279093885078,-2.99999999999999,0.));
#411=CARTESIAN_POINT('',(-0.0156824150517323,-3.,0.));
#412=CARTESIAN_POINT('',(1.65710852379905,-3.00000000000001,0.));
#413=CARTESIAN_POINT('',(2.52567705563274,-3.00075400129384,0.));
#414=CARTESIAN_POINT('',(2.60573469006313,-2.99381205303362,0.));
#415=CARTESIAN_POINT('',(2.72969999665532,-2.95713552019277,0.));
#416=CARTESIAN_POINT('',(2.86657206056529,-2.8665720604844,0.));
#417=CARTESIAN_POINT('',(2.9571355201931,-2.72969999665387,0.));
#418=CARTESIAN_POINT('',(2.99381205302966,-2.60573469006675,0.));
#419=CARTESIAN_POINT('',(3.0007540012943,-2.52567705563232,0.));
#420=CARTESIAN_POINT('',(2.99999999999999,-2.07530625851176,0.));
#421=CARTESIAN_POINT('',(3.,-1.23891078908637,0.));
#422=CARTESIAN_POINT('',(3.,0.402515319660959,0.));
#423=CARTESIAN_POINT('',(3.,1.65710852379905,0.));
#424=CARTESIAN_POINT('',(3.00075400129416,2.52567705563232,0.));
#425=CARTESIAN_POINT('',(2.99381205303097,2.60573469006659,0.));
#426=CARTESIAN_POINT('',(2.95713552019107,2.72969999665974,0.));
#427=CARTESIAN_POINT('',(2.86657206052719,2.8665720605225,0.));
#428=CARTESIAN_POINT('',(2.72969999664945,2.9571355201948,0.));
#429=CARTESIAN_POINT('',(2.60573469006328,2.99381205303231,0.));
#430=CARTESIAN_POINT('',(2.52567705563274,3.00075400129398,0.));
#431=CARTESIAN_POINT('',(2.07530625851176,2.99999999999999,0.));
#432=CARTESIAN_POINT('',(1.23891078908637,3.,0.));
#433=CARTESIAN_POINT('',(-0.402515319660962,3.,0.));
#434=CARTESIAN_POINT('',(-1.65710852379905,3.,0.));
#435=CARTESIAN_POINT('',(-2.52567705563274,3.00075400129384,0.));
#436=CARTESIAN_POINT('',(-2.60573469006313,2.99381205303362,0.));
#437=CARTESIAN_POINT('',(-2.72969999665533,2.95713552019277,0.));
#438=CARTESIAN_POINT('',(-2.86657206056529,2.8665720604844,0.));
#439=CARTESIAN_POINT('',(-2.9571355201931,2.72969999665387,0.));
#440=CARTESIAN_POINT('',(-2.99381205302966,2.60573469006675,0.));
#441=CARTESIAN_POINT('',(-3.00075400129431,2.52567705563231,0.));
#442=CARTESIAN_POINT('',(-3.,2.07530625851176,0.));
#443=CARTESIAN_POINT('',(-3.,1.23891078908637,0.));
#444=CARTESIAN_POINT('',(-3.,-0.402515319660959,0.));
#445=CARTESIAN_POINT('',(-3.,-1.65710852379904,0.));
#446=CARTESIAN_POINT('',(-3.00075400129416,-2.52567705563231,0.));
#447=CARTESIAN_POINT('',(-2.99381205303096,-2.60573469006659,0.));
#448=CARTESIAN_POINT('',(-2.95713552019107,-2.72969999665974,0.));
#449=CARTESIAN_POINT('',(-2.86657206052719,-2.86657206052249,0.));
#450=CARTESIAN_POINT('',(-2.7023255838739,-2.97524821212925,0.));
#451=CARTESIAN_POINT('',(-2.57353772545974,-2.99999999999999,0.));
#452=CARTESIAN_POINT('',(-1.67279093885078,-2.99999999999999,0.));
#453=CARTESIAN_POINT('',(0.,0.,0.));
#454=CARTESIAN_POINT('',(-3.,-2.99999999999999,0.));
#455=CARTESIAN_POINT('',(2.49461119624194,2.99999999999999,-2.6));
#456=CARTESIAN_POINT('',(2.49461119624194,2.00379760451809,-2.6));
#457=CARTESIAN_POINT('',(2.49461119624193,-2.00379760451811,-2.6));
#458=CARTESIAN_POINT('',(3.01724183495691,2.52642824323306,0.0887015512702243));
#459=CARTESIAN_POINT('',(3.00000000000001,2.50918640827616,0.));
#460=CARTESIAN_POINT('',(3.00000000000001,2.99999999999999,0.));
#461=CARTESIAN_POINT('',(2.99999999999999,-2.50918640827618,0.));
#462=CARTESIAN_POINT('',(2.8064672934898,-2.31565370176599,-0.995639462498618));
#463=CARTESIAN_POINT('',(3.00000000000001,2.99999999999999,0.));
#464=CARTESIAN_POINT('',(2.99999999999999,-3.00000000000001,0.));
#465=CARTESIAN_POINT('',(2.50918640827616,-3.00000000000001,0.));
#466=CARTESIAN_POINT('',(-2.50918640827617,-2.99999999999999,0.));
#467=CARTESIAN_POINT('',(-2.31565370176598,-2.8064672934898,-0.995639462498613));
#468=CARTESIAN_POINT('',(-2.00379760451811,-2.49461119624192,-2.6));
#469=CARTESIAN_POINT('',(2.99999999999999,-2.49461119624194,-2.6));
#470=CARTESIAN_POINT('',(2.00379760451809,-2.49461119624194,-2.6));
#471=CARTESIAN_POINT('',(2.52642824323306,-3.01724183495691,0.0887015512702232));
#472=CARTESIAN_POINT('',(2.99999999999999,-3.00000000000001,0.));
#473=CARTESIAN_POINT('',(-3.,3.,0.));
#474=CARTESIAN_POINT('',(-3.,-2.50918640827616,0.));
#475=CARTESIAN_POINT('',(-3.,2.50918640827618,0.));
#476=CARTESIAN_POINT('',(-3.0172418349569,2.52642824323308,0.0887015512702233));
#477=CARTESIAN_POINT('',(-2.49461119624193,2.00379760451811,-2.6));
#478=CARTESIAN_POINT('',(-2.49461119624193,3.,-2.6));
#479=CARTESIAN_POINT('',(-2.49461119624194,-2.00379760451809,-2.6));
#480=CARTESIAN_POINT('',(-2.80646729348981,-2.31565370176597,-0.995639462498613));
#481=CARTESIAN_POINT('',(-3.,3.,0.));
#482=CARTESIAN_POINT('',(3.00000000000001,2.49461119624192,-2.6));
#483=CARTESIAN_POINT('',(-2.0037976045181,2.49461119624194,-2.6));
#484=CARTESIAN_POINT('',(2.00379760451811,2.49461119624193,-2.6));
#485=CARTESIAN_POINT('',(-2.31565370176597,2.80646729348981,-0.995639462498618));
#486=CARTESIAN_POINT('',(-2.50918640827616,3.00000000000001,0.));
#487=CARTESIAN_POINT('',(3.00000000000001,2.99999999999999,0.));
#488=CARTESIAN_POINT('',(2.50918640827618,2.99999999999999,0.));
#489=CARTESIAN_POINT('',(2.52642824323308,3.01724183495689,0.0887015512702243));
#490=CARTESIAN_POINT('',(3.00000000000001,2.99999999999999,0.));
#491=CARTESIAN_POINT('',(0.,0.,-2.6));
#492=CARTESIAN_POINT('',(-1.24999999999997,0.,-2.6));
#493=CARTESIAN_POINT('',(-1.98525284876432,1.98525284876433,-2.6));
#494=CARTESIAN_POINT('',(1.98525284876433,1.98525284876432,-2.6));
#495=CARTESIAN_POINT('',(1.98525284876432,-1.98525284876433,-2.6));
#496=CARTESIAN_POINT('',(-1.98525284876433,-1.98525284876432,-2.6));
#497=CARTESIAN_POINT('',(0.,0.,-2.6));
#498=CARTESIAN_POINT('',(0.,0.,0.));
#499=CARTESIAN_POINT('',(1.77609630154697,0.,0.));
#500=CARTESIAN_POINT('',(-2.49064165252239,2.4906416525224,0.));
#501=CARTESIAN_POINT('',(-2.4906416525224,-2.49064165252238,0.));
#502=CARTESIAN_POINT('',(2.49064165252239,-2.4906416525224,0.));
#503=CARTESIAN_POINT('',(2.4906416525224,2.49064165252239,0.));
#504=CARTESIAN_POINT('',(0.,0.,0.));
#505=CARTESIAN_POINT('',(-2.31565370176597,2.31565370176598,-0.900234964810346));
#506=CARTESIAN_POINT('',(-2.31565370176598,-2.31565370176597,-0.900234964810341));
#507=CARTESIAN_POINT('',(2.52642824323308,2.52642824323306,0.184106048958497));
#508=CARTESIAN_POINT('',(2.52642824323306,-2.52642824323308,0.184106048958496));
#509=CARTESIAN_POINT('',(0.,0.,-0.31));
#510=CARTESIAN_POINT('',(1.63933499644842,0.,-0.31));
#511=CARTESIAN_POINT('',(0.,0.,-0.344878236872051));
#512=CARTESIAN_POINT('',(0.,0.,-1.58007042020712));
#513=CARTESIAN_POINT('',(1.24999999999994,0.,-1.58007042020712));
#514=CARTESIAN_POINT('',(0.,0.,-2.275));
#515=CARTESIAN_POINT('',(0.,0.,-0.617787133656495));
#516=CARTESIAN_POINT('',(1.54856827621696,0.,-0.617787133656495));
#517=CARTESIAN_POINT('',(0.,0.,-1.58007042020712));
#518=CARTESIAN_POINT('',(0.,0.,-0.369640874484244));
#519=CARTESIAN_POINT('',(1.63516450023422,0.,-0.369640874484244));
#520=CARTESIAN_POINT('',(0.,0.,-0.334762637612194));
#521=CARTESIAN_POINT('',(0.,0.,-0.31));
#522=MECHANICAL_DESIGN_GEOMETRIC_PRESENTATION_REPRESENTATION('',(#276,#277,
#278,#279,#280,#281),#523);
#523=(
GEOMETRIC_REPRESENTATION_CONTEXT(3)
GLOBAL_UNCERTAINTY_ASSIGNED_CONTEXT((#524))
GLOBAL_UNIT_ASSIGNED_CONTEXT((#530,#526,#525))
REPRESENTATION_CONTEXT('aaa336593_b','TOP_LEVEL_ASSEMBLY_PART')
);
#524=UNCERTAINTY_MEASURE_WITH_UNIT(LENGTH_MEASURE(2.E-5),#530,
'DISTANCE_ACCURACY_VALUE','Maximum Tolerance applied to model');
#525=(
NAMED_UNIT(*)
SI_UNIT($,.STERADIAN.)
SOLID_ANGLE_UNIT()
);
#526=(
CONVERSION_BASED_UNIT('DEGREE',#528)
NAMED_UNIT(#527)
PLANE_ANGLE_UNIT()
);
#527=DIMENSIONAL_EXPONENTS(0.,0.,0.,0.,0.,0.,0.);
#528=PLANE_ANGLE_MEASURE_WITH_UNIT(PLANE_ANGLE_MEASURE(0.0174532925),#529);
#529=(
NAMED_UNIT(*)
PLANE_ANGLE_UNIT()
SI_UNIT($,.RADIAN.)
);
#530=(
LENGTH_UNIT()
NAMED_UNIT(*)
SI_UNIT(.MILLI.,.METRE.)
);
ENDSEC;
END-ISO-10303-21;
