ISO-10303-21;
HEADER;
/* Generated by software containing ST-Developer
 * from STEP Tools, Inc. (www.steptools.com) 
 */
/* OPTION: using custom schema-name function */

FILE_DESCRIPTION(
/* description */ (''),
/* implementation_level */ '2;1');

FILE_NAME(
/* name */ 'aaa336598_b.stp',
/* time_stamp */ '2020-06-10T15:39:36+02:00',
/* author */ (''),
/* organization */ ('SMS'),
/* preprocessor_version */ 'ST-DEVELOPER v16.7',
/* originating_system */ 'SIEMENS PLM Software NX 12.0',
/* authorisation */ '');

FILE_SCHEMA (('AUTOMOTIVE_DESIGN { 1 0 10303 214 3 1 1 1 }'));
ENDSEC;

DATA;
#10=CONSTRUCTIVE_GEOMETRY_REPRESENTATION_RELATIONSHIP(
'supplemental geometry','',#26,#11);
#11=CONSTRUCTIVE_GEOMETRY_REPRESENTATION('supplemental geometry',(#306,
#307),#543);
#12=GEOMETRICALLY_BOUNDED_WIREFRAME_SHAPE_REPRESENTATION(
'AAA336598_B-None',(#27),#543);
#13=SHAPE_REPRESENTATION_RELATIONSHIP('None',
'relationship between AAA336598_B-None and AAA336598_B-None',#26,#15);
#14=SHAPE_REPRESENTATION_RELATIONSHIP('None',
'relationship between AAA336598_B-None and AAA336598_B-None',#26,#12);
#15=ADVANCED_BREP_SHAPE_REPRESENTATION('AAA336598_B-None',(#33),#543);
#16=SHAPE_DEFINITION_REPRESENTATION(#17,#26);
#17=PRODUCT_DEFINITION_SHAPE('','',#18);
#18=PRODUCT_DEFINITION(' ','',#20,#19);
#19=PRODUCT_DEFINITION_CONTEXT('part definition',#25,'design');
#20=PRODUCT_DEFINITION_FORMATION_WITH_SPECIFIED_SOURCE(' ',' ',#22,
 .NOT_KNOWN.);
#21=PRODUCT_RELATED_PRODUCT_CATEGORY('part','',(#22));
#22=PRODUCT('AAA336598_B','AAA336598_B',' ',(#23));
#23=PRODUCT_CONTEXT(' ',#25,'mechanical');
#24=APPLICATION_PROTOCOL_DEFINITION('international standard',
'automotive_design',2010,#25);
#25=APPLICATION_CONTEXT(
'core data for automotive mechanical design processes');
#26=SHAPE_REPRESENTATION('AAA336598_B-None',(#305),#543);
#27=GEOMETRIC_CURVE_SET('None',(#424,#425,#285));
#28=SURFACE_STYLE_USAGE(.BOTH.,#29);
#29=SURFACE_SIDE_STYLE('',(#30));
#30=SURFACE_STYLE_FILL_AREA(#31);
#31=FILL_AREA_STYLE('',(#32));
#32=FILL_AREA_STYLE_COLOUR('',#304);
#33=MANIFOLD_SOLID_BREP('CUT',#34);
#34=CLOSED_SHELL('',(#76,#77,#78,#79,#80,#81,#82,#83,#84,#85,#86,#87,#88,
#89,#90,#91));
#35=TOROIDAL_SURFACE('',#331,2.75539520786478,0.421458453503325);
#36=TOROIDAL_SURFACE('',#335,1.81416167189669,0.5);
#37=TOROIDAL_SURFACE('',#337,3.8,2.2);
#38=CONICAL_SURFACE('',#329,2.63958722863507,35.);
#39=CONICAL_SURFACE('',#333,2.33496340597176,4.00000000000025);
#40=CYLINDRICAL_SURFACE('',#324,0.5);
#41=CYLINDRICAL_SURFACE('',#325,0.5);
#42=CYLINDRICAL_SURFACE('',#326,0.5);
#43=CYLINDRICAL_SURFACE('',#327,0.5);
#44=CYLINDRICAL_SURFACE('',#338,1.6);
#45=ELLIPSE('',#313,0.518547830282065,0.5);
#46=ELLIPSE('',#314,0.518547830282065,0.5);
#47=ELLIPSE('',#315,0.518547830282065,0.5);
#48=ELLIPSE('',#316,0.518547830282065,0.5);
#49=ELLIPSE('',#319,0.518547830282065,0.5);
#50=ELLIPSE('',#320,0.518547830282065,0.5);
#51=ELLIPSE('',#321,0.518547830282065,0.5);
#52=ELLIPSE('',#322,0.518547830282065,0.5);
#53=FACE_BOUND('',#110,.T.);
#54=FACE_BOUND('',#111,.T.);
#55=FACE_BOUND('',#112,.T.);
#56=FACE_BOUND('',#113,.T.);
#57=FACE_BOUND('',#118,.T.);
#58=FACE_BOUND('',#119,.T.);
#59=FACE_BOUND('',#120,.T.);
#60=FACE_BOUND('',#121,.T.);
#61=FACE_BOUND('',#122,.T.);
#62=FACE_BOUND('',#123,.T.);
#63=FACE_BOUND('',#124,.T.);
#64=FACE_BOUND('',#125,.T.);
#65=FACE_BOUND('',#126,.T.);
#66=FACE_BOUND('',#127,.T.);
#67=FACE_BOUND('',#128,.T.);
#68=FACE_BOUND('',#129,.T.);
#69=CIRCLE('',#312,1.6);
#70=CIRCLE('',#318,2.49954572099313);
#71=CIRCLE('',#328,2.41015665409465);
#72=CIRCLE('',#330,2.33496340597176);
#73=CIRCLE('',#332,2.3129436970266);
#74=CIRCLE('',#334,2.18190951043434);
#75=CIRCLE('',#336,1.6);
#76=ADVANCED_FACE('',(#98),#92,.T.);
#77=ADVANCED_FACE('',(#99),#93,.T.);
#78=ADVANCED_FACE('',(#100),#94,.T.);
#79=ADVANCED_FACE('',(#101),#95,.T.);
#80=ADVANCED_FACE('',(#53,#54),#96,.T.);
#81=ADVANCED_FACE('',(#55,#56),#97,.F.);
#82=ADVANCED_FACE('',(#102),#40,.T.);
#83=ADVANCED_FACE('',(#103),#41,.T.);
#84=ADVANCED_FACE('',(#104),#42,.T.);
#85=ADVANCED_FACE('',(#105),#43,.T.);
#86=ADVANCED_FACE('',(#57,#58),#38,.F.);
#87=ADVANCED_FACE('',(#59,#60),#35,.T.);
#88=ADVANCED_FACE('',(#61,#62),#39,.F.);
#89=ADVANCED_FACE('',(#63,#64),#36,.F.);
#90=ADVANCED_FACE('',(#65,#66),#37,.T.);
#91=ADVANCED_FACE('',(#67,#68),#44,.F.);
#92=PLANE('',#308);
#93=PLANE('',#309);
#94=PLANE('',#310);
#95=PLANE('',#311);
#96=PLANE('',#317);
#97=PLANE('',#323);
#98=FACE_OUTER_BOUND('',#106,.T.);
#99=FACE_OUTER_BOUND('',#107,.T.);
#100=FACE_OUTER_BOUND('',#108,.T.);
#101=FACE_OUTER_BOUND('',#109,.T.);
#102=FACE_OUTER_BOUND('',#114,.T.);
#103=FACE_OUTER_BOUND('',#115,.T.);
#104=FACE_OUTER_BOUND('',#116,.T.);
#105=FACE_OUTER_BOUND('',#117,.T.);
#106=EDGE_LOOP('',(#130,#131,#132,#133));
#107=EDGE_LOOP('',(#134,#135,#136,#137));
#108=EDGE_LOOP('',(#138,#139,#140,#141));
#109=EDGE_LOOP('',(#142,#143,#144,#145));
#110=EDGE_LOOP('',(#146));
#111=EDGE_LOOP('',(#147,#148,#149,#150,#151,#152,#153,#154));
#112=EDGE_LOOP('',(#155));
#113=EDGE_LOOP('',(#156,#157,#158,#159,#160,#161,#162,#163));
#114=EDGE_LOOP('',(#164,#165,#166,#167));
#115=EDGE_LOOP('',(#168,#169,#170,#171));
#116=EDGE_LOOP('',(#172,#173,#174,#175));
#117=EDGE_LOOP('',(#176,#177,#178,#179));
#118=EDGE_LOOP('',(#180));
#119=EDGE_LOOP('',(#181));
#120=EDGE_LOOP('',(#182));
#121=EDGE_LOOP('',(#183));
#122=EDGE_LOOP('',(#184));
#123=EDGE_LOOP('',(#185));
#124=EDGE_LOOP('',(#186));
#125=EDGE_LOOP('',(#187));
#126=EDGE_LOOP('',(#188));
#127=EDGE_LOOP('',(#189));
#128=EDGE_LOOP('',(#190));
#129=EDGE_LOOP('',(#191));
#130=ORIENTED_EDGE('',*,*,#215,.F.);
#131=ORIENTED_EDGE('',*,*,#216,.T.);
#132=ORIENTED_EDGE('',*,*,#217,.T.);
#133=ORIENTED_EDGE('',*,*,#218,.T.);
#134=ORIENTED_EDGE('',*,*,#219,.T.);
#135=ORIENTED_EDGE('',*,*,#220,.T.);
#136=ORIENTED_EDGE('',*,*,#221,.F.);
#137=ORIENTED_EDGE('',*,*,#222,.T.);
#138=ORIENTED_EDGE('',*,*,#223,.T.);
#139=ORIENTED_EDGE('',*,*,#224,.T.);
#140=ORIENTED_EDGE('',*,*,#225,.F.);
#141=ORIENTED_EDGE('',*,*,#226,.T.);
#142=ORIENTED_EDGE('',*,*,#227,.F.);
#143=ORIENTED_EDGE('',*,*,#228,.T.);
#144=ORIENTED_EDGE('',*,*,#229,.T.);
#145=ORIENTED_EDGE('',*,*,#230,.T.);
#146=ORIENTED_EDGE('',*,*,#231,.F.);
#147=ORIENTED_EDGE('',*,*,#225,.T.);
#148=ORIENTED_EDGE('',*,*,#232,.T.);
#149=ORIENTED_EDGE('',*,*,#227,.T.);
#150=ORIENTED_EDGE('',*,*,#233,.T.);
#151=ORIENTED_EDGE('',*,*,#215,.T.);
#152=ORIENTED_EDGE('',*,*,#234,.T.);
#153=ORIENTED_EDGE('',*,*,#221,.T.);
#154=ORIENTED_EDGE('',*,*,#235,.T.);
#155=ORIENTED_EDGE('',*,*,#236,.T.);
#156=ORIENTED_EDGE('',*,*,#229,.F.);
#157=ORIENTED_EDGE('',*,*,#237,.T.);
#158=ORIENTED_EDGE('',*,*,#223,.F.);
#159=ORIENTED_EDGE('',*,*,#238,.T.);
#160=ORIENTED_EDGE('',*,*,#219,.F.);
#161=ORIENTED_EDGE('',*,*,#239,.T.);
#162=ORIENTED_EDGE('',*,*,#217,.F.);
#163=ORIENTED_EDGE('',*,*,#240,.T.);
#164=ORIENTED_EDGE('',*,*,#232,.F.);
#165=ORIENTED_EDGE('',*,*,#224,.F.);
#166=ORIENTED_EDGE('',*,*,#237,.F.);
#167=ORIENTED_EDGE('',*,*,#228,.F.);
#168=ORIENTED_EDGE('',*,*,#235,.F.);
#169=ORIENTED_EDGE('',*,*,#220,.F.);
#170=ORIENTED_EDGE('',*,*,#238,.F.);
#171=ORIENTED_EDGE('',*,*,#226,.F.);
#172=ORIENTED_EDGE('',*,*,#233,.F.);
#173=ORIENTED_EDGE('',*,*,#230,.F.);
#174=ORIENTED_EDGE('',*,*,#240,.F.);
#175=ORIENTED_EDGE('',*,*,#216,.F.);
#176=ORIENTED_EDGE('',*,*,#234,.F.);
#177=ORIENTED_EDGE('',*,*,#218,.F.);
#178=ORIENTED_EDGE('',*,*,#239,.F.);
#179=ORIENTED_EDGE('',*,*,#222,.F.);
#180=ORIENTED_EDGE('',*,*,#241,.T.);
#181=ORIENTED_EDGE('',*,*,#236,.F.);
#182=ORIENTED_EDGE('',*,*,#242,.T.);
#183=ORIENTED_EDGE('',*,*,#241,.F.);
#184=ORIENTED_EDGE('',*,*,#243,.T.);
#185=ORIENTED_EDGE('',*,*,#242,.F.);
#186=ORIENTED_EDGE('',*,*,#244,.T.);
#187=ORIENTED_EDGE('',*,*,#243,.F.);
#188=ORIENTED_EDGE('',*,*,#245,.T.);
#189=ORIENTED_EDGE('',*,*,#244,.F.);
#190=ORIENTED_EDGE('',*,*,#231,.T.);
#191=ORIENTED_EDGE('',*,*,#245,.F.);
#192=VERTEX_POINT('',#473);
#193=VERTEX_POINT('',#474);
#194=VERTEX_POINT('',#476);
#195=VERTEX_POINT('',#478);
#196=VERTEX_POINT('',#482);
#197=VERTEX_POINT('',#483);
#198=VERTEX_POINT('',#485);
#199=VERTEX_POINT('',#487);
#200=VERTEX_POINT('',#491);
#201=VERTEX_POINT('',#492);
#202=VERTEX_POINT('',#494);
#203=VERTEX_POINT('',#496);
#204=VERTEX_POINT('',#500);
#205=VERTEX_POINT('',#501);
#206=VERTEX_POINT('',#503);
#207=VERTEX_POINT('',#505);
#208=VERTEX_POINT('',#509);
#209=VERTEX_POINT('',#516);
#210=VERTEX_POINT('',#527);
#211=VERTEX_POINT('',#530);
#212=VERTEX_POINT('',#533);
#213=VERTEX_POINT('',#536);
#214=VERTEX_POINT('',#539);
#215=EDGE_CURVE('',#192,#193,#246,.T.);
#216=EDGE_CURVE('',#192,#194,#247,.T.);
#217=EDGE_CURVE('',#194,#195,#248,.T.);
#218=EDGE_CURVE('',#195,#193,#249,.T.);
#219=EDGE_CURVE('',#196,#197,#250,.T.);
#220=EDGE_CURVE('',#197,#198,#251,.T.);
#221=EDGE_CURVE('',#199,#198,#252,.T.);
#222=EDGE_CURVE('',#199,#196,#253,.T.);
#223=EDGE_CURVE('',#200,#201,#254,.T.);
#224=EDGE_CURVE('',#201,#202,#255,.T.);
#225=EDGE_CURVE('',#203,#202,#256,.T.);
#226=EDGE_CURVE('',#203,#200,#257,.T.);
#227=EDGE_CURVE('',#204,#205,#258,.T.);
#228=EDGE_CURVE('',#204,#206,#259,.T.);
#229=EDGE_CURVE('',#206,#207,#260,.T.);
#230=EDGE_CURVE('',#207,#205,#261,.T.);
#231=EDGE_CURVE('',#208,#208,#69,.T.);
#232=EDGE_CURVE('',#202,#204,#45,.T.);
#233=EDGE_CURVE('',#205,#192,#46,.T.);
#234=EDGE_CURVE('',#193,#199,#47,.T.);
#235=EDGE_CURVE('',#198,#203,#48,.T.);
#236=EDGE_CURVE('',#209,#209,#70,.T.);
#237=EDGE_CURVE('',#206,#201,#49,.T.);
#238=EDGE_CURVE('',#200,#197,#50,.T.);
#239=EDGE_CURVE('',#196,#195,#51,.T.);
#240=EDGE_CURVE('',#194,#207,#52,.T.);
#241=EDGE_CURVE('',#210,#210,#71,.T.);
#242=EDGE_CURVE('',#211,#211,#72,.T.);
#243=EDGE_CURVE('',#212,#212,#73,.T.);
#244=EDGE_CURVE('',#213,#213,#74,.T.);
#245=EDGE_CURVE('',#214,#214,#75,.T.);
#246=LINE('',#472,#262);
#247=LINE('',#475,#263);
#248=LINE('',#477,#264);
#249=LINE('',#479,#265);
#250=LINE('',#481,#266);
#251=LINE('',#484,#267);
#252=LINE('',#486,#268);
#253=LINE('',#488,#269);
#254=LINE('',#490,#270);
#255=LINE('',#493,#271);
#256=LINE('',#495,#272);
#257=LINE('',#497,#273);
#258=LINE('',#499,#274);
#259=LINE('',#502,#275);
#260=LINE('',#504,#276);
#261=LINE('',#506,#277);
#262=VECTOR('',#345,1.);
#263=VECTOR('',#346,1.);
#264=VECTOR('',#347,1.);
#265=VECTOR('',#348,1.);
#266=VECTOR('',#351,1.);
#267=VECTOR('',#352,1.);
#268=VECTOR('',#353,1.);
#269=VECTOR('',#354,1.);
#270=VECTOR('',#357,1.);
#271=VECTOR('',#358,1.);
#272=VECTOR('',#359,1.);
#273=VECTOR('',#360,1.);
#274=VECTOR('',#363,1.);
#275=VECTOR('',#364,1.);
#276=VECTOR('',#365,1.);
#277=VECTOR('',#366,1.);
#278=CURVE_STYLE('',#282,POSITIVE_LENGTH_MEASURE(0.25),#281);
#279=CURVE_STYLE('',#283,POSITIVE_LENGTH_MEASURE(0.18),#303);
#280=CURVE_STYLE('',#284,POSITIVE_LENGTH_MEASURE(0.18),#303);
#281=DRAUGHTING_PRE_DEFINED_COLOUR('blue');
#282=DRAUGHTING_PRE_DEFINED_CURVE_FONT('continuous');
#283=DRAUGHTING_PRE_DEFINED_CURVE_FONT('continuous');
#284=DRAUGHTING_PRE_DEFINED_CURVE_FONT('continuous');
#285=B_SPLINE_CURVE_WITH_KNOTS('CUTTING EDGE LINE',3,(#426,#427,#428,#429,
#430,#431,#432,#433,#434,#435,#436,#437,#438,#439,#440,#441,#442,#443,#444,
#445,#446,#447,#448,#449,#450,#451,#452,#453,#454,#455,#456,#457,#458,#459,
#460,#461,#462,#463,#464,#465,#466,#467,#468,#469),.UNSPECIFIED.,.T.,.F.,
(1,1,2,1,1,1,1,1,1,1,1,1,1,1,1,1,1,1,1,1,1,1,1,1,1,1,1,1,1,1,1,1,1,1,1,
1,1,1,1,1,1,1,1,2,1,1),(-0.01110706995,-0.005553534975,0.,0.11389293005,
0.226362198474375,0.2277858601,0.2305626275875,0.233339395075,0.23889293005,
0.244446465025,0.2472232325125,0.25,0.251423661625625,0.306946465025,0.36389293005,
0.476362198474375,0.4777858601,0.4805626275875,0.483339395075,0.48889293005,
0.494446465025,0.4972232325125,0.5,0.501423661625625,0.556946465025,0.61389293005,
0.726362198474375,0.7277858601,0.7305626275875,0.733339395075,0.73889293005,
0.744446465025,0.7472232325125,0.75,0.751423661625625,0.806946465025,0.86389293005,
0.976362198474375,0.9777858601,0.9805626275875,0.983339395075,0.98889293005,
0.994446465025,1.,1.11389293005,1.22636219847438),.UNSPECIFIED.);
#286=PRESENTATION_LAYER_ASSIGNMENT('1','Layer 1',(#424,#425,#285,#306,#307,
#33));
#287=STYLED_ITEM('',(#293),#424);
#288=STYLED_ITEM('',(#294),#425);
#289=STYLED_ITEM('',(#295),#285);
#290=STYLED_ITEM('',(#296),#306);
#291=STYLED_ITEM('',(#297),#307);
#292=STYLED_ITEM('',(#298),#33);
#293=PRESENTATION_STYLE_ASSIGNMENT((#299));
#294=PRESENTATION_STYLE_ASSIGNMENT((#300));
#295=PRESENTATION_STYLE_ASSIGNMENT((#278));
#296=PRESENTATION_STYLE_ASSIGNMENT((#279));
#297=PRESENTATION_STYLE_ASSIGNMENT((#280));
#298=PRESENTATION_STYLE_ASSIGNMENT((#28));
#299=POINT_STYLE('',#301,POSITIVE_LENGTH_MEASURE(3.),#303);
#300=POINT_STYLE('',#302,POSITIVE_LENGTH_MEASURE(3.),#303);
#301=PRE_DEFINED_POINT_MARKER_SYMBOL('plus');
#302=PRE_DEFINED_POINT_MARKER_SYMBOL('plus');
#303=COLOUR_RGB('Medium Maroon',0.6,0.4,0.4);
#304=COLOUR_RGB('Light Gray',0.8,0.8,0.8);
#305=AXIS2_PLACEMENT_3D('',#423,#339,#340);
#306=AXIS2_PLACEMENT_3D('MCS',#470,#341,#342);
#307=AXIS2_PLACEMENT_3D('PCS',#471,#343,#344);
#308=AXIS2_PLACEMENT_3D('',#480,#349,#350);
#309=AXIS2_PLACEMENT_3D('',#489,#355,#356);
#310=AXIS2_PLACEMENT_3D('',#498,#361,#362);
#311=AXIS2_PLACEMENT_3D('',#507,#367,#368);
#312=AXIS2_PLACEMENT_3D('',#508,#369,#370);
#313=AXIS2_PLACEMENT_3D('',#510,#371,#372);
#314=AXIS2_PLACEMENT_3D('',#511,#373,#374);
#315=AXIS2_PLACEMENT_3D('',#512,#375,#376);
#316=AXIS2_PLACEMENT_3D('',#513,#377,#378);
#317=AXIS2_PLACEMENT_3D('',#514,#379,#380);
#318=AXIS2_PLACEMENT_3D('',#515,#381,#382);
#319=AXIS2_PLACEMENT_3D('',#517,#383,#384);
#320=AXIS2_PLACEMENT_3D('',#518,#385,#386);
#321=AXIS2_PLACEMENT_3D('',#519,#387,#388);
#322=AXIS2_PLACEMENT_3D('',#520,#389,#390);
#323=AXIS2_PLACEMENT_3D('',#521,#391,#392);
#324=AXIS2_PLACEMENT_3D('',#522,#393,#394);
#325=AXIS2_PLACEMENT_3D('',#523,#395,#396);
#326=AXIS2_PLACEMENT_3D('',#524,#397,#398);
#327=AXIS2_PLACEMENT_3D('',#525,#399,#400);
#328=AXIS2_PLACEMENT_3D('',#526,#401,#402);
#329=AXIS2_PLACEMENT_3D('',#528,#403,#404);
#330=AXIS2_PLACEMENT_3D('',#529,#405,#406);
#331=AXIS2_PLACEMENT_3D('',#531,#407,#408);
#332=AXIS2_PLACEMENT_3D('',#532,#409,#410);
#333=AXIS2_PLACEMENT_3D('',#534,#411,#412);
#334=AXIS2_PLACEMENT_3D('',#535,#413,#414);
#335=AXIS2_PLACEMENT_3D('',#537,#415,#416);
#336=AXIS2_PLACEMENT_3D('',#538,#417,#418);
#337=AXIS2_PLACEMENT_3D('',#540,#419,#420);
#338=AXIS2_PLACEMENT_3D('',#541,#421,#422);
#339=DIRECTION('',(0.,0.,1.));
#340=DIRECTION('',(1.,0.,0.));
#341=DIRECTION('',(0.,0.,1.));
#342=DIRECTION('',(1.,0.,0.));
#343=DIRECTION('',(0.,0.,1.));
#344=DIRECTION('',(1.,0.,0.));
#345=DIRECTION('',(-2.82623487659143E-15,-1.,0.));
#346=DIRECTION('',(0.187427559991896,0.187427559991895,0.964231206459824));
#347=DIRECTION('',(-2.82623487659143E-15,-1.,0.));
#348=DIRECTION('',(-0.187427559991895,0.187427559991897,-0.964231206459825));
#349=DIRECTION('',(0.981627183447664,-2.77430898167E-15,-0.190808995376545));
#350=DIRECTION('',(-0.190808995376545,0.,-0.981627183447664));
#351=DIRECTION('',(-1.,3.8007986271402E-15,0.));
#352=DIRECTION('',(0.187427559991896,0.187427559991895,-0.964231206459825));
#353=DIRECTION('',(-1.,3.8007986271402E-15,0.));
#354=DIRECTION('',(0.187427559991895,-0.187427559991897,0.964231206459825));
#355=DIRECTION('',(-3.73096725121138E-15,-0.981627183447664,-0.190808995376545));
#356=DIRECTION('',(0.,0.190808995376545,-0.981627183447664));
#357=DIRECTION('',(1.65675837593291E-15,1.,0.));
#358=DIRECTION('',(0.187427559991896,-0.187427559991896,-0.964231206459825));
#359=DIRECTION('',(1.65675837593291E-15,1.,0.));
#360=DIRECTION('',(-0.187427559991896,-0.187427559991895,0.964231206459825));
#361=DIRECTION('',(-0.981627183447664,1.62631905822034E-15,-0.190808995376545));
#362=DIRECTION('',(-0.190808995376545,0.,0.981627183447664));
#363=DIRECTION('',(1.,-2.63132212648167E-15,0.));
#364=DIRECTION('',(-0.187427559991895,0.187427559991896,0.964231206459824));
#365=DIRECTION('',(1.,-2.63132212648167E-15,0.));
#366=DIRECTION('',(-0.187427559991896,-0.187427559991895,-0.964231206459825));
#367=DIRECTION('',(2.58297732776172E-15,0.981627183447664,-0.190808995376545));
#368=DIRECTION('',(0.,0.190808995376545,0.981627183447664));
#369=DIRECTION('',(0.,0.,-1.));
#370=DIRECTION('',(-1.,0.,0.));
#371=DIRECTION('',(0.,0.,-1.));
#372=DIRECTION('',(-0.707106781186546,0.707106781186549,0.));
#373=DIRECTION('',(0.,0.,-1.));
#374=DIRECTION('',(0.707106781186549,0.707106781186546,0.));
#375=DIRECTION('',(0.,0.,-1.));
#376=DIRECTION('',(0.707106781186545,-0.70710678118655,0.));
#377=DIRECTION('',(0.,0.,-1.));
#378=DIRECTION('',(-0.707106781186549,-0.707106781186546,0.));
#379=DIRECTION('',(0.,0.,-1.));
#380=DIRECTION('',(-1.,0.,0.));
#381=DIRECTION('',(0.,0.,-1.));
#382=DIRECTION('',(-1.,0.,0.));
#383=DIRECTION('',(0.,0.,1.));
#384=DIRECTION('',(-0.707106781186546,0.707106781186549,0.));
#385=DIRECTION('',(0.,0.,1.));
#386=DIRECTION('',(-0.707106781186549,-0.707106781186546,0.));
#387=DIRECTION('',(0.,0.,1.));
#388=DIRECTION('',(0.707106781186545,-0.70710678118655,0.));
#389=DIRECTION('',(0.,0.,1.));
#390=DIRECTION('',(0.707106781186549,0.707106781186546,0.));
#391=DIRECTION('',(0.,0.,-1.));
#392=DIRECTION('',(-1.,0.,0.));
#393=DIRECTION('',(-0.187427559991895,0.187427559991896,0.964231206459825));
#394=DIRECTION('',(0.,-0.981627183447664,0.190808995376545));
#395=DIRECTION('',(-0.187427559991896,-0.187427559991895,0.964231206459825));
#396=DIRECTION('',(0.981627183447664,0.,0.190808995376545));
#397=DIRECTION('',(0.187427559991896,0.187427559991895,0.964231206459825));
#398=DIRECTION('',(0.981627183447664,0.,-0.190808995376545));
#399=DIRECTION('',(0.187427559991895,-0.187427559991897,0.964231206459825));
#400=DIRECTION('',(0.,-0.981627183447664,-0.190808995376545));
#401=DIRECTION('',(0.,0.,-1.));
#402=DIRECTION('',(1.,0.,0.));
#403=DIRECTION('',(0.,0.,1.));
#404=DIRECTION('',(1.,0.,-3.14687554635869E-17));
#405=DIRECTION('',(0.,0.,-1.));
#406=DIRECTION('',(1.,0.,0.));
#407=DIRECTION('',(0.,0.,1.));
#408=DIRECTION('',(1.,0.,0.));
#409=DIRECTION('',(0.,0.,-1.));
#410=DIRECTION('',(1.,0.,0.));
#411=DIRECTION('',(0.,0.,1.));
#412=DIRECTION('',(1.,0.,-9.60244039168425E-17));
#413=DIRECTION('',(0.,0.,-1.));
#414=DIRECTION('',(1.,0.,0.));
#415=DIRECTION('',(0.,0.,1.));
#416=DIRECTION('',(1.,0.,0.));
#417=DIRECTION('',(0.,0.,-1.));
#418=DIRECTION('',(1.,0.,0.));
#419=DIRECTION('',(0.,0.,1.));
#420=DIRECTION('',(1.,0.,0.));
#421=DIRECTION('',(0.,0.,1.));
#422=DIRECTION('',(1.,0.,0.));
#423=CARTESIAN_POINT('',(0.,0.,0.));
#424=CARTESIAN_POINT('',(0.,0.,0.));
#425=CARTESIAN_POINT('',(-4.45000000000001,-4.44999999999998,0.));
#426=CARTESIAN_POINT('',(-4.02353772545975,-4.44999999999998,0.));
#427=CARTESIAN_POINT('',(-2.63945760551746,-4.44999999999999,0.));
#428=CARTESIAN_POINT('',(-0.0164966100344951,-4.45,0.));
#429=CARTESIAN_POINT('',(2.62296099548295,-4.45000000000001,0.));
#430=CARTESIAN_POINT('',(3.97486272590072,-4.45079314730863,0.));
#431=CARTESIAN_POINT('',(4.05573469006313,-4.44381205303362,0.));
#432=CARTESIAN_POINT('',(4.17969999665532,-4.40713552019278,0.));
#433=CARTESIAN_POINT('',(4.31657206056528,-4.31657206048441,0.));
#434=CARTESIAN_POINT('',(4.4071355201931,-4.17969999665388,0.));
#435=CARTESIAN_POINT('',(4.44381205302966,-4.05573469006676,0.));
#436=CARTESIAN_POINT('',(4.45079314730911,-3.97486272590028,0.));
#437=CARTESIAN_POINT('',(4.44999999999999,-3.28282539686234,0.));
#438=CARTESIAN_POINT('',(4.44999999999999,-1.96309659410362,0.));
#439=CARTESIAN_POINT('',(4.45,0.643367791344863,0.));
#440=CARTESIAN_POINT('',(4.45000000000001,2.62296099548295,0.));
#441=CARTESIAN_POINT('',(4.45079314730897,3.97486272590027,0.));
#442=CARTESIAN_POINT('',(4.44381205303097,4.05573469006659,0.));
#443=CARTESIAN_POINT('',(4.40713552019108,4.17969999665974,0.));
#444=CARTESIAN_POINT('',(4.3165720605272,4.31657206052249,0.));
#445=CARTESIAN_POINT('',(4.17969999664945,4.40713552019479,0.));
#446=CARTESIAN_POINT('',(4.05573469006329,4.44381205303231,0.));
#447=CARTESIAN_POINT('',(3.97486272590072,4.45079314730877,0.));
#448=CARTESIAN_POINT('',(3.28282539686233,4.44999999999999,0.));
#449=CARTESIAN_POINT('',(1.96309659410361,4.45,0.));
#450=CARTESIAN_POINT('',(-0.643367791344869,4.45,0.));
#451=CARTESIAN_POINT('',(-2.62296099548295,4.45000000000001,0.));
#452=CARTESIAN_POINT('',(-3.97486272590028,4.45079314730897,0.));
#453=CARTESIAN_POINT('',(-4.0557346900666,4.44381205303097,0.));
#454=CARTESIAN_POINT('',(-4.17969999665974,4.40713552019108,0.));
#455=CARTESIAN_POINT('',(-4.3165720605225,4.3165720605272,0.));
#456=CARTESIAN_POINT('',(-4.4071355201948,4.17969999664945,0.));
#457=CARTESIAN_POINT('',(-4.44381205303231,4.05573469006329,0.));
#458=CARTESIAN_POINT('',(-4.45079314730878,3.97486272590072,0.));
#459=CARTESIAN_POINT('',(-4.45,3.28282539686234,0.));
#460=CARTESIAN_POINT('',(-4.45,1.96309659410361,0.));
#461=CARTESIAN_POINT('',(-4.45,-0.643367791344861,0.));
#462=CARTESIAN_POINT('',(-4.45000000000001,-2.62296099548294,0.));
#463=CARTESIAN_POINT('',(-4.45079314730896,-3.97486272590027,0.));
#464=CARTESIAN_POINT('',(-4.44381205303097,-4.05573469006658,0.));
#465=CARTESIAN_POINT('',(-4.40713552019108,-4.17969999665973,0.));
#466=CARTESIAN_POINT('',(-4.31657206052719,-4.31657206052248,0.));
#467=CARTESIAN_POINT('',(-4.15232558387391,-4.42524821212925,0.));
#468=CARTESIAN_POINT('',(-4.02353772545975,-4.44999999999998,0.));
#469=CARTESIAN_POINT('',(-2.63945760551746,-4.44999999999999,0.));
#470=CARTESIAN_POINT('',(0.,0.,0.));
#471=CARTESIAN_POINT('',(-4.45000000000001,-4.44999999999998,0.));
#472=CARTESIAN_POINT('',(3.86685907258686,4.44999999999999,-3.));
#473=CARTESIAN_POINT('',(3.86685907258685,3.376045480863,-3.));
#474=CARTESIAN_POINT('',(3.86685907258684,-3.37604548086303,-3.));
#475=CARTESIAN_POINT('',(4.46724183495691,3.97642824323306,0.0887015512702244));
#476=CARTESIAN_POINT('',(4.45000000000001,3.95918640827616,0.));
#477=CARTESIAN_POINT('',(4.45000000000001,4.44999999999999,0.));
#478=CARTESIAN_POINT('',(4.44999999999999,-3.95918640827618,0.));
#479=CARTESIAN_POINT('',(4.1545929317807,-3.66377934005689,-1.51973761915356));
#480=CARTESIAN_POINT('',(4.45000000000001,4.44999999999999,0.));
#481=CARTESIAN_POINT('',(4.44999999999998,-4.45000000000002,0.));
#482=CARTESIAN_POINT('',(3.95918640827615,-4.45000000000001,0.));
#483=CARTESIAN_POINT('',(-3.95918640827618,-4.44999999999998,0.));
#484=CARTESIAN_POINT('',(-3.66377934005689,-4.1545929317807,-1.51973761915355));
#485=CARTESIAN_POINT('',(-3.37604548086302,-3.86685907258683,-3.));
#486=CARTESIAN_POINT('',(4.44999999999998,-3.86685907258686,-3.));
#487=CARTESIAN_POINT('',(3.376045480863,-3.86685907258686,-3.));
#488=CARTESIAN_POINT('',(3.97642824323306,-4.46724183495692,0.0887015512702229));
#489=CARTESIAN_POINT('',(4.44999999999998,-4.45000000000002,0.));
#490=CARTESIAN_POINT('',(-4.44999999999999,4.45,0.));
#491=CARTESIAN_POINT('',(-4.45000000000001,-3.95918640827615,0.));
#492=CARTESIAN_POINT('',(-4.44999999999999,3.95918640827618,0.));
#493=CARTESIAN_POINT('',(-4.4672418349569,3.97642824323308,0.0887015512702229));
#494=CARTESIAN_POINT('',(-3.86685907258684,3.37604548086302,-3.));
#495=CARTESIAN_POINT('',(-3.86685907258684,4.45,-3.));
#496=CARTESIAN_POINT('',(-3.86685907258685,-3.376045480863,-3.));
#497=CARTESIAN_POINT('',(-4.15459293178072,-3.66377934005686,-1.51973761915355));
#498=CARTESIAN_POINT('',(-4.44999999999999,4.45,0.));
#499=CARTESIAN_POINT('',(4.45000000000001,3.86685907258683,-3.));
#500=CARTESIAN_POINT('',(-3.37604548086301,3.86685907258685,-3.));
#501=CARTESIAN_POINT('',(3.37604548086302,3.86685907258684,-3.));
#502=CARTESIAN_POINT('',(-3.66377934005687,4.15459293178072,-1.51973761915356));
#503=CARTESIAN_POINT('',(-3.95918640827616,4.45000000000001,0.));
#504=CARTESIAN_POINT('',(4.45000000000001,4.44999999999999,0.));
#505=CARTESIAN_POINT('',(3.95918640827618,4.44999999999999,0.));
#506=CARTESIAN_POINT('',(3.97642824323308,4.46724183495689,0.0887015512702243));
#507=CARTESIAN_POINT('',(4.45000000000001,4.44999999999999,0.));
#508=CARTESIAN_POINT('',(0.,0.,-3.));
#509=CARTESIAN_POINT('',(-1.6,0.,-3.));
#510=CARTESIAN_POINT('',(-3.35750072510923,3.35750072510925,-3.));
#511=CARTESIAN_POINT('',(3.35750072510925,3.35750072510923,-3.));
#512=CARTESIAN_POINT('',(3.35750072510923,-3.35750072510925,-3.));
#513=CARTESIAN_POINT('',(-3.35750072510925,-3.35750072510922,-3.));
#514=CARTESIAN_POINT('',(0.,0.,-3.));
#515=CARTESIAN_POINT('',(0.,0.,0.));
#516=CARTESIAN_POINT('',(-2.49954572099313,0.,0.));
#517=CARTESIAN_POINT('',(-3.94064165252239,3.9406416525224,0.));
#518=CARTESIAN_POINT('',(-3.9406416525224,-3.94064165252238,0.));
#519=CARTESIAN_POINT('',(3.94064165252238,-3.94064165252241,0.));
#520=CARTESIAN_POINT('',(3.9406416525224,3.94064165252238,0.));
#521=CARTESIAN_POINT('',(0.,0.,0.));
#522=CARTESIAN_POINT('',(-3.66377934005688,3.66377934005689,-1.42433312146529));
#523=CARTESIAN_POINT('',(-3.66377934005689,-3.66377934005687,-1.42433312146528));
#524=CARTESIAN_POINT('',(3.97642824323308,3.97642824323306,0.184106048958497));
#525=CARTESIAN_POINT('',(3.97642824323306,-3.97642824323308,0.184106048958495));
#526=CARTESIAN_POINT('',(0.,0.,-0.127660817715597));
#527=CARTESIAN_POINT('',(2.41015665409465,0.,-0.127660817715597));
#528=CARTESIAN_POINT('',(0.,0.,0.2));
#529=CARTESIAN_POINT('',(0.,0.,-0.34));
#530=CARTESIAN_POINT('',(2.33496340597176,0.,-0.34));
#531=CARTESIAN_POINT('',(0.,0.,-0.369399455546057));
#532=CARTESIAN_POINT('',(0.,0.,-0.654896508694639));
#533=CARTESIAN_POINT('',(2.3129436970266,0.,-0.654896508694639));
#534=CARTESIAN_POINT('',(0.,0.,-0.34));
#535=CARTESIAN_POINT('',(0.,0.,-0.958782979622675));
#536=CARTESIAN_POINT('',(2.18190951043434,0.,-0.958782979622675));
#537=CARTESIAN_POINT('',(0.,0.,-0.620018271822576));
#538=CARTESIAN_POINT('',(0.,0.,-2.44934769394311));
#539=CARTESIAN_POINT('',(1.6,0.,-2.44934769394311));
#540=CARTESIAN_POINT('',(0.,0.,-2.44934769394311));
#541=CARTESIAN_POINT('',(0.,0.,-2.275));
#542=MECHANICAL_DESIGN_GEOMETRIC_PRESENTATION_REPRESENTATION('',(#287,#288,
#289,#290,#291,#292),#543);
#543=(
GEOMETRIC_REPRESENTATION_CONTEXT(3)
GLOBAL_UNCERTAINTY_ASSIGNED_CONTEXT((#544))
GLOBAL_UNIT_ASSIGNED_CONTEXT((#550,#546,#545))
REPRESENTATION_CONTEXT('aaa336598_b','TOP_LEVEL_ASSEMBLY_PART')
);
#544=UNCERTAINTY_MEASURE_WITH_UNIT(LENGTH_MEASURE(2.E-5),#550,
'DISTANCE_ACCURACY_VALUE','Maximum Tolerance applied to model');
#545=(
NAMED_UNIT(*)
SI_UNIT($,.STERADIAN.)
SOLID_ANGLE_UNIT()
);
#546=(
CONVERSION_BASED_UNIT('DEGREE',#548)
NAMED_UNIT(#547)
PLANE_ANGLE_UNIT()
);
#547=DIMENSIONAL_EXPONENTS(0.,0.,0.,0.,0.,0.,0.);
#548=PLANE_ANGLE_MEASURE_WITH_UNIT(PLANE_ANGLE_MEASURE(0.0174532925),#549);
#549=(
NAMED_UNIT(*)
PLANE_ANGLE_UNIT()
SI_UNIT($,.RADIAN.)
);
#550=(
LENGTH_UNIT()
NAMED_UNIT(*)
SI_UNIT(.MILLI.,.METRE.)
);
ENDSEC;
END-ISO-10303-21;
