ISO-10303-21;
HEADER;
/* Generated by software containing ST-Developer
 * from STEP Tools, Inc. (www.steptools.com) 
 */
/* OPTION: using custom schema-name function */

FILE_DESCRIPTION(
/* description */ (''),
/* implementation_level */ '2;1');

FILE_NAME(
/* name */ 'aaa336600_b.stp',
/* time_stamp */ '2020-06-10T15:36:14+02:00',
/* author */ (''),
/* organization */ ('SMS'),
/* preprocessor_version */ 'ST-DEVELOPER v16.7',
/* originating_system */ 'SIEMENS PLM Software NX 12.0',
/* authorisation */ '');

FILE_SCHEMA (('AUTOMOTIVE_DESIGN { 1 0 10303 214 3 1 1 1 }'));
ENDSEC;

DATA;
#10=CONSTRUCTIVE_GEOMETRY_REPRESENTATION_RELATIONSHIP(
'supplemental geometry','',#26,#11);
#11=CONSTRUCTIVE_GEOMETRY_REPRESENTATION('supplemental geometry',(#284,
#285),#503);
#12=GEOMETRICALLY_BOUNDED_WIREFRAME_SHAPE_REPRESENTATION(
'AAA336600_B-None',(#27),#503);
#13=SHAPE_REPRESENTATION_RELATIONSHIP('None',
'relationship between AAA336600_B-None and AAA336600_B-None',#26,#15);
#14=SHAPE_REPRESENTATION_RELATIONSHIP('None',
'relationship between AAA336600_B-None and AAA336600_B-None',#26,#12);
#15=ADVANCED_BREP_SHAPE_REPRESENTATION('AAA336600_B-None',(#33),#503);
#16=SHAPE_DEFINITION_REPRESENTATION(#17,#26);
#17=PRODUCT_DEFINITION_SHAPE('','',#18);
#18=PRODUCT_DEFINITION(' ','',#20,#19);
#19=PRODUCT_DEFINITION_CONTEXT('part definition',#25,'design');
#20=PRODUCT_DEFINITION_FORMATION_WITH_SPECIFIED_SOURCE(' ',' ',#22,
 .NOT_KNOWN.);
#21=PRODUCT_RELATED_PRODUCT_CATEGORY('part','',(#22));
#22=PRODUCT('AAA336600_B','AAA336600_B',' ',(#23));
#23=PRODUCT_CONTEXT(' ',#25,'mechanical');
#24=APPLICATION_PROTOCOL_DEFINITION('international standard',
'automotive_design',2010,#25);
#25=APPLICATION_CONTEXT(
'core data for automotive mechanical design processes');
#26=SHAPE_REPRESENTATION('AAA336600_B-None',(#283),#503);
#27=GEOMETRIC_CURVE_SET('None',(#390,#391,#263));
#28=SURFACE_STYLE_USAGE(.BOTH.,#29);
#29=SURFACE_SIDE_STYLE('',(#30));
#30=SURFACE_STYLE_FILL_AREA(#31);
#31=FILL_AREA_STYLE('',(#32));
#32=FILL_AREA_STYLE_COLOUR('',#282);
#33=MANIFOLD_SOLID_BREP('CUT',#34);
#34=CLOSED_SHELL('',(#51,#52,#53,#54,#55,#56,#57,#58,#59,#60,#61,#62,#63,
#64));
#35=TOROIDAL_SURFACE('',#311,2.16426379859585,0.5);
#36=TOROIDAL_SURFACE('',#312,4.,2.);
#37=CONICAL_SURFACE('',#307,2.66304582372577,3.99999999999983);
#38=CYLINDRICAL_SURFACE('',#302,0.5);
#39=CYLINDRICAL_SURFACE('',#303,0.5);
#40=CYLINDRICAL_SURFACE('',#304,0.5);
#41=CYLINDRICAL_SURFACE('',#305,0.5);
#42=CYLINDRICAL_SURFACE('',#309,2.);
#43=FACE_OUTER_BOUND('',#92,.T.);
#44=FACE_OUTER_BOUND('',#93,.T.);
#45=FACE_OUTER_BOUND('',#94,.T.);
#46=FACE_OUTER_BOUND('',#95,.T.);
#47=FACE_OUTER_BOUND('',#96,.T.);
#48=FACE_OUTER_BOUND('',#97,.T.);
#49=FACE_OUTER_BOUND('',#98,.T.);
#50=FACE_OUTER_BOUND('',#99,.T.);
#51=ADVANCED_FACE('',(#76,#77),#65,.T.);
#52=ADVANCED_FACE('',(#78,#79),#66,.F.);
#53=ADVANCED_FACE('',(#43),#67,.T.);
#54=ADVANCED_FACE('',(#44),#68,.T.);
#55=ADVANCED_FACE('',(#45),#69,.T.);
#56=ADVANCED_FACE('',(#46),#70,.T.);
#57=ADVANCED_FACE('',(#47),#38,.T.);
#58=ADVANCED_FACE('',(#48),#39,.T.);
#59=ADVANCED_FACE('',(#49),#40,.T.);
#60=ADVANCED_FACE('',(#50),#41,.T.);
#61=ADVANCED_FACE('',(#80,#81),#37,.F.);
#62=ADVANCED_FACE('',(#82,#83),#42,.F.);
#63=ADVANCED_FACE('',(#84,#85),#35,.F.);
#64=ADVANCED_FACE('',(#86,#87),#36,.T.);
#65=PLANE('',#291);
#66=PLANE('',#297);
#67=PLANE('',#298);
#68=PLANE('',#299);
#69=PLANE('',#300);
#70=PLANE('',#301);
#71=CIRCLE('',#290,2.);
#72=CIRCLE('',#296,2.69894876836046);
#73=CIRCLE('',#306,2.66304582372577);
#74=CIRCLE('',#308,2.);
#75=CIRCLE('',#310,2.53141103887668);
#76=FACE_BOUND('',#88,.T.);
#77=FACE_BOUND('',#89,.T.);
#78=FACE_BOUND('',#90,.T.);
#79=FACE_BOUND('',#91,.T.);
#80=FACE_BOUND('',#100,.T.);
#81=FACE_BOUND('',#101,.T.);
#82=FACE_BOUND('',#102,.T.);
#83=FACE_BOUND('',#103,.T.);
#84=FACE_BOUND('',#104,.T.);
#85=FACE_BOUND('',#105,.T.);
#86=FACE_BOUND('',#106,.T.);
#87=FACE_BOUND('',#107,.T.);
#88=EDGE_LOOP('',(#116,#117,#118,#119,#120,#121,#122,#123));
#89=EDGE_LOOP('',(#124));
#90=EDGE_LOOP('',(#125,#126,#127,#128,#129,#130,#131,#132));
#91=EDGE_LOOP('',(#133));
#92=EDGE_LOOP('',(#134,#135,#136,#137));
#93=EDGE_LOOP('',(#138,#139,#140,#141));
#94=EDGE_LOOP('',(#142,#143,#144,#145));
#95=EDGE_LOOP('',(#146,#147,#148,#149));
#96=EDGE_LOOP('',(#150,#151,#152,#153));
#97=EDGE_LOOP('',(#154,#155,#156,#157));
#98=EDGE_LOOP('',(#158,#159,#160,#161));
#99=EDGE_LOOP('',(#162,#163,#164,#165));
#100=EDGE_LOOP('',(#166));
#101=EDGE_LOOP('',(#167));
#102=EDGE_LOOP('',(#168));
#103=EDGE_LOOP('',(#169));
#104=EDGE_LOOP('',(#170));
#105=EDGE_LOOP('',(#171));
#106=EDGE_LOOP('',(#172));
#107=EDGE_LOOP('',(#173));
#108=ELLIPSE('',#286,0.518547830282065,0.5);
#109=ELLIPSE('',#287,0.518547830282065,0.5);
#110=ELLIPSE('',#288,0.518547830282065,0.5);
#111=ELLIPSE('',#289,0.518547830282065,0.5);
#112=ELLIPSE('',#292,0.518547830282065,0.5);
#113=ELLIPSE('',#293,0.518547830282065,0.5);
#114=ELLIPSE('',#294,0.518547830282065,0.5);
#115=ELLIPSE('',#295,0.518547830282065,0.5);
#116=ORIENTED_EDGE('',*,*,#195,.T.);
#117=ORIENTED_EDGE('',*,*,#196,.T.);
#118=ORIENTED_EDGE('',*,*,#197,.T.);
#119=ORIENTED_EDGE('',*,*,#198,.T.);
#120=ORIENTED_EDGE('',*,*,#199,.T.);
#121=ORIENTED_EDGE('',*,*,#200,.T.);
#122=ORIENTED_EDGE('',*,*,#201,.T.);
#123=ORIENTED_EDGE('',*,*,#202,.T.);
#124=ORIENTED_EDGE('',*,*,#203,.T.);
#125=ORIENTED_EDGE('',*,*,#204,.F.);
#126=ORIENTED_EDGE('',*,*,#205,.T.);
#127=ORIENTED_EDGE('',*,*,#206,.F.);
#128=ORIENTED_EDGE('',*,*,#207,.T.);
#129=ORIENTED_EDGE('',*,*,#208,.F.);
#130=ORIENTED_EDGE('',*,*,#209,.T.);
#131=ORIENTED_EDGE('',*,*,#210,.F.);
#132=ORIENTED_EDGE('',*,*,#211,.T.);
#133=ORIENTED_EDGE('',*,*,#212,.F.);
#134=ORIENTED_EDGE('',*,*,#199,.F.);
#135=ORIENTED_EDGE('',*,*,#213,.T.);
#136=ORIENTED_EDGE('',*,*,#210,.T.);
#137=ORIENTED_EDGE('',*,*,#214,.T.);
#138=ORIENTED_EDGE('',*,*,#208,.T.);
#139=ORIENTED_EDGE('',*,*,#215,.T.);
#140=ORIENTED_EDGE('',*,*,#201,.F.);
#141=ORIENTED_EDGE('',*,*,#216,.T.);
#142=ORIENTED_EDGE('',*,*,#206,.T.);
#143=ORIENTED_EDGE('',*,*,#217,.T.);
#144=ORIENTED_EDGE('',*,*,#195,.F.);
#145=ORIENTED_EDGE('',*,*,#218,.T.);
#146=ORIENTED_EDGE('',*,*,#197,.F.);
#147=ORIENTED_EDGE('',*,*,#219,.T.);
#148=ORIENTED_EDGE('',*,*,#204,.T.);
#149=ORIENTED_EDGE('',*,*,#220,.T.);
#150=ORIENTED_EDGE('',*,*,#196,.F.);
#151=ORIENTED_EDGE('',*,*,#217,.F.);
#152=ORIENTED_EDGE('',*,*,#205,.F.);
#153=ORIENTED_EDGE('',*,*,#219,.F.);
#154=ORIENTED_EDGE('',*,*,#202,.F.);
#155=ORIENTED_EDGE('',*,*,#215,.F.);
#156=ORIENTED_EDGE('',*,*,#207,.F.);
#157=ORIENTED_EDGE('',*,*,#218,.F.);
#158=ORIENTED_EDGE('',*,*,#198,.F.);
#159=ORIENTED_EDGE('',*,*,#220,.F.);
#160=ORIENTED_EDGE('',*,*,#211,.F.);
#161=ORIENTED_EDGE('',*,*,#213,.F.);
#162=ORIENTED_EDGE('',*,*,#200,.F.);
#163=ORIENTED_EDGE('',*,*,#214,.F.);
#164=ORIENTED_EDGE('',*,*,#209,.F.);
#165=ORIENTED_EDGE('',*,*,#216,.F.);
#166=ORIENTED_EDGE('',*,*,#221,.T.);
#167=ORIENTED_EDGE('',*,*,#212,.T.);
#168=ORIENTED_EDGE('',*,*,#203,.F.);
#169=ORIENTED_EDGE('',*,*,#222,.F.);
#170=ORIENTED_EDGE('',*,*,#221,.F.);
#171=ORIENTED_EDGE('',*,*,#223,.T.);
#172=ORIENTED_EDGE('',*,*,#222,.T.);
#173=ORIENTED_EDGE('',*,*,#223,.F.);
#174=VERTEX_POINT('',#439);
#175=VERTEX_POINT('',#440);
#176=VERTEX_POINT('',#442);
#177=VERTEX_POINT('',#444);
#178=VERTEX_POINT('',#446);
#179=VERTEX_POINT('',#448);
#180=VERTEX_POINT('',#450);
#181=VERTEX_POINT('',#452);
#182=VERTEX_POINT('',#455);
#183=VERTEX_POINT('',#458);
#184=VERTEX_POINT('',#459);
#185=VERTEX_POINT('',#461);
#186=VERTEX_POINT('',#463);
#187=VERTEX_POINT('',#465);
#188=VERTEX_POINT('',#467);
#189=VERTEX_POINT('',#469);
#190=VERTEX_POINT('',#471);
#191=VERTEX_POINT('',#474);
#192=VERTEX_POINT('',#493);
#193=VERTEX_POINT('',#496);
#194=VERTEX_POINT('',#499);
#195=EDGE_CURVE('',#174,#175,#224,.T.);
#196=EDGE_CURVE('',#175,#176,#108,.T.);
#197=EDGE_CURVE('',#176,#177,#225,.T.);
#198=EDGE_CURVE('',#177,#178,#109,.T.);
#199=EDGE_CURVE('',#178,#179,#226,.T.);
#200=EDGE_CURVE('',#179,#180,#110,.T.);
#201=EDGE_CURVE('',#180,#181,#227,.T.);
#202=EDGE_CURVE('',#181,#174,#111,.T.);
#203=EDGE_CURVE('',#182,#182,#71,.T.);
#204=EDGE_CURVE('',#183,#184,#228,.T.);
#205=EDGE_CURVE('',#183,#185,#112,.T.);
#206=EDGE_CURVE('',#186,#185,#229,.T.);
#207=EDGE_CURVE('',#186,#187,#113,.T.);
#208=EDGE_CURVE('',#188,#187,#230,.T.);
#209=EDGE_CURVE('',#188,#189,#114,.T.);
#210=EDGE_CURVE('',#190,#189,#231,.T.);
#211=EDGE_CURVE('',#190,#184,#115,.T.);
#212=EDGE_CURVE('',#191,#191,#72,.T.);
#213=EDGE_CURVE('',#178,#190,#232,.T.);
#214=EDGE_CURVE('',#189,#179,#233,.T.);
#215=EDGE_CURVE('',#187,#181,#234,.T.);
#216=EDGE_CURVE('',#180,#188,#235,.T.);
#217=EDGE_CURVE('',#185,#175,#236,.T.);
#218=EDGE_CURVE('',#174,#186,#237,.T.);
#219=EDGE_CURVE('',#176,#183,#238,.T.);
#220=EDGE_CURVE('',#184,#177,#239,.T.);
#221=EDGE_CURVE('',#192,#192,#73,.T.);
#222=EDGE_CURVE('',#193,#193,#74,.T.);
#223=EDGE_CURVE('',#194,#194,#75,.T.);
#224=LINE('',#438,#240);
#225=LINE('',#443,#241);
#226=LINE('',#447,#242);
#227=LINE('',#451,#243);
#228=LINE('',#457,#244);
#229=LINE('',#462,#245);
#230=LINE('',#466,#246);
#231=LINE('',#470,#247);
#232=LINE('',#476,#248);
#233=LINE('',#477,#249);
#234=LINE('',#479,#250);
#235=LINE('',#480,#251);
#236=LINE('',#482,#252);
#237=LINE('',#483,#253);
#238=LINE('',#485,#254);
#239=LINE('',#486,#255);
#240=VECTOR('',#319,1.);
#241=VECTOR('',#322,1.);
#242=VECTOR('',#325,1.);
#243=VECTOR('',#328,1.);
#244=VECTOR('',#335,1.);
#245=VECTOR('',#338,1.);
#246=VECTOR('',#341,1.);
#247=VECTOR('',#344,1.);
#248=VECTOR('',#351,1.);
#249=VECTOR('',#352,1.);
#250=VECTOR('',#355,1.);
#251=VECTOR('',#356,1.);
#252=VECTOR('',#359,1.);
#253=VECTOR('',#360,1.);
#254=VECTOR('',#363,1.);
#255=VECTOR('',#364,1.);
#256=CURVE_STYLE('',#260,POSITIVE_LENGTH_MEASURE(0.25),#259);
#257=CURVE_STYLE('',#261,POSITIVE_LENGTH_MEASURE(0.18),#281);
#258=CURVE_STYLE('',#262,POSITIVE_LENGTH_MEASURE(0.18),#281);
#259=DRAUGHTING_PRE_DEFINED_COLOUR('blue');
#260=DRAUGHTING_PRE_DEFINED_CURVE_FONT('continuous');
#261=DRAUGHTING_PRE_DEFINED_CURVE_FONT('continuous');
#262=DRAUGHTING_PRE_DEFINED_CURVE_FONT('continuous');
#263=B_SPLINE_CURVE_WITH_KNOTS('CUTTING EDGE LINE',3,(#392,#393,#394,#395,
#396,#397,#398,#399,#400,#401,#402,#403,#404,#405,#406,#407,#408,#409,#410,
#411,#412,#413,#414,#415,#416,#417,#418,#419,#420,#421,#422,#423,#424,#425,
#426,#427,#428,#429,#430,#431,#432,#433,#434,#435),.UNSPECIFIED.,.T.,.F.,
(1,1,2,1,1,1,1,1,1,1,1,1,1,1,1,1,1,1,1,1,1,1,1,1,1,1,1,1,1,1,1,1,1,1,1,
1,1,1,1,1,1,1,1,2,1,1),(-0.0092453576,-0.00462267879999989,0.,0.1157546424,
0.23006235177,0.2315092848,0.2338206242,0.2361319636,0.2407546424,0.2453773212,
0.2476886606,0.25,0.2510851997725,0.3078773212,0.3657546424,0.48006235177,
0.4815092848,0.4838206242,0.4861319636,0.4907546424,0.4953773212,0.4976886606,
0.5,0.5010851997725,0.5578773212,0.6157546424,0.73006235177,0.7315092848,
0.7338206242,0.7361319636,0.7407546424,0.7453773212,0.7476886606,0.75,0.7510851997725,
0.8078773212,0.8657546424,0.98006235177,0.9815092848,0.9838206242,0.9861319636,
0.9907546424,0.9953773212,1.,1.1157546424,1.23006235177),.UNSPECIFIED.);
#264=PRESENTATION_LAYER_ASSIGNMENT('1','Layer 1',(#390,#391,#263,#284,#285,
#33));
#265=STYLED_ITEM('',(#271),#390);
#266=STYLED_ITEM('',(#272),#391);
#267=STYLED_ITEM('',(#273),#263);
#268=STYLED_ITEM('',(#274),#284);
#269=STYLED_ITEM('',(#275),#285);
#270=STYLED_ITEM('',(#276),#33);
#271=PRESENTATION_STYLE_ASSIGNMENT((#277));
#272=PRESENTATION_STYLE_ASSIGNMENT((#278));
#273=PRESENTATION_STYLE_ASSIGNMENT((#256));
#274=PRESENTATION_STYLE_ASSIGNMENT((#257));
#275=PRESENTATION_STYLE_ASSIGNMENT((#258));
#276=PRESENTATION_STYLE_ASSIGNMENT((#28));
#277=POINT_STYLE('',#279,POSITIVE_LENGTH_MEASURE(3.),#281);
#278=POINT_STYLE('',#280,POSITIVE_LENGTH_MEASURE(3.),#281);
#279=PRE_DEFINED_POINT_MARKER_SYMBOL('plus');
#280=PRE_DEFINED_POINT_MARKER_SYMBOL('plus');
#281=COLOUR_RGB('Medium Maroon',0.6,0.4,0.4);
#282=COLOUR_RGB('Light Gray',0.8,0.8,0.8);
#283=AXIS2_PLACEMENT_3D('',#389,#313,#314);
#284=AXIS2_PLACEMENT_3D('MCS',#436,#315,#316);
#285=AXIS2_PLACEMENT_3D('PCS',#437,#317,#318);
#286=AXIS2_PLACEMENT_3D('',#441,#320,#321);
#287=AXIS2_PLACEMENT_3D('',#445,#323,#324);
#288=AXIS2_PLACEMENT_3D('',#449,#326,#327);
#289=AXIS2_PLACEMENT_3D('',#453,#329,#330);
#290=AXIS2_PLACEMENT_3D('',#454,#331,#332);
#291=AXIS2_PLACEMENT_3D('',#456,#333,#334);
#292=AXIS2_PLACEMENT_3D('',#460,#336,#337);
#293=AXIS2_PLACEMENT_3D('',#464,#339,#340);
#294=AXIS2_PLACEMENT_3D('',#468,#342,#343);
#295=AXIS2_PLACEMENT_3D('',#472,#345,#346);
#296=AXIS2_PLACEMENT_3D('',#473,#347,#348);
#297=AXIS2_PLACEMENT_3D('',#475,#349,#350);
#298=AXIS2_PLACEMENT_3D('',#478,#353,#354);
#299=AXIS2_PLACEMENT_3D('',#481,#357,#358);
#300=AXIS2_PLACEMENT_3D('',#484,#361,#362);
#301=AXIS2_PLACEMENT_3D('',#487,#365,#366);
#302=AXIS2_PLACEMENT_3D('',#488,#367,#368);
#303=AXIS2_PLACEMENT_3D('',#489,#369,#370);
#304=AXIS2_PLACEMENT_3D('',#490,#371,#372);
#305=AXIS2_PLACEMENT_3D('',#491,#373,#374);
#306=AXIS2_PLACEMENT_3D('',#492,#375,#376);
#307=AXIS2_PLACEMENT_3D('',#494,#377,#378);
#308=AXIS2_PLACEMENT_3D('',#495,#379,#380);
#309=AXIS2_PLACEMENT_3D('',#497,#381,#382);
#310=AXIS2_PLACEMENT_3D('',#498,#383,#384);
#311=AXIS2_PLACEMENT_3D('',#500,#385,#386);
#312=AXIS2_PLACEMENT_3D('',#501,#387,#388);
#313=DIRECTION('',(0.,0.,1.));
#314=DIRECTION('',(1.,0.,0.));
#315=DIRECTION('',(0.,0.,1.));
#316=DIRECTION('',(1.,0.,0.));
#317=DIRECTION('',(0.,0.,1.));
#318=DIRECTION('',(1.,0.,0.));
#319=DIRECTION('',(1.71029075096305E-15,1.,0.));
#320=DIRECTION('',(0.,0.,-1.));
#321=DIRECTION('',(-0.707106781186546,0.707106781186549,0.));
#322=DIRECTION('',(1.,-2.68759975151336E-15,0.));
#323=DIRECTION('',(0.,0.,-1.));
#324=DIRECTION('',(0.70710678118655,0.707106781186546,0.));
#325=DIRECTION('',(-2.85048458493841E-15,-1.,0.));
#326=DIRECTION('',(0.,0.,-1.));
#327=DIRECTION('',(0.707106781186545,-0.70710678118655,0.));
#328=DIRECTION('',(-1.,3.82779358548873E-15,0.));
#329=DIRECTION('',(0.,0.,-1.));
#330=DIRECTION('',(-0.707106781186549,-0.707106781186546,0.));
#331=DIRECTION('',(0.,0.,1.));
#332=DIRECTION('',(-1.,0.,0.));
#333=DIRECTION('',(0.,0.,-1.));
#334=DIRECTION('',(-1.,0.,0.));
#335=DIRECTION('',(1.,-2.68759975151336E-15,0.));
#336=DIRECTION('',(0.,0.,1.));
#337=DIRECTION('',(-0.707106781186546,0.707106781186549,0.));
#338=DIRECTION('',(1.71029075096305E-15,1.,0.));
#339=DIRECTION('',(0.,0.,1.));
#340=DIRECTION('',(-0.707106781186549,-0.707106781186546,0.));
#341=DIRECTION('',(-1.,3.82779358548873E-15,0.));
#342=DIRECTION('',(0.,0.,1.));
#343=DIRECTION('',(0.707106781186545,-0.70710678118655,0.));
#344=DIRECTION('',(-2.85048458493841E-15,-1.,0.));
#345=DIRECTION('',(0.,0.,1.));
#346=DIRECTION('',(0.70710678118655,0.707106781186546,0.));
#347=DIRECTION('',(0.,0.,1.));
#348=DIRECTION('',(-1.,0.,0.));
#349=DIRECTION('',(0.,0.,-1.));
#350=DIRECTION('',(-1.,0.,0.));
#351=DIRECTION('',(0.187427559991896,0.187427559991895,0.964231206459824));
#352=DIRECTION('',(-0.187427559991895,0.187427559991897,-0.964231206459825));
#353=DIRECTION('',(0.981627183447664,-2.79811315457408E-15,-0.190808995376545));
#354=DIRECTION('',(-0.190808995376545,0.,-0.981627183447664));
#355=DIRECTION('',(0.187427559991896,0.187427559991895,-0.964231206459825));
#356=DIRECTION('',(0.187427559991895,-0.187427559991897,0.964231206459825));
#357=DIRECTION('',(-3.75746623614234E-15,-0.981627183447664,-0.190808995376545));
#358=DIRECTION('',(0.,0.190808995376545,-0.981627183447664));
#359=DIRECTION('',(0.187427559991896,-0.187427559991896,-0.964231206459825));
#360=DIRECTION('',(-0.187427559991896,-0.187427559991895,0.964231206459825));
#361=DIRECTION('',(-0.981627183447664,1.67886789274445E-15,-0.190808995376545));
#362=DIRECTION('',(-0.190808995376545,0.,0.981627183447664));
#363=DIRECTION('',(-0.187427559991895,0.187427559991896,0.964231206459824));
#364=DIRECTION('',(-0.187427559991896,-0.187427559991895,-0.964231206459825));
#365=DIRECTION('',(2.6382209743127E-15,0.981627183447664,-0.190808995376545));
#366=DIRECTION('',(0.,0.190808995376545,0.981627183447664));
#367=DIRECTION('',(-0.187427559991895,0.187427559991896,0.964231206459825));
#368=DIRECTION('',(0.,-0.981627183447664,0.190808995376545));
#369=DIRECTION('',(-0.187427559991896,-0.187427559991895,0.964231206459825));
#370=DIRECTION('',(0.981627183447664,0.,0.190808995376545));
#371=DIRECTION('',(0.187427559991896,0.187427559991895,0.964231206459825));
#372=DIRECTION('',(0.981627183447664,0.,-0.190808995376545));
#373=DIRECTION('',(0.187427559991895,-0.187427559991897,0.964231206459825));
#374=DIRECTION('',(0.,-0.981627183447664,-0.190808995376545));
#375=DIRECTION('',(0.,0.,-1.));
#376=DIRECTION('',(1.,0.,0.));
#377=DIRECTION('',(0.,0.,1.));
#378=DIRECTION('',(1.,0.,6.45235233847174E-16));
#379=DIRECTION('',(0.,0.,-1.));
#380=DIRECTION('',(1.,0.,0.));
#381=DIRECTION('',(0.,0.,1.));
#382=DIRECTION('',(1.,0.,0.));
#383=DIRECTION('',(0.,0.,-1.));
#384=DIRECTION('',(1.,0.,0.));
#385=DIRECTION('',(0.,0.,1.));
#386=DIRECTION('',(1.,0.,0.));
#387=DIRECTION('',(0.,0.,1.));
#388=DIRECTION('',(1.,0.,0.));
#389=CARTESIAN_POINT('',(0.,0.,0.));
#390=CARTESIAN_POINT('',(0.,0.,0.));
#391=CARTESIAN_POINT('',(-5.32500000000001,-5.32499999999998,0.));
#392=CARTESIAN_POINT('',(-4.89853772545975,-5.32499999999998,0.));
#393=CARTESIAN_POINT('',(-3.22279093885079,-5.32499999999999,0.));
#394=CARTESIAN_POINT('',(-0.0201424433678298,-5.325,0.));
#395=CARTESIAN_POINT('',(3.20264849548295,-5.32500000000001,0.));
#396=CARTESIAN_POINT('',(4.84621628891102,-5.32596843683554,0.));
#397=CARTESIAN_POINT('',(4.93073469006659,-5.31881205303098,0.));
#398=CARTESIAN_POINT('',(5.05469999665973,-5.28213552019109,0.));
#399=CARTESIAN_POINT('',(5.19157206052249,-5.1915720605272,0.));
#400=CARTESIAN_POINT('',(5.28213552019479,-5.05469999664947,0.));
#401=CARTESIAN_POINT('',(5.3188120530323,-4.9307346900633,0.));
#402=CARTESIAN_POINT('',(5.32572632762647,-4.85125273338252,0.));
#403=CARTESIAN_POINT('',(5.32499999999999,-4.01338184103763,0.));
#404=CARTESIAN_POINT('',(5.32499999999999,-2.40198637161224,0.));
#405=CARTESIAN_POINT('',(5.325,0.785555291344861,0.));
#406=CARTESIAN_POINT('',(5.32500000000001,3.20264849548295,0.));
#407=CARTESIAN_POINT('',(5.32596843683553,4.84621628891102,0.));
#408=CARTESIAN_POINT('',(5.31881205303098,4.93073469006659,0.));
#409=CARTESIAN_POINT('',(5.28213552019108,5.05469999665973,0.));
#410=CARTESIAN_POINT('',(5.1915720605272,5.19157206052249,0.));
#411=CARTESIAN_POINT('',(5.05469999664946,5.28213552019479,0.));
#412=CARTESIAN_POINT('',(4.93073469006329,5.31881205303231,0.));
#413=CARTESIAN_POINT('',(4.85125273338252,5.32572632762647,0.));
#414=CARTESIAN_POINT('',(4.01338184103763,5.32499999999999,0.));
#415=CARTESIAN_POINT('',(2.40198637161224,5.32499999999999,0.));
#416=CARTESIAN_POINT('',(-0.785555291344865,5.325,0.));
#417=CARTESIAN_POINT('',(-3.20264849548295,5.32500000000001,0.));
#418=CARTESIAN_POINT('',(-4.84621628891157,5.32596843683512,0.));
#419=CARTESIAN_POINT('',(-4.93073469006313,5.31881205303362,0.));
#420=CARTESIAN_POINT('',(-5.05469999665532,5.28213552019278,0.));
#421=CARTESIAN_POINT('',(-5.19157206056529,5.19157206048441,0.));
#422=CARTESIAN_POINT('',(-5.2821355201931,5.05469999665387,0.));
#423=CARTESIAN_POINT('',(-5.31881205302966,4.93073469006676,0.));
#424=CARTESIAN_POINT('',(-5.32572632762679,4.85125273338211,0.));
#425=CARTESIAN_POINT('',(-5.32499999999999,4.01338184103762,0.));
#426=CARTESIAN_POINT('',(-5.325,2.40198637161224,0.));
#427=CARTESIAN_POINT('',(-5.325,-0.785555291344861,0.));
#428=CARTESIAN_POINT('',(-5.32500000000001,-3.20264849548294,0.));
#429=CARTESIAN_POINT('',(-5.32596843683511,-4.84621628891156,0.));
#430=CARTESIAN_POINT('',(-5.31881205303362,-4.93073469006312,0.));
#431=CARTESIAN_POINT('',(-5.28213552019277,-5.05469999665531,0.));
#432=CARTESIAN_POINT('',(-5.1915720604844,-5.19157206056528,0.));
#433=CARTESIAN_POINT('',(-5.02732558388776,-5.30024821211865,0.));
#434=CARTESIAN_POINT('',(-4.89853772545975,-5.32499999999998,0.));
#435=CARTESIAN_POINT('',(-3.22279093885079,-5.32499999999999,0.));
#436=CARTESIAN_POINT('',(0.,0.,0.));
#437=CARTESIAN_POINT('',(-5.32500000000001,-5.32499999999998,0.));
#438=CARTESIAN_POINT('',(-4.64466891801798,5.325,-3.5));
#439=CARTESIAN_POINT('',(-4.64466891801799,-4.15385532629414,-3.5));
#440=CARTESIAN_POINT('',(-4.64466891801798,4.15385532629417,-3.5));
#441=CARTESIAN_POINT('',(-4.13531057054037,4.13531057054039,-3.5));
#442=CARTESIAN_POINT('',(-4.15385532629415,4.644668918018,-3.5));
#443=CARTESIAN_POINT('',(5.32500000000001,4.64466891801797,-3.5));
#444=CARTESIAN_POINT('',(4.15385532629417,4.64466891801798,-3.5));
#445=CARTESIAN_POINT('',(4.13531057054039,4.13531057054037,-3.5));
#446=CARTESIAN_POINT('',(4.644668918018,4.15385532629414,-3.5));
#447=CARTESIAN_POINT('',(4.644668918018,5.32499999999999,-3.5));
#448=CARTESIAN_POINT('',(4.64466891801797,-4.15385532629417,-3.5));
#449=CARTESIAN_POINT('',(4.13531057054037,-4.1353105705404,-3.5));
#450=CARTESIAN_POINT('',(4.15385532629414,-4.644668918018,-3.5));
#451=CARTESIAN_POINT('',(5.32499999999998,-4.64466891801801,-3.5));
#452=CARTESIAN_POINT('',(-4.15385532629416,-4.64466891801797,-3.5));
#453=CARTESIAN_POINT('',(-4.13531057054039,-4.13531057054036,-3.5));
#454=CARTESIAN_POINT('',(0.,0.,-3.5));
#455=CARTESIAN_POINT('',(-2.,0.,-3.5));
#456=CARTESIAN_POINT('',(0.,0.,-3.5));
#457=CARTESIAN_POINT('',(5.32500000000002,5.32499999999999,0.));
#458=CARTESIAN_POINT('',(-4.83418640827616,5.32500000000001,0.));
#459=CARTESIAN_POINT('',(4.83418640827618,5.32499999999999,0.));
#460=CARTESIAN_POINT('',(-4.81564165252239,4.81564165252241,0.));
#461=CARTESIAN_POINT('',(-5.32499999999999,4.83418640827618,0.));
#462=CARTESIAN_POINT('',(-5.32499999999999,5.325,0.));
#463=CARTESIAN_POINT('',(-5.32500000000001,-4.83418640827615,0.));
#464=CARTESIAN_POINT('',(-4.8156416525224,-4.81564165252238,0.));
#465=CARTESIAN_POINT('',(-4.83418640827618,-5.32499999999998,0.));
#466=CARTESIAN_POINT('',(5.32499999999997,-5.32500000000002,0.));
#467=CARTESIAN_POINT('',(4.83418640827615,-5.32500000000002,0.));
#468=CARTESIAN_POINT('',(4.81564165252238,-4.81564165252241,0.));
#469=CARTESIAN_POINT('',(5.32499999999999,-4.83418640827619,0.));
#470=CARTESIAN_POINT('',(5.32500000000002,5.32499999999999,0.));
#471=CARTESIAN_POINT('',(5.32500000000001,4.83418640827615,0.));
#472=CARTESIAN_POINT('',(4.81564165252241,4.81564165252238,0.));
#473=CARTESIAN_POINT('',(0.,0.,0.));
#474=CARTESIAN_POINT('',(-2.69894876836046,0.,0.));
#475=CARTESIAN_POINT('',(0.,0.,0.));
#476=CARTESIAN_POINT('',(5.34224183495692,4.85142824323305,0.0887015512702243));
#477=CARTESIAN_POINT('',(4.9681170238528,-4.477303432129,-1.83600374816947));
#478=CARTESIAN_POINT('',(5.32500000000002,5.32499999999999,0.));
#479=CARTESIAN_POINT('',(-4.47730343212899,-4.96811702385279,-1.83600374816946));
#480=CARTESIAN_POINT('',(4.85142824323305,-5.34224183495692,0.0887015512702226));
#481=CARTESIAN_POINT('',(5.32499999999997,-5.32500000000002,0.));
#482=CARTESIAN_POINT('',(-5.34224183495689,4.85142824323308,0.0887015512702224));
#483=CARTESIAN_POINT('',(-4.96811702385282,-4.47730343212896,-1.83600374816946));
#484=CARTESIAN_POINT('',(-5.32499999999999,5.325,0.));
#485=CARTESIAN_POINT('',(-4.47730343212897,4.96811702385282,-1.83600374816947));
#486=CARTESIAN_POINT('',(4.85142824323309,5.34224183495689,0.0887015512702242));
#487=CARTESIAN_POINT('',(5.32500000000002,5.32499999999999,0.));
#488=CARTESIAN_POINT('',(-4.47730343212897,4.47730343212899,-1.7405992504812));
#489=CARTESIAN_POINT('',(-4.47730343212899,-4.47730343212896,-1.74059925048119));
#490=CARTESIAN_POINT('',(4.85142824323308,4.85142824323306,0.184106048958497));
#491=CARTESIAN_POINT('',(4.85142824323306,-4.85142824323309,0.184106048958495));
#492=CARTESIAN_POINT('',(0.,0.,-0.513436028853944));
#493=CARTESIAN_POINT('',(2.66304582372577,0.,-0.513436028853944));
#494=CARTESIAN_POINT('',(0.,0.,-0.513436028853944));
#495=CARTESIAN_POINT('',(0.,0.,-2.17563545633737));
#496=CARTESIAN_POINT('',(2.,0.,-2.17563545633737));
#497=CARTESIAN_POINT('',(0.,0.,-2.535));
#498=CARTESIAN_POINT('',(0.,0.,-0.81797332485298));
#499=CARTESIAN_POINT('',(2.53141103887668,0.,-0.81797332485298));
#500=CARTESIAN_POINT('',(0.,0.,-0.478557791981882));
#501=CARTESIAN_POINT('',(0.,0.,-2.17563545633737));
#502=MECHANICAL_DESIGN_GEOMETRIC_PRESENTATION_REPRESENTATION('',(#265,#266,
#267,#268,#269,#270),#503);
#503=(
GEOMETRIC_REPRESENTATION_CONTEXT(3)
GLOBAL_UNCERTAINTY_ASSIGNED_CONTEXT((#504))
GLOBAL_UNIT_ASSIGNED_CONTEXT((#510,#506,#505))
REPRESENTATION_CONTEXT('aaa336600_b','TOP_LEVEL_ASSEMBLY_PART')
);
#504=UNCERTAINTY_MEASURE_WITH_UNIT(LENGTH_MEASURE(2.E-5),#510,
'DISTANCE_ACCURACY_VALUE','Maximum Tolerance applied to model');
#505=(
NAMED_UNIT(*)
SI_UNIT($,.STERADIAN.)
SOLID_ANGLE_UNIT()
);
#506=(
CONVERSION_BASED_UNIT('DEGREE',#508)
NAMED_UNIT(#507)
PLANE_ANGLE_UNIT()
);
#507=DIMENSIONAL_EXPONENTS(0.,0.,0.,0.,0.,0.,0.);
#508=PLANE_ANGLE_MEASURE_WITH_UNIT(PLANE_ANGLE_MEASURE(0.0174532925),#509);
#509=(
NAMED_UNIT(*)
PLANE_ANGLE_UNIT()
SI_UNIT($,.RADIAN.)
);
#510=(
LENGTH_UNIT()
NAMED_UNIT(*)
SI_UNIT(.MILLI.,.METRE.)
);
ENDSEC;
END-ISO-10303-21;
