ISO-10303-21;
HEADER;
/* Generated by software containing ST-Developer
 * from STEP Tools, Inc. (www.steptools.com) 
 */
/* OPTION: using custom schema-name function */

FILE_DESCRIPTION(
/* description */ (''),
/* implementation_level */ '2;1');

FILE_NAME(
/* name */ '1591617394776.stp',
/* time_stamp */ '2020-06-08T17:26:44+06:00',
/* author */ (''),
/* organization */ ('SMS'),
/* preprocessor_version */ 'ST-DEVELOPER v16.7',
/* originating_system */ 'SIEMENS PLM Software NX 12.0',
/* authorisation */ '');

FILE_SCHEMA (('AUTOMOTIVE_DESIGN { 1 0 10303 214 3 1 1 1 }'));
ENDSEC;

DATA;
#10=CONSTRUCTIVE_GEOMETRY_REPRESENTATION_RELATIONSHIP(
'supplemental geometry','',#26,#11);
#11=CONSTRUCTIVE_GEOMETRY_REPRESENTATION('supplemental geometry',(#353,
#354,#355),#544);
#12=GEOMETRICALLY_BOUNDED_WIREFRAME_SHAPE_REPRESENTATION(
'203023989mod000_00-None',(#27),#544);
#13=SHAPE_REPRESENTATION_RELATIONSHIP('None',
'relationship between 203023989mod000_00-None and 203023989mod000_00-N
one',#26,#15);
#14=SHAPE_REPRESENTATION_RELATIONSHIP('None',
'relationship between 203023989mod000_00-None and 203023989mod000_00-N
one',#26,#12);
#15=ADVANCED_BREP_SHAPE_REPRESENTATION('203023989mod000_00-None',(#33),
#544);
#16=SHAPE_DEFINITION_REPRESENTATION(#17,#26);
#17=PRODUCT_DEFINITION_SHAPE('','',#18);
#18=PRODUCT_DEFINITION(' ','',#20,#19);
#19=PRODUCT_DEFINITION_CONTEXT('part definition',#25,'design');
#20=PRODUCT_DEFINITION_FORMATION_WITH_SPECIFIED_SOURCE(' ',' ',#22,
 .NOT_KNOWN.);
#21=PRODUCT_RELATED_PRODUCT_CATEGORY('part','',(#22));
#22=PRODUCT('203023989mod000_00','203023989mod000_00',' ',(#23));
#23=PRODUCT_CONTEXT(' ',#25,'mechanical');
#24=APPLICATION_PROTOCOL_DEFINITION('international standard',
'automotive_design',2010,#25);
#25=APPLICATION_CONTEXT(
'core data for automotive mechanical design processes');
#26=SHAPE_REPRESENTATION('203023989mod000_00-None',(#352),#544);
#27=GEOMETRIC_CURVE_SET('None',(#454,#455,#456));
#28=SURFACE_STYLE_USAGE(.BOTH.,#29);
#29=SURFACE_SIDE_STYLE('',(#30));
#30=SURFACE_STYLE_FILL_AREA(#31);
#31=FILL_AREA_STYLE('',(#32));
#32=FILL_AREA_STYLE_COLOUR('',#351);
#33=MANIFOLD_SOLID_BREP('NOCUT',#34);
#34=CLOSED_SHELL('',(#40,#41,#42,#43,#44,#45,#46,#47,#48,#49,#50,#51,#52,
#53,#54));
#35=FACE_BOUND('',#96,.T.);
#36=FACE_BOUND('',#97,.T.);
#37=CYLINDRICAL_SURFACE('',#367,3.5);
#38=ELLIPSE('',#360,3.53941664745246,3.5);
#39=ELLIPSE('',#366,3.5000114755526,3.5);
#40=ADVANCED_FACE('',(#69),#55,.T.);
#41=ADVANCED_FACE('',(#70),#56,.F.);
#42=ADVANCED_FACE('',(#71),#57,.F.);
#43=ADVANCED_FACE('',(#72),#58,.F.);
#44=ADVANCED_FACE('',(#73),#59,.T.);
#45=ADVANCED_FACE('',(#74),#60,.T.);
#46=ADVANCED_FACE('',(#75),#61,.F.);
#47=ADVANCED_FACE('',(#76),#62,.T.);
#48=ADVANCED_FACE('',(#77),#63,.F.);
#49=ADVANCED_FACE('',(#78),#37,.T.);
#50=ADVANCED_FACE('',(#79),#64,.F.);
#51=ADVANCED_FACE('',(#80),#65,.F.);
#52=ADVANCED_FACE('',(#81),#66,.F.);
#53=ADVANCED_FACE('',(#35,#36),#67,.T.);
#54=ADVANCED_FACE('',(#82),#68,.F.);
#55=PLANE('',#356);
#56=PLANE('',#357);
#57=PLANE('',#358);
#58=PLANE('',#359);
#59=PLANE('',#361);
#60=PLANE('',#362);
#61=PLANE('',#363);
#62=PLANE('',#364);
#63=PLANE('',#365);
#64=PLANE('',#368);
#65=PLANE('',#369);
#66=PLANE('',#370);
#67=PLANE('',#371);
#68=PLANE('',#372);
#69=FACE_OUTER_BOUND('',#83,.T.);
#70=FACE_OUTER_BOUND('',#84,.T.);
#71=FACE_OUTER_BOUND('',#85,.T.);
#72=FACE_OUTER_BOUND('',#86,.T.);
#73=FACE_OUTER_BOUND('',#87,.T.);
#74=FACE_OUTER_BOUND('',#88,.T.);
#75=FACE_OUTER_BOUND('',#89,.T.);
#76=FACE_OUTER_BOUND('',#90,.T.);
#77=FACE_OUTER_BOUND('',#91,.T.);
#78=FACE_OUTER_BOUND('',#92,.T.);
#79=FACE_OUTER_BOUND('',#93,.T.);
#80=FACE_OUTER_BOUND('',#94,.T.);
#81=FACE_OUTER_BOUND('',#95,.T.);
#82=FACE_OUTER_BOUND('',#98,.T.);
#83=EDGE_LOOP('',(#99,#100,#101));
#84=EDGE_LOOP('',(#102,#103,#104,#105,#106,#107));
#85=EDGE_LOOP('',(#108,#109,#110,#111,#112,#113));
#86=EDGE_LOOP('',(#114,#115,#116,#117,#118));
#87=EDGE_LOOP('',(#119,#120,#121,#122,#123,#124));
#88=EDGE_LOOP('',(#125,#126,#127,#128));
#89=EDGE_LOOP('',(#129,#130,#131,#132));
#90=EDGE_LOOP('',(#133,#134,#135,#136,#137));
#91=EDGE_LOOP('',(#138,#139,#140,#141,#142,#143,#144,#145,#146));
#92=EDGE_LOOP('',(#147,#148,#149,#150));
#93=EDGE_LOOP('',(#151,#152,#153,#154,#155));
#94=EDGE_LOOP('',(#156,#157,#158,#159,#160));
#95=EDGE_LOOP('',(#161,#162,#163,#164,#165));
#96=EDGE_LOOP('',(#166,#167));
#97=EDGE_LOOP('',(#168,#169,#170,#171,#172,#173));
#98=EDGE_LOOP('',(#174,#175,#176,#177,#178));
#99=ORIENTED_EDGE('',*,*,#207,.T.);
#100=ORIENTED_EDGE('',*,*,#208,.T.);
#101=ORIENTED_EDGE('',*,*,#209,.F.);
#102=ORIENTED_EDGE('',*,*,#210,.F.);
#103=ORIENTED_EDGE('',*,*,#211,.T.);
#104=ORIENTED_EDGE('',*,*,#212,.T.);
#105=ORIENTED_EDGE('',*,*,#213,.T.);
#106=ORIENTED_EDGE('',*,*,#214,.F.);
#107=ORIENTED_EDGE('',*,*,#215,.T.);
#108=ORIENTED_EDGE('',*,*,#216,.F.);
#109=ORIENTED_EDGE('',*,*,#211,.F.);
#110=ORIENTED_EDGE('',*,*,#217,.F.);
#111=ORIENTED_EDGE('',*,*,#218,.T.);
#112=ORIENTED_EDGE('',*,*,#219,.F.);
#113=ORIENTED_EDGE('',*,*,#220,.F.);
#114=ORIENTED_EDGE('',*,*,#221,.F.);
#115=ORIENTED_EDGE('',*,*,#222,.F.);
#116=ORIENTED_EDGE('',*,*,#223,.T.);
#117=ORIENTED_EDGE('',*,*,#212,.F.);
#118=ORIENTED_EDGE('',*,*,#216,.T.);
#119=ORIENTED_EDGE('',*,*,#220,.T.);
#120=ORIENTED_EDGE('',*,*,#224,.F.);
#121=ORIENTED_EDGE('',*,*,#225,.T.);
#122=ORIENTED_EDGE('',*,*,#226,.T.);
#123=ORIENTED_EDGE('',*,*,#227,.T.);
#124=ORIENTED_EDGE('',*,*,#221,.T.);
#125=ORIENTED_EDGE('',*,*,#228,.T.);
#126=ORIENTED_EDGE('',*,*,#229,.T.);
#127=ORIENTED_EDGE('',*,*,#222,.T.);
#128=ORIENTED_EDGE('',*,*,#227,.F.);
#129=ORIENTED_EDGE('',*,*,#213,.F.);
#130=ORIENTED_EDGE('',*,*,#223,.F.);
#131=ORIENTED_EDGE('',*,*,#229,.F.);
#132=ORIENTED_EDGE('',*,*,#230,.F.);
#133=ORIENTED_EDGE('',*,*,#231,.F.);
#134=ORIENTED_EDGE('',*,*,#225,.F.);
#135=ORIENTED_EDGE('',*,*,#232,.F.);
#136=ORIENTED_EDGE('',*,*,#233,.T.);
#137=ORIENTED_EDGE('',*,*,#234,.T.);
#138=ORIENTED_EDGE('',*,*,#235,.T.);
#139=ORIENTED_EDGE('',*,*,#209,.T.);
#140=ORIENTED_EDGE('',*,*,#236,.T.);
#141=ORIENTED_EDGE('',*,*,#214,.T.);
#142=ORIENTED_EDGE('',*,*,#230,.T.);
#143=ORIENTED_EDGE('',*,*,#228,.F.);
#144=ORIENTED_EDGE('',*,*,#226,.F.);
#145=ORIENTED_EDGE('',*,*,#231,.T.);
#146=ORIENTED_EDGE('',*,*,#237,.F.);
#147=ORIENTED_EDGE('',*,*,#238,.F.);
#148=ORIENTED_EDGE('',*,*,#232,.T.);
#149=ORIENTED_EDGE('',*,*,#224,.T.);
#150=ORIENTED_EDGE('',*,*,#219,.T.);
#151=ORIENTED_EDGE('',*,*,#235,.F.);
#152=ORIENTED_EDGE('',*,*,#239,.F.);
#153=ORIENTED_EDGE('',*,*,#240,.T.);
#154=ORIENTED_EDGE('',*,*,#241,.T.);
#155=ORIENTED_EDGE('',*,*,#207,.F.);
#156=ORIENTED_EDGE('',*,*,#242,.T.);
#157=ORIENTED_EDGE('',*,*,#239,.T.);
#158=ORIENTED_EDGE('',*,*,#237,.T.);
#159=ORIENTED_EDGE('',*,*,#234,.F.);
#160=ORIENTED_EDGE('',*,*,#243,.F.);
#161=ORIENTED_EDGE('',*,*,#236,.F.);
#162=ORIENTED_EDGE('',*,*,#208,.F.);
#163=ORIENTED_EDGE('',*,*,#241,.F.);
#164=ORIENTED_EDGE('',*,*,#244,.T.);
#165=ORIENTED_EDGE('',*,*,#215,.F.);
#166=ORIENTED_EDGE('',*,*,#245,.T.);
#167=ORIENTED_EDGE('',*,*,#245,.F.);
#168=ORIENTED_EDGE('',*,*,#246,.F.);
#169=ORIENTED_EDGE('',*,*,#217,.T.);
#170=ORIENTED_EDGE('',*,*,#210,.T.);
#171=ORIENTED_EDGE('',*,*,#244,.F.);
#172=ORIENTED_EDGE('',*,*,#240,.F.);
#173=ORIENTED_EDGE('',*,*,#242,.F.);
#174=ORIENTED_EDGE('',*,*,#243,.T.);
#175=ORIENTED_EDGE('',*,*,#233,.F.);
#176=ORIENTED_EDGE('',*,*,#238,.T.);
#177=ORIENTED_EDGE('',*,*,#218,.F.);
#178=ORIENTED_EDGE('',*,*,#246,.T.);
#179=VERTEX_POINT('',#461);
#180=VERTEX_POINT('',#462);
#181=VERTEX_POINT('',#464);
#182=VERTEX_POINT('',#468);
#183=VERTEX_POINT('',#469);
#184=VERTEX_POINT('',#471);
#185=VERTEX_POINT('',#473);
#186=VERTEX_POINT('',#475);
#187=VERTEX_POINT('',#477);
#188=VERTEX_POINT('',#481);
#189=VERTEX_POINT('',#483);
#190=VERTEX_POINT('',#485);
#191=VERTEX_POINT('',#487);
#192=VERTEX_POINT('',#491);
#193=VERTEX_POINT('',#493);
#194=VERTEX_POINT('',#497);
#195=VERTEX_POINT('',#499);
#196=VERTEX_POINT('',#501);
#197=VERTEX_POINT('',#505);
#198=VERTEX_POINT('',#511);
#199=VERTEX_POINT('',#513);
#200=VERTEX_POINT('',#515);
#201=VERTEX_POINT('',#519);
#202=VERTEX_POINT('',#526);
#203=VERTEX_POINT('',#528);
#204=VERTEX_POINT('',#532);
#205=VERTEX_POINT('',#538);
#206=VERTEX_POINT('',#539);
#207=EDGE_CURVE('',#179,#180,#247,.T.);
#208=EDGE_CURVE('',#180,#181,#248,.T.);
#209=EDGE_CURVE('',#179,#181,#249,.T.);
#210=EDGE_CURVE('',#182,#183,#250,.T.);
#211=EDGE_CURVE('',#182,#184,#251,.T.);
#212=EDGE_CURVE('',#184,#185,#252,.T.);
#213=EDGE_CURVE('',#185,#186,#253,.T.);
#214=EDGE_CURVE('',#187,#186,#254,.T.);
#215=EDGE_CURVE('',#187,#183,#255,.T.);
#216=EDGE_CURVE('',#184,#188,#256,.T.);
#217=EDGE_CURVE('',#189,#182,#257,.T.);
#218=EDGE_CURVE('',#189,#190,#258,.T.);
#219=EDGE_CURVE('',#191,#190,#259,.T.);
#220=EDGE_CURVE('',#188,#191,#260,.T.);
#221=EDGE_CURVE('',#192,#188,#261,.T.);
#222=EDGE_CURVE('',#193,#192,#262,.T.);
#223=EDGE_CURVE('',#193,#185,#263,.T.);
#224=EDGE_CURVE('',#194,#191,#38,.T.);
#225=EDGE_CURVE('',#194,#195,#264,.T.);
#226=EDGE_CURVE('',#195,#196,#265,.T.);
#227=EDGE_CURVE('',#196,#192,#266,.T.);
#228=EDGE_CURVE('',#196,#197,#267,.T.);
#229=EDGE_CURVE('',#197,#193,#268,.T.);
#230=EDGE_CURVE('',#186,#197,#269,.T.);
#231=EDGE_CURVE('',#195,#198,#270,.T.);
#232=EDGE_CURVE('',#199,#194,#271,.T.);
#233=EDGE_CURVE('',#199,#200,#272,.T.);
#234=EDGE_CURVE('',#200,#198,#273,.T.);
#235=EDGE_CURVE('',#201,#179,#274,.T.);
#236=EDGE_CURVE('',#181,#187,#275,.T.);
#237=EDGE_CURVE('',#201,#198,#276,.T.);
#238=EDGE_CURVE('',#199,#190,#39,.T.);
#239=EDGE_CURVE('',#202,#201,#277,.T.);
#240=EDGE_CURVE('',#202,#203,#278,.T.);
#241=EDGE_CURVE('',#203,#180,#279,.T.);
#242=EDGE_CURVE('',#204,#202,#280,.T.);
#243=EDGE_CURVE('',#204,#200,#281,.T.);
#244=EDGE_CURVE('',#203,#183,#282,.T.);
#245=EDGE_CURVE('',#205,#206,#283,.T.);
#246=EDGE_CURVE('',#189,#204,#284,.T.);
#247=LINE('',#460,#285);
#248=LINE('',#463,#286);
#249=LINE('',#465,#287);
#250=LINE('',#467,#288);
#251=LINE('',#470,#289);
#252=LINE('',#472,#290);
#253=LINE('',#474,#291);
#254=LINE('',#476,#292);
#255=LINE('',#478,#293);
#256=LINE('',#480,#294);
#257=LINE('',#482,#295);
#258=LINE('',#484,#296);
#259=LINE('',#486,#297);
#260=LINE('',#488,#298);
#261=LINE('',#490,#299);
#262=LINE('',#492,#300);
#263=LINE('',#494,#301);
#264=LINE('',#498,#302);
#265=LINE('',#500,#303);
#266=LINE('',#502,#304);
#267=LINE('',#504,#305);
#268=LINE('',#506,#306);
#269=LINE('',#508,#307);
#270=LINE('',#510,#308);
#271=LINE('',#512,#309);
#272=LINE('',#514,#310);
#273=LINE('',#516,#311);
#274=LINE('',#518,#312);
#275=LINE('',#520,#313);
#276=LINE('',#521,#314);
#277=LINE('',#525,#315);
#278=LINE('',#527,#316);
#279=LINE('',#529,#317);
#280=LINE('',#531,#318);
#281=LINE('',#533,#319);
#282=LINE('',#535,#320);
#283=LINE('',#537,#321);
#284=LINE('',#540,#322);
#285=VECTOR('',#381,1.);
#286=VECTOR('',#382,1.);
#287=VECTOR('',#383,1.);
#288=VECTOR('',#386,1.);
#289=VECTOR('',#387,0.999999999999999);
#290=VECTOR('',#388,1.);
#291=VECTOR('',#389,1.);
#292=VECTOR('',#390,1.);
#293=VECTOR('',#391,1.);
#294=VECTOR('',#394,1.);
#295=VECTOR('',#395,1.);
#296=VECTOR('',#396,1.);
#297=VECTOR('',#397,1.);
#298=VECTOR('',#398,1.);
#299=VECTOR('',#401,1.);
#300=VECTOR('',#402,1.);
#301=VECTOR('',#403,1.);
#302=VECTOR('',#408,1.);
#303=VECTOR('',#409,1.);
#304=VECTOR('',#410,1.);
#305=VECTOR('',#413,1.);
#306=VECTOR('',#414,1.);
#307=VECTOR('',#417,1.);
#308=VECTOR('',#420,1.);
#309=VECTOR('',#421,1.);
#310=VECTOR('',#422,1.);
#311=VECTOR('',#423,1.);
#312=VECTOR('',#426,1.);
#313=VECTOR('',#427,1.);
#314=VECTOR('',#428,1.);
#315=VECTOR('',#435,1.);
#316=VECTOR('',#436,1.);
#317=VECTOR('',#437,1.);
#318=VECTOR('',#440,1.);
#319=VECTOR('',#441,1.);
#320=VECTOR('',#444,1.);
#321=VECTOR('',#447,1.);
#322=VECTOR('',#448,1.);
#323=CURVE_STYLE('',#326,POSITIVE_LENGTH_MEASURE(0.18),#350);
#324=CURVE_STYLE('',#327,POSITIVE_LENGTH_MEASURE(0.18),#350);
#325=CURVE_STYLE('',#328,POSITIVE_LENGTH_MEASURE(0.18),#350);
#326=DRAUGHTING_PRE_DEFINED_CURVE_FONT('continuous');
#327=DRAUGHTING_PRE_DEFINED_CURVE_FONT('continuous');
#328=DRAUGHTING_PRE_DEFINED_CURVE_FONT('continuous');
#329=PRESENTATION_LAYER_ASSIGNMENT('1','Layer 1',(#454,#455,#456,#353,#354,
#355,#33));
#330=STYLED_ITEM('',(#337),#454);
#331=STYLED_ITEM('',(#338),#455);
#332=STYLED_ITEM('',(#339),#456);
#333=STYLED_ITEM('',(#340),#353);
#334=STYLED_ITEM('',(#341),#354);
#335=STYLED_ITEM('',(#342),#355);
#336=STYLED_ITEM('',(#343),#33);
#337=PRESENTATION_STYLE_ASSIGNMENT((#344));
#338=PRESENTATION_STYLE_ASSIGNMENT((#345));
#339=PRESENTATION_STYLE_ASSIGNMENT((#346));
#340=PRESENTATION_STYLE_ASSIGNMENT((#323));
#341=PRESENTATION_STYLE_ASSIGNMENT((#324));
#342=PRESENTATION_STYLE_ASSIGNMENT((#325));
#343=PRESENTATION_STYLE_ASSIGNMENT((#28));
#344=POINT_STYLE('',#347,POSITIVE_LENGTH_MEASURE(3.),#350);
#345=POINT_STYLE('',#348,POSITIVE_LENGTH_MEASURE(3.),#350);
#346=POINT_STYLE('',#349,POSITIVE_LENGTH_MEASURE(3.),#350);
#347=PRE_DEFINED_POINT_MARKER_SYMBOL('plus');
#348=PRE_DEFINED_POINT_MARKER_SYMBOL('plus');
#349=PRE_DEFINED_POINT_MARKER_SYMBOL('plus');
#350=COLOUR_RGB('Medium Maroon',0.6,0.4,0.4);
#351=COLOUR_RGB('Medium Gray',0.501960784313725,0.501960784313725,0.501960784313725);
#352=AXIS2_PLACEMENT_3D('',#453,#373,#374);
#353=AXIS2_PLACEMENT_3D('PCS',#457,#375,#376);
#354=AXIS2_PLACEMENT_3D('MCS',#458,#377,#378);
#355=AXIS2_PLACEMENT_3D('CSW',#459,#379,#380);
#356=AXIS2_PLACEMENT_3D('',#466,#384,#385);
#357=AXIS2_PLACEMENT_3D('',#479,#392,#393);
#358=AXIS2_PLACEMENT_3D('',#489,#399,#400);
#359=AXIS2_PLACEMENT_3D('',#495,#404,#405);
#360=AXIS2_PLACEMENT_3D('',#496,#406,#407);
#361=AXIS2_PLACEMENT_3D('',#503,#411,#412);
#362=AXIS2_PLACEMENT_3D('',#507,#415,#416);
#363=AXIS2_PLACEMENT_3D('',#509,#418,#419);
#364=AXIS2_PLACEMENT_3D('',#517,#424,#425);
#365=AXIS2_PLACEMENT_3D('',#522,#429,#430);
#366=AXIS2_PLACEMENT_3D('',#523,#431,#432);
#367=AXIS2_PLACEMENT_3D('',#524,#433,#434);
#368=AXIS2_PLACEMENT_3D('',#530,#438,#439);
#369=AXIS2_PLACEMENT_3D('',#534,#442,#443);
#370=AXIS2_PLACEMENT_3D('',#536,#445,#446);
#371=AXIS2_PLACEMENT_3D('',#541,#449,#450);
#372=AXIS2_PLACEMENT_3D('',#542,#451,#452);
#373=DIRECTION('',(0.,0.,1.));
#374=DIRECTION('',(1.,0.,0.));
#375=DIRECTION('',(0.,0.,1.));
#376=DIRECTION('',(1.,0.,0.));
#377=DIRECTION('',(0.,0.,1.));
#378=DIRECTION('',(1.,0.,0.));
#379=DIRECTION('',(0.114838393973283,0.103400146943932,0.987988133978142));
#380=DIRECTION('',(0.989066178082215,-0.104533245893399,-0.10402353520637));
#381=DIRECTION('',(-0.114838393973287,-0.10340014694393,-0.987988133978141));
#382=DIRECTION('',(0.0925215577229278,0.989131543382863,-0.114274018226185));
#383=DIRECTION('',(1.62181779426806E-15,0.705376512651292,-0.708832826130323));
#384=DIRECTION('',(0.989066178082214,-0.104533245893395,-0.104023535206375));
#385=DIRECTION('',(-0.0925215577229279,-0.989131543382863,0.114274018226183));
#386=DIRECTION('',(0.114822923345513,0.103234768924166,0.988007226066472));
#387=DIRECTION('',(-0.99021640187987,0.103815131245167,0.0932410637682317));
#388=DIRECTION('',(-0.000500452698213464,0.114694581934454,0.993400675670184));
#389=DIRECTION('',(0.775443706785896,-1.75194050652319E-15,0.631416706784157));
#390=DIRECTION('',(2.32831448535204E-16,0.114648185209862,0.993406157434151));
#391=DIRECTION('',(-0.989027823337131,0.104942376152796,0.103976258599841));
#392=DIRECTION('',(-0.0929498609293945,-0.989105494208845,0.114151849214469));
#393=DIRECTION('',(-0.990216401879871,0.103815131245167,0.0932410637682317));
#394=DIRECTION('',(0.00433816772202405,-0.994228495550757,0.10719551733022));
#395=DIRECTION('',(0.092227182271445,0.988863518658978,-0.116803631431798));
#396=DIRECTION('',(0.99025481246148,-0.103404340409405,-0.0932895963190752));
#397=DIRECTION('',(0.0922271822714443,0.988863518658978,-0.116803631431798));
#398=DIRECTION('',(0.994479421630678,-2.25856236868132E-15,-0.104931787143425));
#399=DIRECTION('',(0.104328680976314,0.107061521575952,0.988763549552462));
#400=DIRECTION('',(2.24126273096203E-15,0.99418896495089,-0.107648975702877));
#401=DIRECTION('',(-6.01853107621011E-36,6.93889390390723E-18,-1.));
#402=DIRECTION('',(0.00436330928474433,-0.999990480720735,3.4088608449256E-18));
#403=DIRECTION('',(-6.01853107621011E-36,6.93889390390723E-18,-1.));
#404=DIRECTION('',(0.999990480720734,0.00436330928474433,3.02765401967742E-20));
#405=DIRECTION('',(-0.00436330928474433,0.999990480720735,0.));
#406=DIRECTION('',(2.24357569559667E-15,1.,6.93889390390703E-18));
#407=DIRECTION('',(-0.619701364710637,1.38490101484649E-15,0.784837702060607));
#408=DIRECTION('',(0.104596578788318,-2.41571174235604E-16,0.994514733780138));
#409=DIRECTION('',(-2.77555756156289E-17,-6.93889390390717E-18,1.));
#410=DIRECTION('',(-1.,2.24357569559667E-15,1.38777878078145E-17));
#411=DIRECTION('',(-2.24357569559667E-15,-1.,-6.93889390390723E-18));
#412=DIRECTION('',(1.38777878078145E-17,3.46944695195358E-18,1.));
#413=DIRECTION('',(2.2713312712123E-15,1.,-3.46944695195361E-18));
#414=DIRECTION('',(-1.,2.24357569559667E-15,1.38777878078145E-17));
#415=DIRECTION('',(1.38777878078145E-17,3.46944695195358E-18,1.));
#416=DIRECTION('',(-1.,2.27248775352962E-15,-2.77555756156289E-17));
#417=DIRECTION('',(-2.77555756156289E-17,-6.93889390390717E-18,1.));
#418=DIRECTION('',(-2.24357569559667E-15,-1.,-6.93889390390723E-18));
#419=DIRECTION('',(1.38777878078145E-17,0.,1.));
#420=DIRECTION('',(1.62181779426806E-15,0.705376512651292,-0.708832826130323));
#421=DIRECTION('',(-0.0922271822714443,-0.988863518658978,0.116803631431798));
#422=DIRECTION('',(0.114838393973287,0.10340014694393,0.987988133978141));
#423=DIRECTION('',(0.0925215577229278,0.989131543382863,-0.114274018226185));
#424=DIRECTION('',(0.989066178082214,-0.104533245893395,-0.104023535206375));
#425=DIRECTION('',(-0.0925215577229279,-0.989131543382863,0.114274018226183));
#426=DIRECTION('',(-2.33100076195132E-16,-0.114766287379865,-0.993392520246173));
#427=DIRECTION('',(2.26188246598347E-15,0.994568009802613,-0.104088778824947));
#428=DIRECTION('',(-2.26188246598347E-15,-0.994568009802613,0.104088778824947));
#429=DIRECTION('',(-1.,2.2713312712123E-15,-2.77555756156289E-17));
#430=DIRECTION('',(2.25514051876985E-15,1.,-1.16573417585641E-15));
#431=DIRECTION('',(0.0925215577229285,0.989131543382863,-0.114274018226185));
#432=DIRECTION('',(0.114838393973548,0.103400146943903,0.987988133978114));
#433=DIRECTION('',(-0.0922271822714443,-0.988863518658978,0.116803631431798));
#434=DIRECTION('',(0.,0.117303580339305,0.99309610312375));
#435=DIRECTION('',(0.989066178082215,-0.104533245893396,-0.104023535206373));
#436=DIRECTION('',(-0.114838393973285,-0.103400146943931,-0.987988133978142));
#437=DIRECTION('',(0.989066178082215,-0.104533245893396,-0.104023535206373));
#438=DIRECTION('',(0.0925215577229285,0.989131543382863,-0.114274018226185));
#439=DIRECTION('',(-0.114838393973285,-0.103400146943931,-0.987988133978142));
#440=DIRECTION('',(0.0925215577229285,0.989131543382863,-0.114274018226185));
#441=DIRECTION('',(0.989066178082215,-0.104533245893396,-0.104023535206373));
#442=DIRECTION('',(0.114838393973285,0.103400146943931,0.987988133978142));
#443=DIRECTION('',(0.0925215577229285,0.989131543382863,-0.114274018226185));
#444=DIRECTION('',(0.0925215577229285,0.989131543382863,-0.114274018226185));
#445=DIRECTION('',(0.114838393973285,0.103400146943931,0.987988133978142));
#446=DIRECTION('',(0.0925215577229285,0.989131543382863,-0.114274018226185));
#447=DIRECTION('',(0.0925215577229285,0.989131543382863,-0.114274018226185));
#448=DIRECTION('',(0.114838393973285,0.10340014694393,0.987988133978142));
#449=DIRECTION('',(0.989066178082215,-0.104533245893396,-0.104023535206373));
#450=DIRECTION('',(0.0925215577229285,0.989131543382863,-0.114274018226185));
#451=DIRECTION('',(-0.0925215577229285,-0.989131543382863,0.114274018226185));
#452=DIRECTION('',(0.114838393973285,0.10340014694393,0.987988133978142));
#453=CARTESIAN_POINT('',(0.,0.,0.));
#454=CARTESIAN_POINT('',(0.,0.,0.));
#455=CARTESIAN_POINT('',(23.5,50.,-75.));
#456=CARTESIAN_POINT('',(21.8459018018899,18.374761748294,-235.78732177248));
#457=CARTESIAN_POINT('',(0.,0.,0.));
#458=CARTESIAN_POINT('',(23.5,50.,-75.));
#459=CARTESIAN_POINT('',(21.8459018018899,18.374761748294,-235.78732177248));
#460=CARTESIAN_POINT('',(44.0363024737526,29.4533815581031,-253.190203750242));
#461=CARTESIAN_POINT('',(46.8500000000001,31.9868264070221,-228.983144835932));
#462=CARTESIAN_POINT('',(45.586620792392,30.8492835418461,-239.852363941537));
#463=CARTESIAN_POINT('',(44.1987974265481,16.0123103911032,-238.138253668144));
#464=CARTESIAN_POINT('',(46.8500000000001,44.3558462960265,-241.412772371204));
#465=CARTESIAN_POINT('',(46.8499999999999,-30.4126772277774,-166.277886413966));
#466=CARTESIAN_POINT('',(42.6484791079087,14.6164084073601,-251.476093476849));
#467=CARTESIAN_POINT('',(21.1559330734559,45.840078466153,-269.947509004982));
#468=CARTESIAN_POINT('',(20.764968581111,45.4885708764766,-273.311608544669));
#469=CARTESIAN_POINT('',(24.7142009904254,49.0392390124602,-239.32997801191));
#470=CARTESIAN_POINT('',(63.7804157410056,40.9787947467374,-277.362042413509));
#471=CARTESIAN_POINT('',(0.00953571862605251,47.6645881415698,-271.357229041972));
#472=CARTESIAN_POINT('',(-0.062371007184443,64.144291187535,-128.622080924326));
#473=CARTESIAN_POINT('',(0.,49.8499999999999,-252.428788132507));
#474=CARTESIAN_POINT('',(50.9917102043549,49.8499999999998,-210.908020797922));
#475=CARTESIAN_POINT('',(46.8500000000001,49.8499999999998,-214.28047065444));
#476=CARTESIAN_POINT('',(46.8500000000001,43.2060608272381,-271.8490232814));
#477=CARTESIAN_POINT('',(46.8500000000001,46.6904847193126,-241.657109269317));
#478=CARTESIAN_POINT('',(43.5043550288876,47.0454797202091,-241.305382413418));
#479=CARTESIAN_POINT('',(39.9460890806615,43.8463188133584,-271.922914927456));
#480=CARTESIAN_POINT('',(0.233433188474477,-3.64860647626499,-265.824753894116));
#481=CARTESIAN_POINT('',(0.217513038411865,-2.27423354374043E-14,-266.218138574306));
#482=CARTESIAN_POINT('',(16.562430571739,0.42879109252526,-267.98918961529));
#483=CARTESIAN_POINT('',(17.9052557213702,14.8266157869829,-269.689847165396));
#484=CARTESIAN_POINT('',(60.9027764981469,10.3367307400115,-273.740543315022));
#485=CARTESIAN_POINT('',(36.8578732826038,12.8475464673604,-271.47532906281));
#486=CARTESIAN_POINT('',(35.5150972132593,-1.54975198631066,-269.774733671773));
#487=CARTESIAN_POINT('',(35.6596361270933,-1.03234946680189E-13,-269.957788922982));
#488=CARTESIAN_POINT('',(8.5305301535602,-4.16220298967337E-14,-267.095280648313));
#489=CARTESIAN_POINT('',(59.5596618308857,-4.05985823191974,-272.039989018461));
#490=CARTESIAN_POINT('',(0.217513038411863,-2.67350140311999E-16,-171.189123));
#491=CARTESIAN_POINT('',(0.217513038411863,-1.45521330231192E-15,-1.31821817883784E-16));
#492=CARTESIAN_POINT('',(0.109109516075033,24.8440995902904,-1.30036737123293E-16));
#493=CARTESIAN_POINT('',(3.46944695195361E-15,49.8499999999999,-1.2880321809127E-16));
#494=CARTESIAN_POINT('',(3.46944695195361E-15,49.8499999999999,-171.189123));
#495=CARTESIAN_POINT('',(3.46944695195361E-15,49.8499999999999,-126.971680430651));
#496=CARTESIAN_POINT('',(35.9898383725984,-7.97859463682234E-14,-266.45285547672));
#497=CARTESIAN_POINT('',(39.4856933156528,-8.7704633921534E-14,-266.860149001779));
#498=CARTESIAN_POINT('',(41.1205887239719,-9.1929010700061E-14,-251.315399923003));
#499=CARTESIAN_POINT('',(46.85,-1.04551896343714E-13,-196.839584404911));
#500=CARTESIAN_POINT('',(46.85,-1.04939436769887E-13,-140.989123));
#501=CARTESIAN_POINT('',(46.85,-1.0607872767456E-13,-7.78977576887379E-16));
#502=CARTESIAN_POINT('',(18.65,-4.28098930587336E-14,-3.87623960707011E-16));
#503=CARTESIAN_POINT('',(18.65,-4.16220298967337E-14,-171.189123));
#504=CARTESIAN_POINT('',(46.85,-5.00000000000005,-3.87623960707011E-16));
#505=CARTESIAN_POINT('',(46.8500000000001,49.8499999999998,-7.78977576887379E-16));
#506=CARTESIAN_POINT('',(18.65,49.8499999999999,-3.87623960707011E-16));
#507=CARTESIAN_POINT('',(18.65,24.925,-3.87623960707011E-16));
#508=CARTESIAN_POINT('',(46.8500000000001,49.8499999999998,-140.989123));
#509=CARTESIAN_POINT('',(18.65,49.8499999999999,-171.189123));
#510=CARTESIAN_POINT('',(46.8499999999999,-30.4126772277774,-166.277886413966));
#511=CARTESIAN_POINT('',(46.8500000000001,31.4262039044038,-228.419775308033));
#512=CARTESIAN_POINT('',(39.3419792199642,-1.54090302142171,-266.678143621562));
#513=CARTESIAN_POINT('',(40.6839292712812,12.8475336020123,-268.377687621819));
#514=CARTESIAN_POINT('',(42.6484791079087,14.6164084073601,-251.476093476849));
#515=CARTESIAN_POINT('',(45.5194389572409,17.2014120809584,-226.776390127396));
#516=CARTESIAN_POINT('',(45.5194389572409,17.2014120809584,-226.776390127396));
#517=CARTESIAN_POINT('',(42.6484791079087,14.6164084073601,-251.476093476849));
#518=CARTESIAN_POINT('',(46.8500000000001,41.5316817238599,-146.364911772464));
#519=CARTESIAN_POINT('',(46.8500000000001,32.0444372195582,-228.484477922805));
#520=CARTESIAN_POINT('',(46.85,-14.8614499429219,-235.215251447471));
#521=CARTESIAN_POINT('',(46.85,-13.6564569784907,-223.701546819655));
#522=CARTESIAN_POINT('',(46.85,-5.00000000000005,-140.989123));
#523=CARTESIAN_POINT('',(37.2221971152849,13.21339948299,-268.013609831644));
#524=CARTESIAN_POINT('',(35.8802475966764,-1.17503666079483,-266.314061248339));
#525=CARTESIAN_POINT('',(24.5543666984266,34.4008365888921,-226.139568505124));
#526=CARTESIAN_POINT('',(24.5543666984266,34.4008365888921,-226.139568505124));
#527=CARTESIAN_POINT('',(18.2956742268825,28.7655285804479,-279.984921806933));
#528=CARTESIAN_POINT('',(23.2337251677338,33.2117348990369,-237.501432045873));
#529=CARTESIAN_POINT('',(23.2337251677338,33.2117348990369,-237.501432045873));
#530=CARTESIAN_POINT('',(24.5543666984266,34.4008365888921,-226.139568505124));
#531=CARTESIAN_POINT('',(23.1665433325826,19.5638634381492,-224.425458231732));
#532=CARTESIAN_POINT('',(23.1665433325826,19.5638634381492,-224.425458231732));
#533=CARTESIAN_POINT('',(23.1665433325826,19.5638634381492,-224.425458231732));
#534=CARTESIAN_POINT('',(23.1665433325826,19.5638634381492,-224.425458231732));
#535=CARTESIAN_POINT('',(23.2337251677338,33.2117348990369,-237.501432045873));
#536=CARTESIAN_POINT('',(23.2337251677338,33.2117348990369,-237.501432045873));
#537=CARTESIAN_POINT('',(21.2135249631008,23.4205832426661,-246.870569806369));
#538=CARTESIAN_POINT('',(21.2135249631008,23.4205832426661,-246.870569806369));
#539=CARTESIAN_POINT('',(21.2137100062163,23.4225615057529,-246.870798354405));
#540=CARTESIAN_POINT('',(16.9078508610386,13.928555429705,-278.27081153354));
#541=CARTESIAN_POINT('',(16.9078508610386,13.928555429705,-278.27081153354));
#542=CARTESIAN_POINT('',(16.9078508610386,13.928555429705,-278.27081153354));
#543=MECHANICAL_DESIGN_GEOMETRIC_PRESENTATION_REPRESENTATION('',(#330,#331,
#332,#333,#334,#335,#336),#544);
#544=(
GEOMETRIC_REPRESENTATION_CONTEXT(3)
GLOBAL_UNCERTAINTY_ASSIGNED_CONTEXT((#545))
GLOBAL_UNIT_ASSIGNED_CONTEXT((#551,#547,#546))
REPRESENTATION_CONTEXT('1591617394776','TOP_LEVEL_ASSEMBLY_PART')
);
#545=UNCERTAINTY_MEASURE_WITH_UNIT(LENGTH_MEASURE(2.E-5),#551,
'DISTANCE_ACCURACY_VALUE','Maximum Tolerance applied to model');
#546=(
NAMED_UNIT(*)
SI_UNIT($,.STERADIAN.)
SOLID_ANGLE_UNIT()
);
#547=(
CONVERSION_BASED_UNIT('DEGREE',#549)
NAMED_UNIT(#548)
PLANE_ANGLE_UNIT()
);
#548=DIMENSIONAL_EXPONENTS(0.,0.,0.,0.,0.,0.,0.);
#549=PLANE_ANGLE_MEASURE_WITH_UNIT(PLANE_ANGLE_MEASURE(0.0174532925),#550);
#550=(
NAMED_UNIT(*)
PLANE_ANGLE_UNIT()
SI_UNIT($,.RADIAN.)
);
#551=(
LENGTH_UNIT()
NAMED_UNIT(*)
SI_UNIT(.MILLI.,.METRE.)
);
ENDSEC;
END-ISO-10303-21;
