ISO-10303-21;
HEADER;
/* Generated by software containing ST-Developer
 * from STEP Tools, Inc. (www.steptools.com) 
 */
/* OPTION: using custom schema-name function */

FILE_DESCRIPTION(
/* description */ (''),
/* implementation_level */ '2;1');

FILE_NAME(
/* name */ '1585051239056.stp',
/* time_stamp */ '2020-03-24T17:30:52+05:00',
/* author */ (''),
/* organization */ ('SMS'),
/* preprocessor_version */ 'ST-DEVELOPER v16.7',
/* originating_system */ 'SIEMENS PLM Software NX 12.0',
/* authorisation */ '');

FILE_SCHEMA (('AUTOMOTIVE_DESIGN { 1 0 10303 214 3 1 1 1 }'));
ENDSEC;

DATA;
#10=CONSTRUCTIVE_GEOMETRY_REPRESENTATION_RELATIONSHIP(
'supplemental geometry','',#26,#11);
#11=CONSTRUCTIVE_GEOMETRY_REPRESENTATION('supplemental geometry',(#112,
#113,#114),#171);
#12=GEOMETRICALLY_BOUNDED_WIREFRAME_SHAPE_REPRESENTATION(
'202919646mod000_00-None',(#27),#171);
#13=SHAPE_REPRESENTATION_RELATIONSHIP('None',
'relationship between 202919646mod000_00-None and 202919646mod000_00-N
one',#26,#15);
#14=SHAPE_REPRESENTATION_RELATIONSHIP('None',
'relationship between 202919646mod000_00-None and 202919646mod000_00-N
one',#26,#12);
#15=ADVANCED_BREP_SHAPE_REPRESENTATION('202919646mod000_00-None',(#33),
#171);
#16=SHAPE_DEFINITION_REPRESENTATION(#17,#26);
#17=PRODUCT_DEFINITION_SHAPE('','',#18);
#18=PRODUCT_DEFINITION(' ','',#20,#19);
#19=PRODUCT_DEFINITION_CONTEXT('part definition',#25,'design');
#20=PRODUCT_DEFINITION_FORMATION_WITH_SPECIFIED_SOURCE(' ',' ',#22,
 .NOT_KNOWN.);
#21=PRODUCT_RELATED_PRODUCT_CATEGORY('part','',(#22));
#22=PRODUCT('202919646mod000_00','202919646mod000_00',' ',(#23));
#23=PRODUCT_CONTEXT(' ',#25,'mechanical');
#24=APPLICATION_PROTOCOL_DEFINITION('international standard',
'automotive_design',2010,#25);
#25=APPLICATION_CONTEXT(
'core data for automotive mechanical design processes');
#26=SHAPE_REPRESENTATION('202919646mod000_00-None',(#111),#171);
#27=GEOMETRIC_CURVE_SET('None',(#151,#152,#153));
#28=SURFACE_STYLE_USAGE(.BOTH.,#29);
#29=SURFACE_SIDE_STYLE('',(#30));
#30=SURFACE_STYLE_FILL_AREA(#31);
#31=FILL_AREA_STYLE('',(#32));
#32=FILL_AREA_STYLE_COLOUR('',#110);
#33=MANIFOLD_SOLID_BREP('NOCUT',#34);
#34=CLOSED_SHELL('',(#43,#44,#45,#46,#47));
#35=CYLINDRICAL_SURFACE('',#120,8.);
#36=CYLINDRICAL_SURFACE('',#123,6.);
#37=FACE_BOUND('',#55,.T.);
#38=FACE_BOUND('',#56,.T.);
#39=FACE_BOUND('',#57,.T.);
#40=FACE_BOUND('',#58,.T.);
#41=FACE_BOUND('',#59,.T.);
#42=FACE_BOUND('',#60,.T.);
#43=ADVANCED_FACE('',(#51),#48,.F.);
#44=ADVANCED_FACE('',(#52),#49,.F.);
#45=ADVANCED_FACE('',(#37,#38),#35,.T.);
#46=ADVANCED_FACE('',(#39,#40),#50,.F.);
#47=ADVANCED_FACE('',(#41,#42),#36,.T.);
#48=PLANE('',#116);
#49=PLANE('',#118);
#50=PLANE('',#122);
#51=FACE_OUTER_BOUND('',#53,.T.);
#52=FACE_OUTER_BOUND('',#54,.T.);
#53=EDGE_LOOP('',(#61));
#54=EDGE_LOOP('',(#62));
#55=EDGE_LOOP('',(#63));
#56=EDGE_LOOP('',(#64));
#57=EDGE_LOOP('',(#65));
#58=EDGE_LOOP('',(#66));
#59=EDGE_LOOP('',(#67));
#60=EDGE_LOOP('',(#68));
#61=ORIENTED_EDGE('',*,*,#73,.T.);
#62=ORIENTED_EDGE('',*,*,#74,.F.);
#63=ORIENTED_EDGE('',*,*,#75,.F.);
#64=ORIENTED_EDGE('',*,*,#74,.T.);
#65=ORIENTED_EDGE('',*,*,#76,.F.);
#66=ORIENTED_EDGE('',*,*,#75,.T.);
#67=ORIENTED_EDGE('',*,*,#73,.F.);
#68=ORIENTED_EDGE('',*,*,#76,.T.);
#69=VERTEX_POINT('',#158);
#70=VERTEX_POINT('',#161);
#71=VERTEX_POINT('',#164);
#72=VERTEX_POINT('',#167);
#73=EDGE_CURVE('',#69,#69,#77,.T.);
#74=EDGE_CURVE('',#70,#70,#78,.T.);
#75=EDGE_CURVE('',#71,#71,#79,.T.);
#76=EDGE_CURVE('',#72,#72,#80,.T.);
#77=CIRCLE('',#115,6.);
#78=CIRCLE('',#117,8.);
#79=CIRCLE('',#119,8.);
#80=CIRCLE('',#121,6.);
#81=CURVE_STYLE('',#84,POSITIVE_LENGTH_MEASURE(0.13),#108);
#82=CURVE_STYLE('',#85,POSITIVE_LENGTH_MEASURE(0.13),#108);
#83=CURVE_STYLE('',#86,POSITIVE_LENGTH_MEASURE(0.18),#109);
#84=DRAUGHTING_PRE_DEFINED_CURVE_FONT('continuous');
#85=DRAUGHTING_PRE_DEFINED_CURVE_FONT('continuous');
#86=DRAUGHTING_PRE_DEFINED_CURVE_FONT('continuous');
#87=PRESENTATION_LAYER_ASSIGNMENT('1','Layer 1',(#151,#152,#153,#112,#113,
#114,#33));
#88=STYLED_ITEM('',(#95),#151);
#89=STYLED_ITEM('',(#96),#152);
#90=STYLED_ITEM('',(#97),#153);
#91=STYLED_ITEM('',(#98),#112);
#92=STYLED_ITEM('',(#99),#113);
#93=STYLED_ITEM('',(#100),#114);
#94=STYLED_ITEM('',(#101),#33);
#95=PRESENTATION_STYLE_ASSIGNMENT((#102));
#96=PRESENTATION_STYLE_ASSIGNMENT((#103));
#97=PRESENTATION_STYLE_ASSIGNMENT((#104));
#98=PRESENTATION_STYLE_ASSIGNMENT((#81));
#99=PRESENTATION_STYLE_ASSIGNMENT((#82));
#100=PRESENTATION_STYLE_ASSIGNMENT((#83));
#101=PRESENTATION_STYLE_ASSIGNMENT((#28));
#102=POINT_STYLE('',#105,POSITIVE_LENGTH_MEASURE(3.),#108);
#103=POINT_STYLE('',#106,POSITIVE_LENGTH_MEASURE(3.),#108);
#104=POINT_STYLE('',#107,POSITIVE_LENGTH_MEASURE(3.),#109);
#105=PRE_DEFINED_POINT_MARKER_SYMBOL('plus');
#106=PRE_DEFINED_POINT_MARKER_SYMBOL('plus');
#107=PRE_DEFINED_POINT_MARKER_SYMBOL('plus');
#108=COLOUR_RGB('Deep Blue',0.,0.,0.752941176470588);
#109=COLOUR_RGB('Medium Maroon',0.6,0.4,0.4);
#110=COLOUR_RGB('Medium Gray',0.501960784313725,0.501960784313725,0.501960784313725);
#111=AXIS2_PLACEMENT_3D('',#150,#124,#125);
#112=AXIS2_PLACEMENT_3D('PCS',#154,#126,#127);
#113=AXIS2_PLACEMENT_3D('MCS',#155,#128,#129);
#114=AXIS2_PLACEMENT_3D('CSW',#156,#130,#131);
#115=AXIS2_PLACEMENT_3D('',#157,#132,#133);
#116=AXIS2_PLACEMENT_3D('',#159,#134,#135);
#117=AXIS2_PLACEMENT_3D('',#160,#136,#137);
#118=AXIS2_PLACEMENT_3D('',#162,#138,#139);
#119=AXIS2_PLACEMENT_3D('',#163,#140,#141);
#120=AXIS2_PLACEMENT_3D('',#165,#142,#143);
#121=AXIS2_PLACEMENT_3D('',#166,#144,#145);
#122=AXIS2_PLACEMENT_3D('',#168,#146,#147);
#123=AXIS2_PLACEMENT_3D('',#169,#148,#149);
#124=DIRECTION('',(0.,0.,1.));
#125=DIRECTION('',(1.,0.,0.));
#126=DIRECTION('',(0.,0.,1.));
#127=DIRECTION('',(1.,0.,0.));
#128=DIRECTION('',(0.,0.,1.));
#129=DIRECTION('',(1.,0.,0.));
#130=DIRECTION('',(0.,0.,1.));
#131=DIRECTION('',(1.,0.,0.));
#132=DIRECTION('',(0.,0.,1.));
#133=DIRECTION('',(1.,0.,0.));
#134=DIRECTION('',(0.,0.,-1.));
#135=DIRECTION('',(1.,0.,0.));
#136=DIRECTION('',(0.,0.,1.));
#137=DIRECTION('',(1.,0.,0.));
#138=DIRECTION('',(0.,0.,1.));
#139=DIRECTION('',(-1.,0.,0.));
#140=DIRECTION('',(0.,0.,1.));
#141=DIRECTION('',(1.,0.,0.));
#142=DIRECTION('',(0.,0.,1.));
#143=DIRECTION('',(-1.,0.,0.));
#144=DIRECTION('',(0.,0.,1.));
#145=DIRECTION('',(1.,0.,0.));
#146=DIRECTION('',(0.,0.,-1.));
#147=DIRECTION('',(1.,0.,0.));
#148=DIRECTION('',(0.,0.,1.));
#149=DIRECTION('',(-1.,0.,0.));
#150=CARTESIAN_POINT('',(0.,0.,0.));
#151=CARTESIAN_POINT('',(0.,0.,0.));
#152=CARTESIAN_POINT('',(0.,0.,0.));
#153=CARTESIAN_POINT('',(0.,0.,-4.));
#154=CARTESIAN_POINT('',(0.,0.,0.));
#155=CARTESIAN_POINT('',(0.,0.,0.));
#156=CARTESIAN_POINT('',(0.,0.,-4.));
#157=CARTESIAN_POINT('',(0.,0.,40.));
#158=CARTESIAN_POINT('',(6.,0.,40.));
#159=CARTESIAN_POINT('',(-6.,0.,40.));
#160=CARTESIAN_POINT('',(0.,0.,-4.));
#161=CARTESIAN_POINT('',(8.,0.,-4.));
#162=CARTESIAN_POINT('',(0.,0.,-4.));
#163=CARTESIAN_POINT('',(0.,0.,0.));
#164=CARTESIAN_POINT('',(8.,0.,0.));
#165=CARTESIAN_POINT('',(0.,0.,0.));
#166=CARTESIAN_POINT('',(0.,0.,0.));
#167=CARTESIAN_POINT('',(6.,0.,0.));
#168=CARTESIAN_POINT('',(-8.,0.,0.));
#169=CARTESIAN_POINT('',(0.,0.,0.));
#170=MECHANICAL_DESIGN_GEOMETRIC_PRESENTATION_REPRESENTATION('',(#88,#89,
#90,#91,#92,#93,#94),#171);
#171=(
GEOMETRIC_REPRESENTATION_CONTEXT(3)
GLOBAL_UNCERTAINTY_ASSIGNED_CONTEXT((#172))
GLOBAL_UNIT_ASSIGNED_CONTEXT((#178,#174,#173))
REPRESENTATION_CONTEXT('1585051239056','TOP_LEVEL_ASSEMBLY_PART')
);
#172=UNCERTAINTY_MEASURE_WITH_UNIT(LENGTH_MEASURE(2.E-5),#178,
'DISTANCE_ACCURACY_VALUE','Maximum Tolerance applied to model');
#173=(
NAMED_UNIT(*)
SI_UNIT($,.STERADIAN.)
SOLID_ANGLE_UNIT()
);
#174=(
CONVERSION_BASED_UNIT('DEGREE',#176)
NAMED_UNIT(#175)
PLANE_ANGLE_UNIT()
);
#175=DIMENSIONAL_EXPONENTS(0.,0.,0.,0.,0.,0.,0.);
#176=PLANE_ANGLE_MEASURE_WITH_UNIT(PLANE_ANGLE_MEASURE(0.0174532925),#177);
#177=(
NAMED_UNIT(*)
PLANE_ANGLE_UNIT()
SI_UNIT($,.RADIAN.)
);
#178=(
LENGTH_UNIT()
NAMED_UNIT(*)
SI_UNIT(.MILLI.,.METRE.)
);
ENDSEC;
END-ISO-10303-21;
