ISO-10303-21;
HEADER;
/* Generated by software containing ST-Developer
 * from STEP Tools, Inc. (www.steptools.com) 
 */
/* OPTION: using custom schema-name function */

FILE_DESCRIPTION(
/* description */ (''),
/* implementation_level */ '2;1');

FILE_NAME(
/* name */ '1580468697232.stp',
/* time_stamp */ '2020-01-31T16:35:05+05:00',
/* author */ (''),
/* organization */ ('SMS'),
/* preprocessor_version */ 'ST-DEVELOPER v16.7',
/* originating_system */ 'SIEMENS PLM Software NX 12.0',
/* authorisation */ '');

FILE_SCHEMA (('AUTOMOTIVE_DESIGN { 1 0 10303 214 3 1 1 1 }'));
ENDSEC;

DATA;
#10=CONSTRUCTIVE_GEOMETRY_REPRESENTATION_RELATIONSHIP(
'supplemental geometry','',#26,#11);
#11=CONSTRUCTIVE_GEOMETRY_REPRESENTATION('supplemental geometry',(#229,
#230,#231),#380);
#12=GEOMETRICALLY_BOUNDED_WIREFRAME_SHAPE_REPRESENTATION(
'202824868mod000_00-None',(#27),#380);
#13=SHAPE_REPRESENTATION_RELATIONSHIP('None',
'relationship between 202824868mod000_00-None and 202824868mod000_00-N
one',#26,#15);
#14=SHAPE_REPRESENTATION_RELATIONSHIP('None',
'relationship between 202824868mod000_00-None and 202824868mod000_00-N
one',#26,#12);
#15=ADVANCED_BREP_SHAPE_REPRESENTATION('202824868mod000_00-None',(#39,#40),
#380);
#16=SHAPE_DEFINITION_REPRESENTATION(#17,#26);
#17=PRODUCT_DEFINITION_SHAPE('','',#18);
#18=PRODUCT_DEFINITION(' ','',#20,#19);
#19=PRODUCT_DEFINITION_CONTEXT('part definition',#25,'design');
#20=PRODUCT_DEFINITION_FORMATION_WITH_SPECIFIED_SOURCE(' ',' ',#22,
 .NOT_KNOWN.);
#21=PRODUCT_RELATED_PRODUCT_CATEGORY('part','',(#22));
#22=PRODUCT('202824868mod000_00','202824868mod000_00',' ',(#23));
#23=PRODUCT_CONTEXT(' ',#25,'mechanical');
#24=APPLICATION_PROTOCOL_DEFINITION('international standard',
'automotive_design',2010,#25);
#25=APPLICATION_CONTEXT(
'core data for automotive mechanical design processes');
#26=SHAPE_REPRESENTATION('202824868mod000_00-None',(#228),#380);
#27=GEOMETRIC_CURVE_SET('None',(#315,#316,#317,#318,#183,#184,#185));
#28=VERTEX_LOOP('',#143);
#29=SURFACE_STYLE_USAGE(.BOTH.,#31);
#30=SURFACE_STYLE_USAGE(.BOTH.,#32);
#31=SURFACE_SIDE_STYLE('',(#33));
#32=SURFACE_SIDE_STYLE('',(#34));
#33=SURFACE_STYLE_FILL_AREA(#35);
#34=SURFACE_STYLE_FILL_AREA(#36);
#35=FILL_AREA_STYLE('',(#37));
#36=FILL_AREA_STYLE('',(#38));
#37=FILL_AREA_STYLE_COLOUR('',#191);
#38=FILL_AREA_STYLE_COLOUR('',#192);
#39=MANIFOLD_SOLID_BREP('NOCUT',#41);
#40=MANIFOLD_SOLID_BREP('CUT',#42);
#41=CLOSED_SHELL('',(#57,#58,#59,#60,#61,#62,#63));
#42=CLOSED_SHELL('',(#64,#65,#66,#67,#68,#69));
#43=CONICAL_SURFACE('',#242,5.,45.);
#44=CONICAL_SURFACE('',#246,1.77635683940025E-15,69.9730540068558);
#45=CONICAL_SURFACE('',#250,3.42518749991723,0.0358098575393142);
#46=CONICAL_SURFACE('',#254,3.41232042464953,45.);
#47=PLANE('',#240);
#48=PLANE('',#244);
#49=PLANE('',#248);
#50=PLANE('',#255);
#51=FACE_OUTER_BOUND('',#98,.T.);
#52=FACE_OUTER_BOUND('',#103,.T.);
#53=FACE_OUTER_BOUND('',#113,.T.);
#54=TOROIDAL_SURFACE('',#237,4.2,0.800000000000004);
#55=TOROIDAL_SURFACE('',#238,5.40000000001126,0.799999999999998);
#56=TOROIDAL_SURFACE('',#252,3.43232560298885,0.02);
#57=ADVANCED_FACE('',(#72,#73),#70,.T.);
#58=ADVANCED_FACE('',(#74,#75),#54,.T.);
#59=ADVANCED_FACE('',(#76,#77),#55,.F.);
#60=ADVANCED_FACE('',(#51),#47,.T.);
#61=ADVANCED_FACE('',(#78,#79),#43,.T.);
#62=ADVANCED_FACE('SHANK',(#80,#81),#71,.T.);
#63=ADVANCED_FACE('',(#52),#48,.T.);
#64=ADVANCED_FACE('',(#82,#83),#44,.T.);
#65=ADVANCED_FACE('',(#84,#85),#49,.F.);
#66=ADVANCED_FACE('',(#86,#87),#45,.T.);
#67=ADVANCED_FACE('',(#88,#89),#56,.F.);
#68=ADVANCED_FACE('',(#90,#91),#46,.T.);
#69=ADVANCED_FACE('',(#53),#50,.F.);
#70=CYLINDRICAL_SURFACE('',#234,4.60000000001109);
#71=CYLINDRICAL_SURFACE('',#243,5.);
#72=FACE_BOUND('',#92,.T.);
#73=FACE_BOUND('',#93,.T.);
#74=FACE_BOUND('',#94,.T.);
#75=FACE_BOUND('',#95,.T.);
#76=FACE_BOUND('',#96,.T.);
#77=FACE_BOUND('',#97,.T.);
#78=FACE_BOUND('',#99,.T.);
#79=FACE_BOUND('',#100,.T.);
#80=FACE_BOUND('',#101,.T.);
#81=FACE_BOUND('',#102,.T.);
#82=FACE_BOUND('',#104,.T.);
#83=FACE_BOUND('',#28,.T.);
#84=FACE_BOUND('',#105,.T.);
#85=FACE_BOUND('',#106,.T.);
#86=FACE_BOUND('',#107,.T.);
#87=FACE_BOUND('',#108,.T.);
#88=FACE_BOUND('',#109,.T.);
#89=FACE_BOUND('',#110,.T.);
#90=FACE_BOUND('',#111,.T.);
#91=FACE_BOUND('',#112,.T.);
#92=EDGE_LOOP('',(#114));
#93=EDGE_LOOP('',(#115));
#94=EDGE_LOOP('',(#116));
#95=EDGE_LOOP('',(#117));
#96=EDGE_LOOP('',(#118));
#97=EDGE_LOOP('',(#119));
#98=EDGE_LOOP('',(#120));
#99=EDGE_LOOP('',(#121));
#100=EDGE_LOOP('',(#122));
#101=EDGE_LOOP('',(#123));
#102=EDGE_LOOP('',(#124));
#103=EDGE_LOOP('',(#125));
#104=EDGE_LOOP('',(#126));
#105=EDGE_LOOP('',(#127));
#106=EDGE_LOOP('',(#128));
#107=EDGE_LOOP('',(#129));
#108=EDGE_LOOP('',(#130));
#109=EDGE_LOOP('',(#131));
#110=EDGE_LOOP('',(#132));
#111=EDGE_LOOP('',(#133));
#112=EDGE_LOOP('',(#134));
#113=EDGE_LOOP('',(#135));
#114=ORIENTED_EDGE('',*,*,#148,.F.);
#115=ORIENTED_EDGE('',*,*,#149,.T.);
#116=ORIENTED_EDGE('',*,*,#150,.T.);
#117=ORIENTED_EDGE('',*,*,#151,.F.);
#118=ORIENTED_EDGE('',*,*,#151,.T.);
#119=ORIENTED_EDGE('',*,*,#148,.T.);
#120=ORIENTED_EDGE('',*,*,#152,.F.);
#121=ORIENTED_EDGE('',*,*,#152,.T.);
#122=ORIENTED_EDGE('',*,*,#153,.F.);
#123=ORIENTED_EDGE('',*,*,#153,.T.);
#124=ORIENTED_EDGE('',*,*,#150,.F.);
#125=ORIENTED_EDGE('',*,*,#149,.F.);
#126=ORIENTED_EDGE('',*,*,#154,.T.);
#127=ORIENTED_EDGE('',*,*,#154,.F.);
#128=ORIENTED_EDGE('',*,*,#155,.F.);
#129=ORIENTED_EDGE('',*,*,#155,.T.);
#130=ORIENTED_EDGE('',*,*,#156,.T.);
#131=ORIENTED_EDGE('',*,*,#157,.F.);
#132=ORIENTED_EDGE('',*,*,#156,.F.);
#133=ORIENTED_EDGE('',*,*,#157,.T.);
#134=ORIENTED_EDGE('',*,*,#158,.F.);
#135=ORIENTED_EDGE('',*,*,#158,.T.);
#136=VERTEX_POINT('',#344);
#137=VERTEX_POINT('',#346);
#138=VERTEX_POINT('',#349);
#139=VERTEX_POINT('',#351);
#140=VERTEX_POINT('',#355);
#141=VERTEX_POINT('',#358);
#142=VERTEX_POINT('',#363);
#143=VERTEX_POINT('',#364);
#144=VERTEX_POINT('',#367);
#145=VERTEX_POINT('',#370);
#146=VERTEX_POINT('',#373);
#147=VERTEX_POINT('',#376);
#148=EDGE_CURVE('',#136,#136,#159,.T.);
#149=EDGE_CURVE('',#137,#137,#160,.T.);
#150=EDGE_CURVE('',#138,#138,#161,.T.);
#151=EDGE_CURVE('',#139,#139,#162,.T.);
#152=EDGE_CURVE('',#140,#140,#163,.T.);
#153=EDGE_CURVE('',#141,#141,#164,.T.);
#154=EDGE_CURVE('',#142,#142,#165,.T.);
#155=EDGE_CURVE('',#144,#144,#166,.T.);
#156=EDGE_CURVE('',#145,#145,#167,.T.);
#157=EDGE_CURVE('',#146,#146,#168,.T.);
#158=EDGE_CURVE('',#147,#147,#169,.T.);
#159=CIRCLE('',#232,4.60000000001109);
#160=CIRCLE('',#233,4.60000000001109);
#161=CIRCLE('',#235,5.);
#162=CIRCLE('',#236,4.80000000000563);
#163=CIRCLE('',#239,3.66);
#164=CIRCLE('',#241,5.);
#165=CIRCLE('',#245,3.42);
#166=CIRCLE('',#247,3.42499893841026);
#167=CIRCLE('',#249,3.4123256068951);
#168=CIRCLE('',#251,3.41818346736513);
#169=CIRCLE('',#253,4.60000000001109);
#170=(
BOUNDED_CURVE()
B_SPLINE_CURVE(3,(#321,#322,#323,#324,#325,#326,#327,#328,#329,#330,#331,
#332,#333,#334,#335,#336,#337,#338,#339),.UNSPECIFIED.,.F.,.F.)
B_SPLINE_CURVE_WITH_KNOTS((4,3,3,3,3,3,4),(0.,0.383137660927586,0.383434697085593,
0.415014472677802,0.501930889162915,0.931220555407319,1.),.UNSPECIFIED.)
CURVE()
GEOMETRIC_REPRESENTATION_ITEM()
RATIONAL_B_SPLINE_CURVE((1.,1.,1.,1.,0.949173265893746,0.949173265893746,
1.,1.,1.,1.,1.,1.,1.,1.,1.,1.,1.,1.,1.))
REPRESENTATION_ITEM('CUTTING PART LINE')
);
#171=CURVE_STYLE('',#177,POSITIVE_LENGTH_MEASURE(0.18),#226);
#172=CURVE_STYLE('',#178,POSITIVE_LENGTH_MEASURE(0.18),#226);
#173=CURVE_STYLE('',#179,POSITIVE_LENGTH_MEASURE(0.18),#227);
#174=CURVE_STYLE('',#180,POSITIVE_LENGTH_MEASURE(0.18),#190);
#175=CURVE_STYLE('',#181,POSITIVE_LENGTH_MEASURE(0.18),#190);
#176=CURVE_STYLE('',#182,POSITIVE_LENGTH_MEASURE(0.18),#190);
#177=DRAUGHTING_PRE_DEFINED_CURVE_FONT('continuous');
#178=DRAUGHTING_PRE_DEFINED_CURVE_FONT('continuous');
#179=DRAUGHTING_PRE_DEFINED_CURVE_FONT('continuous');
#180=DRAUGHTING_PRE_DEFINED_CURVE_FONT('continuous');
#181=DRAUGHTING_PRE_DEFINED_CURVE_FONT('continuous');
#182=DRAUGHTING_PRE_DEFINED_CURVE_FONT('continuous');
#183=TRIMMED_CURVE('',#186,(PARAMETER_VALUE(0.)),(PARAMETER_VALUE(1.)),
 .T.,.PARAMETER.);
#184=TRIMMED_CURVE('',#187,(PARAMETER_VALUE(0.)),(PARAMETER_VALUE(1.)),
 .T.,.PARAMETER.);
#185=TRIMMED_CURVE('CUTTING PART LINE',#170,(PARAMETER_VALUE(0.)),(
PARAMETER_VALUE(1.)),.T.,.PARAMETER.);
#186=LINE('',#319,#188);
#187=LINE('',#320,#189);
#188=VECTOR('',#258,0.00499893841025179);
#189=VECTOR('',#259,0.00499893841025179);
#190=COLOUR_RGB('Medium Maroon',0.6,0.4,0.4);
#191=COLOUR_RGB('Medium Gray',0.501960784313725,0.501960784313725,0.501960784313725);
#192=COLOUR_RGB('Light Gray',0.8,0.8,0.8);
#193=PRESENTATION_LAYER_ASSIGNMENT('1','Layer 1',(#315,#316,#317,#318,#183,
#184,#185,#229,#230,#231,#39,#40));
#194=STYLED_ITEM('',(#206),#315);
#195=STYLED_ITEM('',(#207),#316);
#196=STYLED_ITEM('',(#208),#317);
#197=STYLED_ITEM('',(#209),#318);
#198=STYLED_ITEM('',(#210),#183);
#199=STYLED_ITEM('',(#211),#184);
#200=STYLED_ITEM('',(#212),#185);
#201=STYLED_ITEM('',(#213),#229);
#202=STYLED_ITEM('',(#214),#230);
#203=STYLED_ITEM('',(#215),#231);
#204=STYLED_ITEM('',(#216),#39);
#205=STYLED_ITEM('',(#217),#40);
#206=PRESENTATION_STYLE_ASSIGNMENT((#218));
#207=PRESENTATION_STYLE_ASSIGNMENT((#219));
#208=PRESENTATION_STYLE_ASSIGNMENT((#220));
#209=PRESENTATION_STYLE_ASSIGNMENT((#221));
#210=PRESENTATION_STYLE_ASSIGNMENT((#171));
#211=PRESENTATION_STYLE_ASSIGNMENT((#172));
#212=PRESENTATION_STYLE_ASSIGNMENT((#173));
#213=PRESENTATION_STYLE_ASSIGNMENT((#174));
#214=PRESENTATION_STYLE_ASSIGNMENT((#175));
#215=PRESENTATION_STYLE_ASSIGNMENT((#176));
#216=PRESENTATION_STYLE_ASSIGNMENT((#29));
#217=PRESENTATION_STYLE_ASSIGNMENT((#30));
#218=POINT_STYLE('',#222,POSITIVE_LENGTH_MEASURE(3.),#226);
#219=POINT_STYLE('',#223,POSITIVE_LENGTH_MEASURE(3.),#190);
#220=POINT_STYLE('',#224,POSITIVE_LENGTH_MEASURE(3.),#190);
#221=POINT_STYLE('',#225,POSITIVE_LENGTH_MEASURE(3.),#190);
#222=PRE_DEFINED_POINT_MARKER_SYMBOL('plus');
#223=PRE_DEFINED_POINT_MARKER_SYMBOL('plus');
#224=PRE_DEFINED_POINT_MARKER_SYMBOL('plus');
#225=PRE_DEFINED_POINT_MARKER_SYMBOL('plus');
#226=DRAUGHTING_PRE_DEFINED_COLOUR('white');
#227=DRAUGHTING_PRE_DEFINED_COLOUR('blue');
#228=AXIS2_PLACEMENT_3D('',#314,#256,#257);
#229=AXIS2_PLACEMENT_3D('PCS',#340,#260,#261);
#230=AXIS2_PLACEMENT_3D('CIP',#341,#262,#263);
#231=AXIS2_PLACEMENT_3D('MCS',#342,#264,#265);
#232=AXIS2_PLACEMENT_3D('',#343,#266,#267);
#233=AXIS2_PLACEMENT_3D('',#345,#268,#269);
#234=AXIS2_PLACEMENT_3D('',#347,#270,#271);
#235=AXIS2_PLACEMENT_3D('',#348,#272,#273);
#236=AXIS2_PLACEMENT_3D('',#350,#274,#275);
#237=AXIS2_PLACEMENT_3D('',#352,#276,#277);
#238=AXIS2_PLACEMENT_3D('',#353,#278,#279);
#239=AXIS2_PLACEMENT_3D('',#354,#280,#281);
#240=AXIS2_PLACEMENT_3D('',#356,#282,#283);
#241=AXIS2_PLACEMENT_3D('',#357,#284,#285);
#242=AXIS2_PLACEMENT_3D('',#359,#286,#287);
#243=AXIS2_PLACEMENT_3D('',#360,#288,#289);
#244=AXIS2_PLACEMENT_3D('',#361,#290,#291);
#245=AXIS2_PLACEMENT_3D('',#362,#292,#293);
#246=AXIS2_PLACEMENT_3D('',#365,#294,#295);
#247=AXIS2_PLACEMENT_3D('',#366,#296,#297);
#248=AXIS2_PLACEMENT_3D('',#368,#298,#299);
#249=AXIS2_PLACEMENT_3D('',#369,#300,#301);
#250=AXIS2_PLACEMENT_3D('',#371,#302,#303);
#251=AXIS2_PLACEMENT_3D('',#372,#304,#305);
#252=AXIS2_PLACEMENT_3D('',#374,#306,#307);
#253=AXIS2_PLACEMENT_3D('',#375,#308,#309);
#254=AXIS2_PLACEMENT_3D('',#377,#310,#311);
#255=AXIS2_PLACEMENT_3D('',#378,#312,#313);
#256=DIRECTION('',(0.,0.,1.));
#257=DIRECTION('',(1.,0.,0.));
#258=DIRECTION('',(1.,0.,0.));
#259=DIRECTION('',(1.,0.,0.));
#260=DIRECTION('',(0.,0.,1.));
#261=DIRECTION('',(1.,0.,0.));
#262=DIRECTION('',(0.,0.,1.));
#263=DIRECTION('',(1.,0.,0.));
#264=DIRECTION('',(0.,0.,1.));
#265=DIRECTION('',(1.,0.,0.));
#266=DIRECTION('',(0.,0.,1.));
#267=DIRECTION('',(1.,0.,0.));
#268=DIRECTION('',(0.,0.,1.));
#269=DIRECTION('',(-1.,0.,0.));
#270=DIRECTION('',(0.,0.,1.));
#271=DIRECTION('',(1.,0.,0.));
#272=DIRECTION('',(0.,0.,-1.));
#273=DIRECTION('',(-1.,0.,0.));
#274=DIRECTION('',(0.,0.,-1.));
#275=DIRECTION('',(-1.,0.,0.));
#276=DIRECTION('',(0.,0.,-1.));
#277=DIRECTION('',(-1.,0.,0.));
#278=DIRECTION('',(0.,0.,-1.));
#279=DIRECTION('',(-1.,0.,0.));
#280=DIRECTION('',(0.,0.,-1.));
#281=DIRECTION('',(-1.,0.,0.));
#282=DIRECTION('',(0.,0.,1.));
#283=DIRECTION('',(1.,0.,0.));
#284=DIRECTION('',(0.,0.,-1.));
#285=DIRECTION('',(-1.,0.,0.));
#286=DIRECTION('',(0.,0.,-1.));
#287=DIRECTION('',(-1.,0.,1.05291673666254E-16));
#288=DIRECTION('',(0.,0.,-1.));
#289=DIRECTION('',(-1.,0.,0.));
#290=DIRECTION('',(0.,0.,-1.));
#291=DIRECTION('',(-1.,0.,0.));
#292=DIRECTION('',(0.,0.,-1.));
#293=DIRECTION('',(1.,0.,0.));
#294=DIRECTION('',(0.,0.,1.));
#295=DIRECTION('',(1.,0.,1.01169884685506E-17));
#296=DIRECTION('',(0.,0.,1.));
#297=DIRECTION('',(1.,0.,0.));
#298=DIRECTION('',(0.,0.,1.));
#299=DIRECTION('',(1.,0.,0.));
#300=DIRECTION('',(0.,0.,-1.));
#301=DIRECTION('',(1.,0.,0.));
#302=DIRECTION('',(0.,0.,-1.));
#303=DIRECTION('',(-1.,0.,1.02793669239139E-14));
#304=DIRECTION('',(0.,0.,1.));
#305=DIRECTION('',(-1.,0.,0.));
#306=DIRECTION('',(0.,0.,-1.));
#307=DIRECTION('',(-1.,0.,0.));
#308=DIRECTION('',(0.,0.,1.));
#309=DIRECTION('',(1.,0.,0.));
#310=DIRECTION('',(0.,0.,1.));
#311=DIRECTION('',(1.,0.,2.76611867829992E-17));
#312=DIRECTION('',(0.,0.,-1.));
#313=DIRECTION('',(-1.,0.,0.));
#314=CARTESIAN_POINT('',(0.,0.,0.));
#315=CARTESIAN_POINT('CRP',(-3.425,0.,-87.8));
#316=CARTESIAN_POINT('',(0.,0.,0.));
#317=CARTESIAN_POINT('',(0.,0.,-89.));
#318=CARTESIAN_POINT('',(0.,0.,-40.));
#319=CARTESIAN_POINT('',(-3.42499893841026,0.,-87.7534));
#320=CARTESIAN_POINT('',(3.42,0.,-87.7534));
#321=CARTESIAN_POINT('',(-3.42499893841026,0.,-87.7534000000005));
#322=CARTESIAN_POINT('',(-3.42077449457187,0.,-80.994289859788));
#323=CARTESIAN_POINT('',(-3.41655005073349,0.,-74.2351797195755));
#324=CARTESIAN_POINT('',(-3.4123256068951,0.,-67.4760695793635));
#325=CARTESIAN_POINT('',(-3.41232224456509,0.,-67.4706898513419));
#326=CARTESIAN_POINT('',(-3.41437942445702,0.,-67.46571898665));
#327=CARTESIAN_POINT('',(-3.41818346736512,0.,-67.461914943742));
#328=CARTESIAN_POINT('',(-3.81212231158132,0.,-67.0679760995275));
#329=CARTESIAN_POINT('',(-4.20606115579577,0.,-66.6740372553113));
#330=CARTESIAN_POINT('',(-4.60000000001109,0.,-66.280098205548));
#331=CARTESIAN_POINT('',(-3.06666666667406,0.,-66.280098));
#332=CARTESIAN_POINT('',(-1.53333333333703,0.,-66.280098));
#333=CARTESIAN_POINT('',(0.,0.,-66.280098));
#334=CARTESIAN_POINT('',(0.,0.,-73.8533986666667));
#335=CARTESIAN_POINT('',(0.,0.,-81.4266993333333));
#336=CARTESIAN_POINT('',(0.,0.,-89.));
#337=CARTESIAN_POINT('',(-1.14,0.,-88.5844666666667));
#338=CARTESIAN_POINT('',(-2.28,0.,-88.1689333333333));
#339=CARTESIAN_POINT('',(-3.42,0.,-87.7534));
#340=CARTESIAN_POINT('',(0.,0.,0.));
#341=CARTESIAN_POINT('',(0.,0.,-89.));
#342=CARTESIAN_POINT('',(0.,0.,-40.));
#343=CARTESIAN_POINT('',(0.,0.,-41.0583005244131));
#344=CARTESIAN_POINT('',(4.60000000001109,0.,-41.0583005244131));
#345=CARTESIAN_POINT('',(0.,0.,-66.280098));
#346=CARTESIAN_POINT('',(-4.60000000001109,0.,-66.280098));
#347=CARTESIAN_POINT('',(0.,0.,15.401925));
#348=CARTESIAN_POINT('',(0.,0.,-40.));
#349=CARTESIAN_POINT('',(-5.,0.,-40.));
#350=CARTESIAN_POINT('',(0.,0.,-40.5291502622065));
#351=CARTESIAN_POINT('',(-4.80000000000563,0.,-40.5291502622065));
#352=CARTESIAN_POINT('',(0.,0.,-40.));
#353=CARTESIAN_POINT('',(0.,0.,-41.0583005244131));
#354=CARTESIAN_POINT('',(0.,0.,0.));
#355=CARTESIAN_POINT('',(-3.66,0.,0.));
#356=CARTESIAN_POINT('',(-3.66,0.,1.11022302462516E-16));
#357=CARTESIAN_POINT('',(0.,0.,-1.34));
#358=CARTESIAN_POINT('',(-5.,0.,-1.34));
#359=CARTESIAN_POINT('',(0.,0.,-1.34));
#360=CARTESIAN_POINT('',(0.,0.,15.401925));
#361=CARTESIAN_POINT('',(0.,0.,-66.280098));
#362=CARTESIAN_POINT('',(0.,-1.77635683940025E-15,-87.7534));
#363=CARTESIAN_POINT('',(3.42,-1.77635683940025E-15,-87.7534));
#364=CARTESIAN_POINT('',(0.,0.,-89.));
#365=CARTESIAN_POINT('',(0.,-1.77635683940025E-15,-89.));
#366=CARTESIAN_POINT('',(0.,0.,-87.7534));
#367=CARTESIAN_POINT('',(3.42499893841026,0.,-87.7534));
#368=CARTESIAN_POINT('',(0.,3.42,-87.7534));
#369=CARTESIAN_POINT('',(0.,0.,-67.4760695793637));
#370=CARTESIAN_POINT('',(3.4123256068951,0.,-67.4760695793637));
#371=CARTESIAN_POINT('',(0.,0.,-88.0550984111071));
#372=CARTESIAN_POINT('',(0.,0.,-67.461914943742));
#373=CARTESIAN_POINT('',(-3.41818346736513,0.,-67.461914943742));
#374=CARTESIAN_POINT('',(0.,0.,-67.4760570793657));
#375=CARTESIAN_POINT('',(0.,0.,-66.280098411096));
#376=CARTESIAN_POINT('',(4.60000000001109,0.,-66.280098411096));
#377=CARTESIAN_POINT('',(0.,0.,-67.4677779864576));
#378=CARTESIAN_POINT('',(0.,0.,-66.280098));
#379=MECHANICAL_DESIGN_GEOMETRIC_PRESENTATION_REPRESENTATION('',(#194,#195,
#196,#197,#198,#199,#200,#201,#202,#203,#204,#205),#380);
#380=(
GEOMETRIC_REPRESENTATION_CONTEXT(3)
GLOBAL_UNCERTAINTY_ASSIGNED_CONTEXT((#381))
GLOBAL_UNIT_ASSIGNED_CONTEXT((#387,#383,#382))
REPRESENTATION_CONTEXT('1580468697232','TOP_LEVEL_ASSEMBLY_PART')
);
#381=UNCERTAINTY_MEASURE_WITH_UNIT(LENGTH_MEASURE(2.E-5),#387,
'DISTANCE_ACCURACY_VALUE','Maximum Tolerance applied to model');
#382=(
NAMED_UNIT(*)
SI_UNIT($,.STERADIAN.)
SOLID_ANGLE_UNIT()
);
#383=(
CONVERSION_BASED_UNIT('DEGREE',#385)
NAMED_UNIT(#384)
PLANE_ANGLE_UNIT()
);
#384=DIMENSIONAL_EXPONENTS(0.,0.,0.,0.,0.,0.,0.);
#385=PLANE_ANGLE_MEASURE_WITH_UNIT(PLANE_ANGLE_MEASURE(0.0174532925),#386);
#386=(
NAMED_UNIT(*)
PLANE_ANGLE_UNIT()
SI_UNIT($,.RADIAN.)
);
#387=(
LENGTH_UNIT()
NAMED_UNIT(*)
SI_UNIT(.MILLI.,.METRE.)
);
ENDSEC;
END-ISO-10303-21;
