ISO-10303-21;
HEADER;
/* Generated by software containing ST-Developer
 * from STEP Tools, Inc. (www.steptools.com) 
 */
/* OPTION: using custom schema-name function */

FILE_DESCRIPTION(
/* description */ (''),
/* implementation_level */ '2;1');

FILE_NAME(
/* name */ 'tool_1.stp',
/* time_stamp */ '2020-07-21T14:23:19+02:00',
/* author */ (''),
/* organization */ ('SMS'),
/* preprocessor_version */ 'ST-DEVELOPER v16.7',
/* originating_system */ 'SIEMENS PLM Software NX 12.0',
/* authorisation */ '');

FILE_SCHEMA (('AUTOMOTIVE_DESIGN { 1 0 10303 214 3 1 1 1 }'));
ENDSEC;

DATA;
#10=CONSTRUCTIVE_GEOMETRY_REPRESENTATION_RELATIONSHIP(
'supplemental geometry','',#26,#11);
#11=CONSTRUCTIVE_GEOMETRY_REPRESENTATION('supplemental geometry',(#178,
#179,#180),#305);
#12=GEOMETRICALLY_BOUNDED_WIREFRAME_SHAPE_REPRESENTATION('TOOL_1-None',
(#27),#305);
#13=SHAPE_REPRESENTATION_RELATIONSHIP('None',
'relationship between TOOL_1-None and TOOL_1-None',#26,#15);
#14=SHAPE_REPRESENTATION_RELATIONSHIP('None',
'relationship between TOOL_1-None and TOOL_1-None',#26,#12);
#15=ADVANCED_BREP_SHAPE_REPRESENTATION('TOOL_1-None',(#39,#40),#305);
#16=SHAPE_DEFINITION_REPRESENTATION(#17,#26);
#17=PRODUCT_DEFINITION_SHAPE('','',#18);
#18=PRODUCT_DEFINITION(' ','',#20,#19);
#19=PRODUCT_DEFINITION_CONTEXT('part definition',#25,'design');
#20=PRODUCT_DEFINITION_FORMATION_WITH_SPECIFIED_SOURCE(' ',' ',#22,
 .NOT_KNOWN.);
#21=PRODUCT_RELATED_PRODUCT_CATEGORY('part','',(#22));
#22=PRODUCT('TOOL_1','TOOL_1',' ',(#23));
#23=PRODUCT_CONTEXT(' ',#25,'mechanical');
#24=APPLICATION_PROTOCOL_DEFINITION('international standard',
'automotive_design',2010,#25);
#25=APPLICATION_CONTEXT(
'core data for automotive mechanical design processes');
#26=SHAPE_REPRESENTATION('TOOL_1-None',(#177),#305);
#27=GEOMETRIC_CURVE_SET('None',(#241,#242,#243,#144));
#28=VERTEX_LOOP('',#127);
#29=SURFACE_STYLE_USAGE(.BOTH.,#31);
#30=SURFACE_STYLE_USAGE(.BOTH.,#32);
#31=SURFACE_SIDE_STYLE('',(#33));
#32=SURFACE_SIDE_STYLE('',(#34));
#33=SURFACE_STYLE_FILL_AREA(#35);
#34=SURFACE_STYLE_FILL_AREA(#36);
#35=FILL_AREA_STYLE('',(#37));
#36=FILL_AREA_STYLE('',(#38));
#37=FILL_AREA_STYLE_COLOUR('',#175);
#38=FILL_AREA_STYLE_COLOUR('',#176);
#39=MANIFOLD_SOLID_BREP('NOCUT',#41);
#40=MANIFOLD_SOLID_BREP('CUT',#42);
#41=CLOSED_SHELL('',(#52,#53,#54,#55,#56,#57,#58));
#42=CLOSED_SHELL('',(#59,#60,#61));
#43=CYLINDRICAL_SURFACE('',#191,4.);
#44=PLANE('',#188);
#45=PLANE('',#192);
#46=PLANE('',#194);
#47=FACE_OUTER_BOUND('',#93,.T.);
#48=FACE_OUTER_BOUND('',#98,.T.);
#49=FACE_OUTER_BOUND('',#99,.T.);
#50=TOROIDAL_SURFACE('',#184,4.42459798992673,0.799999999999998);
#51=TOROIDAL_SURFACE('',#186,3.2,0.800000000000002);
#52=ADVANCED_FACE('',(#73,#74),#62,.T.);
#53=ADVANCED_FACE('',(#75,#76),#50,.F.);
#54=ADVANCED_FACE('',(#77,#78),#51,.T.);
#55=ADVANCED_FACE('',(#47),#44,.T.);
#56=ADVANCED_FACE('',(#79,#80),#63,.T.);
#57=ADVANCED_FACE('SHANK',(#81,#82),#43,.T.);
#58=ADVANCED_FACE('',(#48),#45,.T.);
#59=ADVANCED_FACE('',(#49),#46,.T.);
#60=ADVANCED_FACE('',(#83,#84),#64,.T.);
#61=ADVANCED_FACE('',(#85,#86),#65,.T.);
#62=CONICAL_SURFACE('',#182,3.6501875,0.0358098575329426);
#63=CONICAL_SURFACE('',#190,4.,45.);
#64=CONICAL_SURFACE('',#196,3.6501875,0.0358098575329426);
#65=CONICAL_SURFACE('',#197,1.77635683940025E-15,69.9999999999998);
#66=CIRCLE('',#181,3.63632924768343);
#67=CIRCLE('',#183,3.81229899496336);
#68=CIRCLE('',#185,4.);
#69=CIRCLE('',#187,2.76);
#70=CIRCLE('',#189,4.);
#71=CIRCLE('',#193,3.63632924768343);
#72=CIRCLE('',#195,3.65);
#73=FACE_BOUND('',#87,.T.);
#74=FACE_BOUND('',#88,.T.);
#75=FACE_BOUND('',#89,.T.);
#76=FACE_BOUND('',#90,.T.);
#77=FACE_BOUND('',#91,.T.);
#78=FACE_BOUND('',#92,.T.);
#79=FACE_BOUND('',#94,.T.);
#80=FACE_BOUND('',#95,.T.);
#81=FACE_BOUND('',#96,.T.);
#82=FACE_BOUND('',#97,.T.);
#83=FACE_BOUND('',#100,.T.);
#84=FACE_BOUND('',#101,.T.);
#85=FACE_BOUND('',#102,.T.);
#86=FACE_BOUND('',#28,.T.);
#87=EDGE_LOOP('',(#103));
#88=EDGE_LOOP('',(#104));
#89=EDGE_LOOP('',(#105));
#90=EDGE_LOOP('',(#106));
#91=EDGE_LOOP('',(#107));
#92=EDGE_LOOP('',(#108));
#93=EDGE_LOOP('',(#109));
#94=EDGE_LOOP('',(#110));
#95=EDGE_LOOP('',(#111));
#96=EDGE_LOOP('',(#112));
#97=EDGE_LOOP('',(#113));
#98=EDGE_LOOP('',(#114));
#99=EDGE_LOOP('',(#115));
#100=EDGE_LOOP('',(#116));
#101=EDGE_LOOP('',(#117));
#102=EDGE_LOOP('',(#118));
#103=ORIENTED_EDGE('',*,*,#128,.F.);
#104=ORIENTED_EDGE('',*,*,#129,.F.);
#105=ORIENTED_EDGE('',*,*,#130,.F.);
#106=ORIENTED_EDGE('',*,*,#128,.T.);
#107=ORIENTED_EDGE('',*,*,#131,.F.);
#108=ORIENTED_EDGE('',*,*,#130,.T.);
#109=ORIENTED_EDGE('',*,*,#132,.F.);
#110=ORIENTED_EDGE('',*,*,#132,.T.);
#111=ORIENTED_EDGE('',*,*,#133,.F.);
#112=ORIENTED_EDGE('',*,*,#133,.T.);
#113=ORIENTED_EDGE('',*,*,#131,.T.);
#114=ORIENTED_EDGE('',*,*,#129,.T.);
#115=ORIENTED_EDGE('',*,*,#134,.T.);
#116=ORIENTED_EDGE('',*,*,#135,.T.);
#117=ORIENTED_EDGE('',*,*,#134,.F.);
#118=ORIENTED_EDGE('',*,*,#135,.F.);
#119=VERTEX_POINT('',#278);
#120=VERTEX_POINT('',#280);
#121=VERTEX_POINT('',#283);
#122=VERTEX_POINT('',#286);
#123=VERTEX_POINT('',#289);
#124=VERTEX_POINT('',#292);
#125=VERTEX_POINT('',#297);
#126=VERTEX_POINT('',#300);
#127=VERTEX_POINT('',#302);
#128=EDGE_CURVE('',#119,#119,#145,.T.);
#129=EDGE_CURVE('',#120,#120,#66,.T.);
#130=EDGE_CURVE('',#121,#121,#67,.T.);
#131=EDGE_CURVE('',#122,#122,#68,.T.);
#132=EDGE_CURVE('',#123,#123,#69,.T.);
#133=EDGE_CURVE('',#124,#124,#70,.T.);
#134=EDGE_CURVE('',#125,#125,#71,.T.);
#135=EDGE_CURVE('',#126,#126,#72,.T.);
#136=CURVE_STYLE('',#140,POSITIVE_LENGTH_MEASURE(0.18),#147);
#137=CURVE_STYLE('',#141,POSITIVE_LENGTH_MEASURE(0.13),#174);
#138=CURVE_STYLE('',#142,POSITIVE_LENGTH_MEASURE(0.18),#173);
#139=CURVE_STYLE('',#143,POSITIVE_LENGTH_MEASURE(0.18),#173);
#140=DRAUGHTING_PRE_DEFINED_CURVE_FONT('continuous');
#141=DRAUGHTING_PRE_DEFINED_CURVE_FONT('continuous');
#142=DRAUGHTING_PRE_DEFINED_CURVE_FONT('continuous');
#143=DRAUGHTING_PRE_DEFINED_CURVE_FONT('continuous');
#144=B_SPLINE_CURVE_WITH_KNOTS('CUTTING PART LINE',3,(#244,#245,#246,#247,
#248,#249,#250,#251,#252,#253,#254,#255,#256),.UNSPECIFIED.,.T.,.F.,(4,
3,3,3,4),(0.,0.441130964255325,0.510273094744274,0.926143859947837,1.),
 .UNSPECIFIED.);
#145=B_SPLINE_CURVE_WITH_KNOTS('',3,(#260,#261,#262,#263,#264,#265,#266,
#267,#268,#269,#270,#271,#272,#273,#274,#275,#276,#277),.UNSPECIFIED.,.T.,
 .F.,(2,2,2,2,2,2,2,2,2,2,2),(-0.125,0.,0.125,0.25,0.375,0.5,0.625,0.75,
0.875,1.,1.125),.UNSPECIFIED.);
#146=DRAUGHTING_PRE_DEFINED_COLOUR('white');
#147=DRAUGHTING_PRE_DEFINED_COLOUR('blue');
#148=PRESENTATION_LAYER_ASSIGNMENT('1','Layer 1',(#241,#242,#243,#144,#178,
#179,#180,#39,#40));
#149=STYLED_ITEM('',(#158),#241);
#150=STYLED_ITEM('',(#159),#242);
#151=STYLED_ITEM('',(#160),#243);
#152=STYLED_ITEM('',(#161),#144);
#153=STYLED_ITEM('',(#162),#178);
#154=STYLED_ITEM('',(#163),#179);
#155=STYLED_ITEM('',(#164),#180);
#156=STYLED_ITEM('',(#165),#39);
#157=STYLED_ITEM('',(#166),#40);
#158=PRESENTATION_STYLE_ASSIGNMENT((#167));
#159=PRESENTATION_STYLE_ASSIGNMENT((#168));
#160=PRESENTATION_STYLE_ASSIGNMENT((#169));
#161=PRESENTATION_STYLE_ASSIGNMENT((#136));
#162=PRESENTATION_STYLE_ASSIGNMENT((#137));
#163=PRESENTATION_STYLE_ASSIGNMENT((#138));
#164=PRESENTATION_STYLE_ASSIGNMENT((#139));
#165=PRESENTATION_STYLE_ASSIGNMENT((#29));
#166=PRESENTATION_STYLE_ASSIGNMENT((#30));
#167=POINT_STYLE('',#170,POSITIVE_LENGTH_MEASURE(3.),#173);
#168=POINT_STYLE('',#171,POSITIVE_LENGTH_MEASURE(3.),#146);
#169=POINT_STYLE('',#172,POSITIVE_LENGTH_MEASURE(3.),#173);
#170=PRE_DEFINED_POINT_MARKER_SYMBOL('plus');
#171=PRE_DEFINED_POINT_MARKER_SYMBOL('plus');
#172=PRE_DEFINED_POINT_MARKER_SYMBOL('plus');
#173=COLOUR_RGB('Medium Maroon',0.6,0.4,0.4);
#174=COLOUR_RGB('Silver Gray',0.6,0.6,0.6);
#175=COLOUR_RGB('TLS_NOCUT',0.498023956664378,0.498023956664378,0.498023956664378);
#176=COLOUR_RGB('TLS_CUT',0.8,0.8,0.8);
#177=AXIS2_PLACEMENT_3D('',#240,#198,#199);
#178=AXIS2_PLACEMENT_3D('PCS',#257,#200,#201);
#179=AXIS2_PLACEMENT_3D('MCS',#258,#202,#203);
#180=AXIS2_PLACEMENT_3D('CIP',#259,#204,#205);
#181=AXIS2_PLACEMENT_3D('',#279,#206,#207);
#182=AXIS2_PLACEMENT_3D('',#281,#208,#209);
#183=AXIS2_PLACEMENT_3D('',#282,#210,#211);
#184=AXIS2_PLACEMENT_3D('',#284,#212,#213);
#185=AXIS2_PLACEMENT_3D('',#285,#214,#215);
#186=AXIS2_PLACEMENT_3D('',#287,#216,#217);
#187=AXIS2_PLACEMENT_3D('',#288,#218,#219);
#188=AXIS2_PLACEMENT_3D('',#290,#220,#221);
#189=AXIS2_PLACEMENT_3D('',#291,#222,#223);
#190=AXIS2_PLACEMENT_3D('',#293,#224,#225);
#191=AXIS2_PLACEMENT_3D('',#294,#226,#227);
#192=AXIS2_PLACEMENT_3D('',#295,#228,#229);
#193=AXIS2_PLACEMENT_3D('',#296,#230,#231);
#194=AXIS2_PLACEMENT_3D('',#298,#232,#233);
#195=AXIS2_PLACEMENT_3D('',#299,#234,#235);
#196=AXIS2_PLACEMENT_3D('',#301,#236,#237);
#197=AXIS2_PLACEMENT_3D('',#303,#238,#239);
#198=DIRECTION('',(0.,0.,1.));
#199=DIRECTION('',(1.,0.,0.));
#200=DIRECTION('',(0.,0.,1.));
#201=DIRECTION('',(1.,0.,0.));
#202=DIRECTION('',(0.,0.,1.));
#203=DIRECTION('',(1.,0.,0.));
#204=DIRECTION('',(0.,0.,1.));
#205=DIRECTION('',(1.,0.,0.));
#206=DIRECTION('',(0.,0.,-1.));
#207=DIRECTION('',(-1.,0.,0.));
#208=DIRECTION('',(0.,0.,-1.));
#209=DIRECTION('',(-1.,0.,6.49224756004925E-15));
#210=DIRECTION('',(0.,0.,1.));
#211=DIRECTION('',(1.,0.,0.));
#212=DIRECTION('',(0.,0.,1.));
#213=DIRECTION('',(1.,0.,0.));
#214=DIRECTION('',(0.,0.,1.));
#215=DIRECTION('',(1.,0.,0.));
#216=DIRECTION('',(0.,0.,1.));
#217=DIRECTION('',(1.,0.,0.));
#218=DIRECTION('',(0.,0.,-1.));
#219=DIRECTION('',(-1.,0.,0.));
#220=DIRECTION('',(0.,0.,1.));
#221=DIRECTION('',(1.,0.,0.));
#222=DIRECTION('',(0.,0.,-1.));
#223=DIRECTION('',(-1.,0.,0.));
#224=DIRECTION('',(0.,0.,-1.));
#225=DIRECTION('',(-1.,0.,9.33018602617009E-17));
#226=DIRECTION('',(0.,0.,-1.));
#227=DIRECTION('',(-1.,0.,0.));
#228=DIRECTION('',(0.,0.,-1.));
#229=DIRECTION('',(-1.,0.,0.));
#230=DIRECTION('',(0.,0.,1.));
#231=DIRECTION('',(1.,0.,0.));
#232=DIRECTION('',(0.,0.,1.));
#233=DIRECTION('',(1.,0.,0.));
#234=DIRECTION('',(0.,0.,1.));
#235=DIRECTION('',(1.,0.,0.));
#236=DIRECTION('',(0.,0.,-1.));
#237=DIRECTION('',(-1.,0.,6.49224756004925E-15));
#238=DIRECTION('',(0.,0.,1.));
#239=DIRECTION('',(1.,0.,1.51533050385208E-17));
#240=CARTESIAN_POINT('',(0.,0.,0.));
#241=CARTESIAN_POINT('',(0.,0.,-36.));
#242=CARTESIAN_POINT('CRP',(-3.65,0.,-77.6715));
#243=CARTESIAN_POINT('CIP_DCSYS',(0.,0.,-79.));
#244=CARTESIAN_POINT('',(0.,0.,-79.));
#245=CARTESIAN_POINT('',(0.,0.,-71.2666666666667));
#246=CARTESIAN_POINT('',(0.,0.,-63.5333333333333));
#247=CARTESIAN_POINT('',(0.,0.,-55.8));
#248=CARTESIAN_POINT('',(-1.21210974922781,0.,-55.8));
#249=CARTESIAN_POINT('',(-2.42421949845562,0.,-55.8));
#250=CARTESIAN_POINT('',(-3.63632924768343,0.,-55.8000000000001));
#251=CARTESIAN_POINT('',(-3.64088581206477,0.,-63.0905030101454));
#252=CARTESIAN_POINT('',(-3.64544237644611,0.,-70.3810060202905));
#253=CARTESIAN_POINT('',(-3.64999947041373,0.,-77.671508837682));
#254=CARTESIAN_POINT('',(-2.43333333333334,0.,-78.1143390966189));
#255=CARTESIAN_POINT('',(-1.21666666666667,0.,-78.5571695483094));
#256=CARTESIAN_POINT('',(-8.39872166801585E-15,0.,-79.));
#257=CARTESIAN_POINT('',(0.,0.,0.));
#258=CARTESIAN_POINT('',(0.,0.,-36.));
#259=CARTESIAN_POINT('',(0.,0.,-79.));
#260=CARTESIAN_POINT('',(-3.6251500992906,0.949062076674305,-37.0000212192814));
#261=CARTESIAN_POINT('',(-3.6251500992906,-0.949062076674304,-37.0000212192814));
#262=CARTESIAN_POINT('',(-3.23445644821086,-1.89227998784408,-37.0000212192814));
#263=CARTESIAN_POINT('',(-1.89227998784408,-3.23445644821086,-37.0000212192814));
#264=CARTESIAN_POINT('',(-0.949062076674306,-3.6251500992906,-37.0000212192814));
#265=CARTESIAN_POINT('',(0.949062076674304,-3.6251500992906,-37.0000212192814));
#266=CARTESIAN_POINT('',(1.89227998784408,-3.23445644821086,-37.0000212192814));
#267=CARTESIAN_POINT('',(3.23445644821086,-1.89227998784408,-37.0000212192814));
#268=CARTESIAN_POINT('',(3.6251500992906,-0.949062076674305,-37.0000212192814));
#269=CARTESIAN_POINT('',(3.6251500992906,0.949062076674304,-37.0000212192814));
#270=CARTESIAN_POINT('',(3.23445644821086,1.89227998784408,-37.0000212192814));
#271=CARTESIAN_POINT('',(1.89227998784409,3.23445644821086,-37.0000212192814));
#272=CARTESIAN_POINT('',(0.949062076674306,3.6251500992906,-37.0000212192814));
#273=CARTESIAN_POINT('',(-0.949062076674304,3.6251500992906,-37.0000212192814));
#274=CARTESIAN_POINT('',(-1.89227998784409,3.23445644821086,-37.0000212192814));
#275=CARTESIAN_POINT('',(-3.23445644821086,1.89227998784408,-37.0000212192814));
#276=CARTESIAN_POINT('',(-3.6251500992906,0.949062076674305,-37.0000212192814));
#277=CARTESIAN_POINT('',(-3.6251500992906,-0.949062076674304,-37.0000212192814));
#278=CARTESIAN_POINT('',(-3.62486467348702,6.65929269828742E-16,-37.0000106096407));
#279=CARTESIAN_POINT('',(0.,0.,-55.8));
#280=CARTESIAN_POINT('',(-3.63632924768343,0.,-55.8));
#281=CARTESIAN_POINT('',(0.,0.,-77.9732037065095));
#282=CARTESIAN_POINT('',(0.,0.,-36.5148688578336));
#283=CARTESIAN_POINT('',(3.81229899496336,0.,-36.5148688578336));
#284=CARTESIAN_POINT('',(0.,0.,-37.0297377156672));
#285=CARTESIAN_POINT('',(0.,0.,-36.));
#286=CARTESIAN_POINT('',(4.,0.,-36.));
#287=CARTESIAN_POINT('',(0.,0.,-36.));
#288=CARTESIAN_POINT('',(0.,0.,0.));
#289=CARTESIAN_POINT('',(-2.76,0.,0.));
#290=CARTESIAN_POINT('',(-2.76,0.,1.11022302462516E-16));
#291=CARTESIAN_POINT('',(0.,0.,-1.24));
#292=CARTESIAN_POINT('',(-4.,0.,-1.24));
#293=CARTESIAN_POINT('',(0.,0.,-1.24));
#294=CARTESIAN_POINT('',(0.,0.,15.401925));
#295=CARTESIAN_POINT('',(0.,0.,-55.8));
#296=CARTESIAN_POINT('',(0.,0.,-55.8));
#297=CARTESIAN_POINT('',(3.63632924768343,0.,-55.8));
#298=CARTESIAN_POINT('',(0.,0.,-55.8));
#299=CARTESIAN_POINT('',(0.,-1.77635683940025E-15,-77.6715086449284));
#300=CARTESIAN_POINT('',(3.65,-1.77635683940025E-15,-77.6715086449284));
#301=CARTESIAN_POINT('',(0.,0.,-77.9732037065095));
#302=CARTESIAN_POINT('',(0.,0.,-79.));
#303=CARTESIAN_POINT('',(0.,-1.77635683940025E-15,-79.));
#304=MECHANICAL_DESIGN_GEOMETRIC_PRESENTATION_REPRESENTATION('',(#149,#150,
#151,#152,#153,#154,#155,#156,#157),#305);
#305=(
GEOMETRIC_REPRESENTATION_CONTEXT(3)
GLOBAL_UNCERTAINTY_ASSIGNED_CONTEXT((#306))
GLOBAL_UNIT_ASSIGNED_CONTEXT((#312,#308,#307))
REPRESENTATION_CONTEXT('tool_1','TOP_LEVEL_ASSEMBLY_PART')
);
#306=UNCERTAINTY_MEASURE_WITH_UNIT(LENGTH_MEASURE(0.0508),#312,
'DISTANCE_ACCURACY_VALUE','Maximum Tolerance applied to model');
#307=(
NAMED_UNIT(*)
SI_UNIT($,.STERADIAN.)
SOLID_ANGLE_UNIT()
);
#308=(
CONVERSION_BASED_UNIT('DEGREE',#310)
NAMED_UNIT(#309)
PLANE_ANGLE_UNIT()
);
#309=DIMENSIONAL_EXPONENTS(0.,0.,0.,0.,0.,0.,0.);
#310=PLANE_ANGLE_MEASURE_WITH_UNIT(PLANE_ANGLE_MEASURE(0.0174532925),#311);
#311=(
NAMED_UNIT(*)
PLANE_ANGLE_UNIT()
SI_UNIT($,.RADIAN.)
);
#312=(
LENGTH_UNIT()
NAMED_UNIT(*)
SI_UNIT(.MILLI.,.METRE.)
);
ENDSEC;
END-ISO-10303-21;
