ISO-10303-21;
HEADER;
/* Generated by software containing ST-Developer
 * from STEP Tools, Inc. (www.steptools.com) 
 */
/* OPTION: using custom schema-name function */

FILE_DESCRIPTION(
/* description */ (''),
/* implementation_level */ '2;1');

FILE_NAME(
/* name */ '1574237605244.stp',
/* time_stamp */ '2019-11-20T09:13:49+01:00',
/* author */ (''),
/* organization */ ('SMS'),
/* preprocessor_version */ 'ST-DEVELOPER v16.7',
/* originating_system */ 'SIEMENS PLM Software NX 12.0',
/* authorisation */ '');

FILE_SCHEMA (('AUTOMOTIVE_DESIGN { 1 0 10303 214 3 1 1 1 }'));
ENDSEC;

DATA;
#10=CONSTRUCTIVE_GEOMETRY_REPRESENTATION_RELATIONSHIP(
'supplemental geometry','',#26,#11);
#11=CONSTRUCTIVE_GEOMETRY_REPRESENTATION('supplemental geometry',(#276,
#277,#278),#449);
#12=GEOMETRICALLY_BOUNDED_WIREFRAME_SHAPE_REPRESENTATION(
'202698453mod000_02-None',(#27),#449);
#13=SHAPE_REPRESENTATION_RELATIONSHIP('None',
'relationship between 202698453mod000_02-None and 202698453mod000_02-N
one',#26,#15);
#14=SHAPE_REPRESENTATION_RELATIONSHIP('None',
'relationship between 202698453mod000_02-None and 202698453mod000_02-N
one',#26,#12);
#15=ADVANCED_BREP_SHAPE_REPRESENTATION('202698453mod000_02-None',(#39,#40),
#449);
#16=SHAPE_DEFINITION_REPRESENTATION(#17,#26);
#17=PRODUCT_DEFINITION_SHAPE('','',#18);
#18=PRODUCT_DEFINITION(' ','',#20,#19);
#19=PRODUCT_DEFINITION_CONTEXT('part definition',#25,'design');
#20=PRODUCT_DEFINITION_FORMATION_WITH_SPECIFIED_SOURCE(' ',' ',#22,
 .NOT_KNOWN.);
#21=PRODUCT_RELATED_PRODUCT_CATEGORY('part','',(#22));
#22=PRODUCT('202698453mod000_02','202698453mod000_02','MASTER_INSERT',(#23));
#23=PRODUCT_CONTEXT(' ',#25,'mechanical');
#24=APPLICATION_PROTOCOL_DEFINITION('international standard',
'automotive_design',2010,#25);
#25=APPLICATION_CONTEXT(
'core data for automotive mechanical design processes');
#26=SHAPE_REPRESENTATION('202698453mod000_02-None',(#275),#449);
#27=GEOMETRIC_CURVE_SET('None',(#382,#383,#384,#385,#222,#223,#224,#225,
#204));
#28=VERTEX_LOOP('',#174);
#29=SURFACE_STYLE_USAGE(.BOTH.,#31);
#30=SURFACE_STYLE_USAGE(.BOTH.,#32);
#31=SURFACE_SIDE_STYLE('',(#33));
#32=SURFACE_SIDE_STYLE('',(#34));
#33=SURFACE_STYLE_FILL_AREA(#35);
#34=SURFACE_STYLE_FILL_AREA(#36);
#35=FILL_AREA_STYLE('',(#37));
#36=FILL_AREA_STYLE('',(#38));
#37=FILL_AREA_STYLE_COLOUR('',#273);
#38=FILL_AREA_STYLE_COLOUR('',#274);
#39=MANIFOLD_SOLID_BREP('NOCUT',#41);
#40=MANIFOLD_SOLID_BREP('CUT',#42);
#41=CLOSED_SHELL('',(#79,#80,#81,#82,#83,#84,#85,#86,#87,#88,#89,#90,#91));
#42=CLOSED_SHELL('',(#92,#93,#94));
#43=TOROIDAL_SURFACE('',#286,4.,0.5);
#44=TOROIDAL_SURFACE('',#294,6.12405278839403,0.4);
#45=CYLINDRICAL_SURFACE('',#284,3.5);
#46=CYLINDRICAL_SURFACE('',#298,7.75);
#47=CYLINDRICAL_SURFACE('',#302,8.);
#48=CONICAL_SURFACE('',#282,3.3,44.9999999999997);
#49=CONICAL_SURFACE('',#290,4.55949583781244,6.);
#50=CONICAL_SURFACE('',#292,5.63155903752234,2.19999999999997);
#51=CONICAL_SURFACE('',#307,0.750000000000006,44.9999999999999);
#52=CONICAL_SURFACE('',#308,9.43689570931383E-15,69.9999999999998);
#53=FACE_BOUND('',#105,.T.);
#54=FACE_BOUND('',#106,.T.);
#55=FACE_BOUND('',#107,.T.);
#56=FACE_BOUND('',#108,.T.);
#57=FACE_BOUND('',#109,.T.);
#58=FACE_BOUND('',#110,.T.);
#59=FACE_BOUND('',#111,.T.);
#60=FACE_BOUND('',#112,.T.);
#61=FACE_BOUND('',#113,.T.);
#62=FACE_BOUND('',#114,.T.);
#63=FACE_BOUND('',#115,.T.);
#64=FACE_BOUND('',#116,.T.);
#65=FACE_BOUND('',#117,.T.);
#66=FACE_BOUND('',#118,.T.);
#67=FACE_BOUND('',#119,.T.);
#68=FACE_BOUND('',#120,.T.);
#69=FACE_BOUND('',#121,.T.);
#70=FACE_BOUND('',#122,.T.);
#71=FACE_BOUND('',#123,.T.);
#72=FACE_BOUND('',#124,.T.);
#73=FACE_BOUND('',#125,.T.);
#74=FACE_BOUND('',#126,.T.);
#75=FACE_BOUND('',#129,.T.);
#76=FACE_BOUND('',#130,.T.);
#77=FACE_BOUND('',#131,.T.);
#78=FACE_BOUND('',#28,.T.);
#79=ADVANCED_FACE('',(#101),#95,.F.);
#80=ADVANCED_FACE('',(#53,#54),#48,.T.);
#81=ADVANCED_FACE('',(#55,#56),#45,.T.);
#82=ADVANCED_FACE('',(#57,#58),#43,.F.);
#83=ADVANCED_FACE('',(#59,#60),#96,.F.);
#84=ADVANCED_FACE('',(#61,#62),#49,.T.);
#85=ADVANCED_FACE('',(#63,#64),#50,.T.);
#86=ADVANCED_FACE('',(#65,#66),#44,.F.);
#87=ADVANCED_FACE('',(#67,#68),#97,.F.);
#88=ADVANCED_FACE('',(#69,#70),#46,.T.);
#89=ADVANCED_FACE('',(#71,#72),#98,.T.);
#90=ADVANCED_FACE('',(#73,#74),#47,.T.);
#91=ADVANCED_FACE('',(#102),#99,.F.);
#92=ADVANCED_FACE('',(#103),#100,.F.);
#93=ADVANCED_FACE('',(#75,#76),#51,.T.);
#94=ADVANCED_FACE('',(#77,#78),#52,.T.);
#95=PLANE('',#280);
#96=PLANE('',#288);
#97=PLANE('',#296);
#98=PLANE('',#300);
#99=PLANE('',#303);
#100=PLANE('',#305);
#101=FACE_OUTER_BOUND('',#104,.T.);
#102=FACE_OUTER_BOUND('',#127,.T.);
#103=FACE_OUTER_BOUND('',#128,.T.);
#104=EDGE_LOOP('',(#132));
#105=EDGE_LOOP('',(#133));
#106=EDGE_LOOP('',(#134));
#107=EDGE_LOOP('',(#135));
#108=EDGE_LOOP('',(#136));
#109=EDGE_LOOP('',(#137));
#110=EDGE_LOOP('',(#138));
#111=EDGE_LOOP('',(#139));
#112=EDGE_LOOP('',(#140));
#113=EDGE_LOOP('',(#141));
#114=EDGE_LOOP('',(#142));
#115=EDGE_LOOP('',(#143));
#116=EDGE_LOOP('',(#144));
#117=EDGE_LOOP('',(#145));
#118=EDGE_LOOP('',(#146));
#119=EDGE_LOOP('',(#147));
#120=EDGE_LOOP('',(#148));
#121=EDGE_LOOP('',(#149));
#122=EDGE_LOOP('',(#150));
#123=EDGE_LOOP('',(#151));
#124=EDGE_LOOP('',(#152));
#125=EDGE_LOOP('',(#153));
#126=EDGE_LOOP('',(#154));
#127=EDGE_LOOP('',(#155));
#128=EDGE_LOOP('',(#156));
#129=EDGE_LOOP('',(#157));
#130=EDGE_LOOP('',(#158));
#131=EDGE_LOOP('',(#159));
#132=ORIENTED_EDGE('',*,*,#175,.F.);
#133=ORIENTED_EDGE('',*,*,#176,.F.);
#134=ORIENTED_EDGE('',*,*,#175,.T.);
#135=ORIENTED_EDGE('',*,*,#177,.F.);
#136=ORIENTED_EDGE('',*,*,#176,.T.);
#137=ORIENTED_EDGE('',*,*,#178,.F.);
#138=ORIENTED_EDGE('',*,*,#177,.T.);
#139=ORIENTED_EDGE('',*,*,#179,.F.);
#140=ORIENTED_EDGE('',*,*,#178,.T.);
#141=ORIENTED_EDGE('',*,*,#180,.F.);
#142=ORIENTED_EDGE('',*,*,#179,.T.);
#143=ORIENTED_EDGE('',*,*,#181,.F.);
#144=ORIENTED_EDGE('',*,*,#180,.T.);
#145=ORIENTED_EDGE('',*,*,#182,.F.);
#146=ORIENTED_EDGE('',*,*,#181,.T.);
#147=ORIENTED_EDGE('',*,*,#183,.T.);
#148=ORIENTED_EDGE('',*,*,#182,.T.);
#149=ORIENTED_EDGE('',*,*,#184,.T.);
#150=ORIENTED_EDGE('',*,*,#183,.F.);
#151=ORIENTED_EDGE('',*,*,#185,.F.);
#152=ORIENTED_EDGE('',*,*,#184,.F.);
#153=ORIENTED_EDGE('',*,*,#186,.F.);
#154=ORIENTED_EDGE('',*,*,#185,.T.);
#155=ORIENTED_EDGE('',*,*,#186,.T.);
#156=ORIENTED_EDGE('',*,*,#187,.T.);
#157=ORIENTED_EDGE('',*,*,#187,.F.);
#158=ORIENTED_EDGE('',*,*,#188,.T.);
#159=ORIENTED_EDGE('',*,*,#188,.F.);
#160=VERTEX_POINT('',#404);
#161=VERTEX_POINT('',#407);
#162=VERTEX_POINT('',#410);
#163=VERTEX_POINT('',#413);
#164=VERTEX_POINT('',#416);
#165=VERTEX_POINT('',#419);
#166=VERTEX_POINT('',#422);
#167=VERTEX_POINT('',#425);
#168=VERTEX_POINT('',#428);
#169=VERTEX_POINT('',#431);
#170=VERTEX_POINT('',#434);
#171=VERTEX_POINT('',#437);
#172=VERTEX_POINT('',#441);
#173=VERTEX_POINT('',#444);
#174=VERTEX_POINT('',#446);
#175=EDGE_CURVE('',#160,#160,#189,.T.);
#176=EDGE_CURVE('',#161,#161,#190,.T.);
#177=EDGE_CURVE('',#162,#162,#191,.T.);
#178=EDGE_CURVE('',#163,#163,#192,.T.);
#179=EDGE_CURVE('',#164,#164,#193,.T.);
#180=EDGE_CURVE('',#165,#165,#194,.T.);
#181=EDGE_CURVE('',#166,#166,#195,.T.);
#182=EDGE_CURVE('',#167,#167,#196,.T.);
#183=EDGE_CURVE('',#168,#168,#197,.T.);
#184=EDGE_CURVE('',#169,#169,#198,.T.);
#185=EDGE_CURVE('',#170,#170,#199,.T.);
#186=EDGE_CURVE('',#171,#171,#200,.T.);
#187=EDGE_CURVE('',#172,#172,#201,.T.);
#188=EDGE_CURVE('',#173,#173,#202,.T.);
#189=CIRCLE('',#279,3.3);
#190=CIRCLE('',#281,3.5);
#191=CIRCLE('',#283,3.5);
#192=CIRCLE('',#285,4.);
#193=CIRCLE('',#287,4.55949583781244);
#194=CIRCLE('',#289,5.63155903752234);
#195=CIRCLE('',#291,5.72434762182978);
#196=CIRCLE('',#293,6.12405278839403);
#197=CIRCLE('',#295,7.75);
#198=CIRCLE('',#297,7.75);
#199=CIRCLE('',#299,8.);
#200=CIRCLE('',#301,8.);
#201=CIRCLE('',#304,7.99999999999998);
#202=CIRCLE('',#306,0.750000000000006);
#203=DRAUGHTING_PRE_DEFINED_COLOUR('blue');
#204=B_SPLINE_CURVE_WITH_KNOTS('CUTTING PART LINE',3,(#390,#391,#392,#393,
#394,#395,#396,#397,#398,#399),.UNSPECIFIED.,.F.,.F.,(4,3,3,4),(0.,0.041894164031126,
0.58007854083883,1.),.UNSPECIFIED.);
#205=INVISIBILITY((#239,#240,#241,#242));
#206=CURVE_STYLE('',#214,POSITIVE_LENGTH_MEASURE(0.18),#272);
#207=CURVE_STYLE('',#215,POSITIVE_LENGTH_MEASURE(0.18),#272);
#208=CURVE_STYLE('',#216,POSITIVE_LENGTH_MEASURE(0.18),#272);
#209=CURVE_STYLE('',#217,POSITIVE_LENGTH_MEASURE(0.18),#272);
#210=CURVE_STYLE('',#218,POSITIVE_LENGTH_MEASURE(0.18),#203);
#211=CURVE_STYLE('',#219,POSITIVE_LENGTH_MEASURE(0.18),#271);
#212=CURVE_STYLE('',#220,POSITIVE_LENGTH_MEASURE(0.18),#271);
#213=CURVE_STYLE('',#221,POSITIVE_LENGTH_MEASURE(0.18),#271);
#214=DRAUGHTING_PRE_DEFINED_CURVE_FONT('continuous');
#215=DRAUGHTING_PRE_DEFINED_CURVE_FONT('chain double dash');
#216=DRAUGHTING_PRE_DEFINED_CURVE_FONT('continuous');
#217=DRAUGHTING_PRE_DEFINED_CURVE_FONT('continuous');
#218=DRAUGHTING_PRE_DEFINED_CURVE_FONT('continuous');
#219=DRAUGHTING_PRE_DEFINED_CURVE_FONT('continuous');
#220=DRAUGHTING_PRE_DEFINED_CURVE_FONT('continuous');
#221=DRAUGHTING_PRE_DEFINED_CURVE_FONT('continuous');
#222=TRIMMED_CURVE('Line62',#226,(PARAMETER_VALUE(0.)),(
PARAMETER_VALUE(1.)),.T.,.PARAMETER.);
#223=TRIMMED_CURVE('Line63',#227,(PARAMETER_VALUE(0.)),(
PARAMETER_VALUE(1.)),.T.,.PARAMETER.);
#224=TRIMMED_CURVE('Line64',#228,(PARAMETER_VALUE(0.)),(
PARAMETER_VALUE(1.)),.T.,.PARAMETER.);
#225=TRIMMED_CURVE('Line65',#229,(PARAMETER_VALUE(0.)),(
PARAMETER_VALUE(1.)),.T.,.PARAMETER.);
#226=LINE('Line62',#386,#230);
#227=LINE('Line63',#387,#231);
#228=LINE('Line64',#388,#232);
#229=LINE('Line65',#389,#233);
#230=VECTOR('',#311,8.);
#231=VECTOR('',#312,7.52297767569965);
#232=VECTOR('',#313,0.798133329356932);
#233=VECTOR('',#314,10.2530483272049);
#234=PRESENTATION_LAYER_ASSIGNMENT('1','Layer 1',(#382,#383,#384,#385,#222,
#223,#224,#225,#204,#276,#277,#278,#39,#40));
#235=STYLED_ITEM('',(#249),#382);
#236=STYLED_ITEM('',(#250),#383);
#237=STYLED_ITEM('',(#251),#384);
#238=STYLED_ITEM('',(#252),#385);
#239=STYLED_ITEM('',(#253),#222);
#240=STYLED_ITEM('',(#254),#223);
#241=STYLED_ITEM('',(#255),#224);
#242=STYLED_ITEM('',(#256),#225);
#243=STYLED_ITEM('',(#257),#204);
#244=STYLED_ITEM('',(#258),#276);
#245=STYLED_ITEM('',(#259),#277);
#246=STYLED_ITEM('',(#260),#278);
#247=STYLED_ITEM('',(#261),#39);
#248=STYLED_ITEM('',(#262),#40);
#249=PRESENTATION_STYLE_ASSIGNMENT((#263));
#250=PRESENTATION_STYLE_ASSIGNMENT((#264));
#251=PRESENTATION_STYLE_ASSIGNMENT((#265));
#252=PRESENTATION_STYLE_ASSIGNMENT((#266));
#253=PRESENTATION_STYLE_ASSIGNMENT((#206));
#254=PRESENTATION_STYLE_ASSIGNMENT((#207));
#255=PRESENTATION_STYLE_ASSIGNMENT((#208));
#256=PRESENTATION_STYLE_ASSIGNMENT((#209));
#257=PRESENTATION_STYLE_ASSIGNMENT((#210));
#258=PRESENTATION_STYLE_ASSIGNMENT((#211));
#259=PRESENTATION_STYLE_ASSIGNMENT((#212));
#260=PRESENTATION_STYLE_ASSIGNMENT((#213));
#261=PRESENTATION_STYLE_ASSIGNMENT((#29));
#262=PRESENTATION_STYLE_ASSIGNMENT((#30));
#263=POINT_STYLE('',#267,POSITIVE_LENGTH_MEASURE(3.),#271);
#264=POINT_STYLE('',#268,POSITIVE_LENGTH_MEASURE(3.),#271);
#265=POINT_STYLE('',#269,POSITIVE_LENGTH_MEASURE(3.),#271);
#266=POINT_STYLE('',#270,POSITIVE_LENGTH_MEASURE(3.),#272);
#267=PRE_DEFINED_POINT_MARKER_SYMBOL('plus');
#268=PRE_DEFINED_POINT_MARKER_SYMBOL('plus');
#269=PRE_DEFINED_POINT_MARKER_SYMBOL('plus');
#270=PRE_DEFINED_POINT_MARKER_SYMBOL('plus');
#271=COLOUR_RGB('Medium Weak Red',0.6,0.4,0.4);
#272=COLOUR_RGB('Dark Hard Blue',0.,0.,0.8);
#273=COLOUR_RGB('Dark Dull Magenta',0.501960784313725,0.501960784313725,
0.501960784313725);
#274=COLOUR_RGB('Pale Gray',0.8,0.8,0.8);
#275=AXIS2_PLACEMENT_3D('',#381,#309,#310);
#276=AXIS2_PLACEMENT_3D('PCS',#400,#315,#316);
#277=AXIS2_PLACEMENT_3D('MCS',#401,#317,#318);
#278=AXIS2_PLACEMENT_3D('CIP',#402,#319,#320);
#279=AXIS2_PLACEMENT_3D('',#403,#321,#322);
#280=AXIS2_PLACEMENT_3D('',#405,#323,#324);
#281=AXIS2_PLACEMENT_3D('',#406,#325,#326);
#282=AXIS2_PLACEMENT_3D('',#408,#327,#328);
#283=AXIS2_PLACEMENT_3D('',#409,#329,#330);
#284=AXIS2_PLACEMENT_3D('',#411,#331,#332);
#285=AXIS2_PLACEMENT_3D('',#412,#333,#334);
#286=AXIS2_PLACEMENT_3D('',#414,#335,#336);
#287=AXIS2_PLACEMENT_3D('',#415,#337,#338);
#288=AXIS2_PLACEMENT_3D('',#417,#339,#340);
#289=AXIS2_PLACEMENT_3D('',#418,#341,#342);
#290=AXIS2_PLACEMENT_3D('',#420,#343,#344);
#291=AXIS2_PLACEMENT_3D('',#421,#345,#346);
#292=AXIS2_PLACEMENT_3D('',#423,#347,#348);
#293=AXIS2_PLACEMENT_3D('',#424,#349,#350);
#294=AXIS2_PLACEMENT_3D('',#426,#351,#352);
#295=AXIS2_PLACEMENT_3D('',#427,#353,#354);
#296=AXIS2_PLACEMENT_3D('',#429,#355,#356);
#297=AXIS2_PLACEMENT_3D('',#430,#357,#358);
#298=AXIS2_PLACEMENT_3D('',#432,#359,#360);
#299=AXIS2_PLACEMENT_3D('',#433,#361,#362);
#300=AXIS2_PLACEMENT_3D('',#435,#363,#364);
#301=AXIS2_PLACEMENT_3D('',#436,#365,#366);
#302=AXIS2_PLACEMENT_3D('',#438,#367,#368);
#303=AXIS2_PLACEMENT_3D('',#439,#369,#370);
#304=AXIS2_PLACEMENT_3D('',#440,#371,#372);
#305=AXIS2_PLACEMENT_3D('',#442,#373,#374);
#306=AXIS2_PLACEMENT_3D('',#443,#375,#376);
#307=AXIS2_PLACEMENT_3D('',#445,#377,#378);
#308=AXIS2_PLACEMENT_3D('',#447,#379,#380);
#309=DIRECTION('',(0.,0.,1.));
#310=DIRECTION('',(1.,0.,0.));
#311=DIRECTION('',(-1.,0.,-2.88657986402541E-15));
#312=DIRECTION('',(3.25750610851031E-15,0.,-1.));
#313=DIRECTION('',(0.939692620785907,0.,0.342020143325672));
#314=DIRECTION('',(0.707106781186546,0.,0.707106781186549));
#315=DIRECTION('',(0.,0.,1.));
#316=DIRECTION('',(1.,0.,0.));
#317=DIRECTION('',(0.,0.,1.));
#318=DIRECTION('',(1.,0.,0.));
#319=DIRECTION('',(0.,0.,1.));
#320=DIRECTION('',(1.,0.,0.));
#321=DIRECTION('',(0.,0.,-1.));
#322=DIRECTION('',(-1.,0.,0.));
#323=DIRECTION('',(0.,0.,-1.));
#324=DIRECTION('',(-1.,0.,0.));
#325=DIRECTION('',(0.,0.,-1.));
#326=DIRECTION('',(-1.,0.,0.));
#327=DIRECTION('',(0.,0.,-1.));
#328=DIRECTION('',(-1.,0.,1.38321417400724E-17));
#329=DIRECTION('',(0.,0.,-1.));
#330=DIRECTION('',(-1.,0.,0.));
#331=DIRECTION('',(0.,0.,-1.));
#332=DIRECTION('',(-1.,0.,0.));
#333=DIRECTION('',(0.,0.,-1.));
#334=DIRECTION('',(-1.,0.,0.));
#335=DIRECTION('',(0.,0.,-1.));
#336=DIRECTION('',(-1.,0.,0.));
#337=DIRECTION('',(0.,0.,-1.));
#338=DIRECTION('',(-1.,0.,0.));
#339=DIRECTION('',(0.,0.,-1.));
#340=DIRECTION('',(-1.,0.,0.));
#341=DIRECTION('',(0.,0.,-1.));
#342=DIRECTION('',(-1.,0.,0.));
#343=DIRECTION('',(0.,0.,-1.));
#344=DIRECTION('',(-1.,0.,9.49114237781912E-17));
#345=DIRECTION('',(0.,0.,-1.));
#346=DIRECTION('',(-1.,0.,0.));
#347=DIRECTION('',(0.,0.,-1.));
#348=DIRECTION('',(-1.,0.,5.51359945564081E-16));
#349=DIRECTION('',(0.,0.,-1.));
#350=DIRECTION('',(-1.,0.,0.));
#351=DIRECTION('',(0.,0.,-1.));
#352=DIRECTION('',(-1.,0.,0.));
#353=DIRECTION('',(0.,0.,1.));
#354=DIRECTION('',(1.,0.,0.));
#355=DIRECTION('',(0.,0.,-1.));
#356=DIRECTION('',(-1.,0.,0.));
#357=DIRECTION('',(0.,0.,1.));
#358=DIRECTION('',(1.,0.,0.));
#359=DIRECTION('',(0.,0.,1.));
#360=DIRECTION('',(1.,0.,0.));
#361=DIRECTION('',(0.,0.,-1.));
#362=DIRECTION('',(1.,0.,0.));
#363=DIRECTION('',(0.,0.,1.));
#364=DIRECTION('',(1.,0.,0.));
#365=DIRECTION('',(0.,0.,-1.));
#366=DIRECTION('',(1.,0.,0.));
#367=DIRECTION('',(0.,0.,1.));
#368=DIRECTION('',(1.,0.,0.));
#369=DIRECTION('',(0.,0.,1.));
#370=DIRECTION('',(1.,0.,0.));
#371=DIRECTION('',(0.,0.,1.));
#372=DIRECTION('',(1.,0.,0.));
#373=DIRECTION('',(0.,0.,-1.));
#374=DIRECTION('',(-1.,0.,0.));
#375=DIRECTION('',(0.,0.,1.));
#376=DIRECTION('',(1.,0.,0.));
#377=DIRECTION('',(0.,0.,1.));
#378=DIRECTION('',(1.,0.,1.3867387267364E-17));
#379=DIRECTION('',(0.,0.,1.));
#380=DIRECTION('',(1.,0.,-1.26277541987673E-18));
#381=CARTESIAN_POINT('',(0.,0.,0.));
#382=CARTESIAN_POINT('PCS',(0.,0.,0.));
#383=CARTESIAN_POINT('MCS',(0.,0.,0.));
#384=CARTESIAN_POINT('CIP',(0.,0.,-18.1));
#385=CARTESIAN_POINT('CRP',(0.716090192841925,7.88860905221012E-31,-17.8270223243003));
#386=CARTESIAN_POINT('',(7.99999999999998,7.88860905221012E-31,-10.5770223243003));
#387=CARTESIAN_POINT('',(-1.51046105742128E-14,7.88860905221012E-31,-10.5770223243004));
#388=CARTESIAN_POINT('',(9.40153515856551E-15,7.88860905221012E-31,-18.1));
#389=CARTESIAN_POINT('',(0.750000000000006,7.88860905221012E-31,-17.8270223243003));
#390=CARTESIAN_POINT('',(9.43689570931383E-15,7.88860905221012E-31,-18.1));
#391=CARTESIAN_POINT('',(0.250000000000008,7.88860905221012E-31,-18.0090074414335));
#392=CARTESIAN_POINT('',(0.500000000000007,7.88860905221012E-31,-17.9180148828669));
#393=CARTESIAN_POINT('',(0.750000000000006,7.88860905221012E-31,-17.8270223243003));
#394=CARTESIAN_POINT('',(3.16666666666667,7.88860905221012E-31,-15.4103556576337));
#395=CARTESIAN_POINT('',(5.58333333333333,7.88860905221012E-31,-12.993688990967));
#396=CARTESIAN_POINT('',(7.99999999999998,7.88860905221012E-31,-10.5770223243003));
#397=CARTESIAN_POINT('',(5.33333333333332,7.88860905221012E-31,-10.5770223243003));
#398=CARTESIAN_POINT('',(2.66666666666665,7.88860905221012E-31,-10.5770223243003));
#399=CARTESIAN_POINT('',(-1.50990331349021E-14,7.88860905221012E-31,-10.5770223243004));
#400=CARTESIAN_POINT('',(0.,0.,0.));
#401=CARTESIAN_POINT('',(0.,0.,0.));
#402=CARTESIAN_POINT('',(0.,0.,-18.1));
#403=CARTESIAN_POINT('',(0.,0.,17.));
#404=CARTESIAN_POINT('',(-3.3,0.,17.));
#405=CARTESIAN_POINT('',(0.,0.,17.));
#406=CARTESIAN_POINT('',(0.,0.,16.8));
#407=CARTESIAN_POINT('',(-3.5,0.,16.8));
#408=CARTESIAN_POINT('',(0.,0.,17.));
#409=CARTESIAN_POINT('',(0.,0.,13.5));
#410=CARTESIAN_POINT('',(-3.5,0.,13.5));
#411=CARTESIAN_POINT('',(0.,0.,0.));
#412=CARTESIAN_POINT('',(0.,0.,13.));
#413=CARTESIAN_POINT('',(-4.,0.,13.));
#414=CARTESIAN_POINT('',(0.,0.,13.5));
#415=CARTESIAN_POINT('',(0.,0.,13.));
#416=CARTESIAN_POINT('',(-4.55949583781244,0.,13.));
#417=CARTESIAN_POINT('',(0.,4.,13.));
#418=CARTESIAN_POINT('',(0.,0.,2.8));
#419=CARTESIAN_POINT('',(-5.63155903752234,0.,2.8));
#420=CARTESIAN_POINT('',(0.,0.,13.));
#421=CARTESIAN_POINT('',(0.,0.,0.384644876364991));
#422=CARTESIAN_POINT('',(-5.72434762182978,0.,0.384644876364991));
#423=CARTESIAN_POINT('',(0.,0.,2.8));
#424=CARTESIAN_POINT('',(0.,0.,5.42101086242752E-17));
#425=CARTESIAN_POINT('',(-6.12405278839403,0.,5.42101086242752E-17));
#426=CARTESIAN_POINT('',(0.,0.,0.4));
#427=CARTESIAN_POINT('',(0.,0.,0.));
#428=CARTESIAN_POINT('',(7.75,0.,0.));
#429=CARTESIAN_POINT('',(0.,7.75,0.));
#430=CARTESIAN_POINT('',(0.,0.,-4.3));
#431=CARTESIAN_POINT('',(7.75,0.,-4.3));
#432=CARTESIAN_POINT('',(0.,0.,0.));
#433=CARTESIAN_POINT('',(0.,0.,-4.3));
#434=CARTESIAN_POINT('',(8.,0.,-4.3));
#435=CARTESIAN_POINT('',(0.,-2.66453525910038E-15,-4.3));
#436=CARTESIAN_POINT('',(0.,0.,-10.577));
#437=CARTESIAN_POINT('',(8.,0.,-10.577));
#438=CARTESIAN_POINT('',(0.,0.,-10.577));
#439=CARTESIAN_POINT('',(0.,0.,-10.577));
#440=CARTESIAN_POINT('',(0.,0.,-10.5770223243003));
#441=CARTESIAN_POINT('',(7.99999999999998,0.,-10.5770223243003));
#442=CARTESIAN_POINT('',(7.99999999999998,7.88860905221012E-31,-10.5770223243003));
#443=CARTESIAN_POINT('',(0.,0.,-17.8270223243003));
#444=CARTESIAN_POINT('',(0.750000000000006,0.,-17.8270223243003));
#445=CARTESIAN_POINT('',(0.,0.,-17.8270223243003));
#446=CARTESIAN_POINT('',(9.43689570931383E-15,7.88860905221012E-31,-18.1));
#447=CARTESIAN_POINT('',(0.,0.,-18.1));
#448=MECHANICAL_DESIGN_GEOMETRIC_PRESENTATION_REPRESENTATION('',(#235,#236,
#237,#238,#239,#240,#241,#242,#243,#244,#245,#246,#247,#248),#449);
#449=(
GEOMETRIC_REPRESENTATION_CONTEXT(3)
GLOBAL_UNCERTAINTY_ASSIGNED_CONTEXT((#450))
GLOBAL_UNIT_ASSIGNED_CONTEXT((#456,#452,#451))
REPRESENTATION_CONTEXT('1574237605244','TOP_LEVEL_ASSEMBLY_PART')
);
#450=UNCERTAINTY_MEASURE_WITH_UNIT(LENGTH_MEASURE(2.E-5),#456,
'DISTANCE_ACCURACY_VALUE','Maximum Tolerance applied to model');
#451=(
NAMED_UNIT(*)
SI_UNIT($,.STERADIAN.)
SOLID_ANGLE_UNIT()
);
#452=(
CONVERSION_BASED_UNIT('DEGREE',#454)
NAMED_UNIT(#453)
PLANE_ANGLE_UNIT()
);
#453=DIMENSIONAL_EXPONENTS(0.,0.,0.,0.,0.,0.,0.);
#454=PLANE_ANGLE_MEASURE_WITH_UNIT(PLANE_ANGLE_MEASURE(0.0174532925),#455);
#455=(
NAMED_UNIT(*)
PLANE_ANGLE_UNIT()
SI_UNIT($,.RADIAN.)
);
#456=(
LENGTH_UNIT()
NAMED_UNIT(*)
SI_UNIT(.MILLI.,.METRE.)
);
ENDSEC;
END-ISO-10303-21;
