ISO-10303-21;
HEADER;
/* Generated by software containing ST-Developer
 * from STEP Tools, Inc. (www.steptools.com) 
 */
/* OPTION: using custom schema-name function */

FILE_DESCRIPTION(
/* description */ (''),
/* implementation_level */ '2;1');

FILE_NAME(
/* name */ '1574236508320.stp',
/* time_stamp */ '2019-11-20T08:55:33+01:00',
/* author */ (''),
/* organization */ ('SMS'),
/* preprocessor_version */ 'ST-DEVELOPER v16.7',
/* originating_system */ 'SIEMENS PLM Software NX 12.0',
/* authorisation */ '');

FILE_SCHEMA (('AUTOMOTIVE_DESIGN { 1 0 10303 214 3 1 1 1 }'));
ENDSEC;

DATA;
#10=CONSTRUCTIVE_GEOMETRY_REPRESENTATION_RELATIONSHIP(
'supplemental geometry','',#26,#11);
#11=CONSTRUCTIVE_GEOMETRY_REPRESENTATION('supplemental geometry',(#282,
#283,#284),#465);
#12=GEOMETRICALLY_BOUNDED_WIREFRAME_SHAPE_REPRESENTATION(
'202698380mod000_03-None',(#27),#465);
#13=SHAPE_REPRESENTATION_RELATIONSHIP('None',
'relationship between 202698380mod000_03-None and 202698380mod000_03-N
one',#26,#15);
#14=SHAPE_REPRESENTATION_RELATIONSHIP('None',
'relationship between 202698380mod000_03-None and 202698380mod000_03-N
one',#26,#12);
#15=ADVANCED_BREP_SHAPE_REPRESENTATION('202698380mod000_03-None',(#39,#40),
#465);
#16=SHAPE_DEFINITION_REPRESENTATION(#17,#26);
#17=PRODUCT_DEFINITION_SHAPE('','',#18);
#18=PRODUCT_DEFINITION(' ','',#20,#19);
#19=PRODUCT_DEFINITION_CONTEXT('part definition',#25,'design');
#20=PRODUCT_DEFINITION_FORMATION_WITH_SPECIFIED_SOURCE(' ',' ',#22,
 .NOT_KNOWN.);
#21=PRODUCT_RELATED_PRODUCT_CATEGORY('part','',(#22));
#22=PRODUCT('202698380mod000_03','202698380mod000_03','MASTER_INSERT',(#23));
#23=PRODUCT_CONTEXT(' ',#25,'mechanical');
#24=APPLICATION_PROTOCOL_DEFINITION('international standard',
'automotive_design',2010,#25);
#25=APPLICATION_CONTEXT(
'core data for automotive mechanical design processes');
#26=SHAPE_REPRESENTATION('202698380mod000_03-None',(#281),#465);
#27=GEOMETRIC_CURVE_SET('None',(#388,#389,#390,#391,#225,#226,#227,#228,
#229,#203));
#28=VERTEX_LOOP('',#172);
#29=SURFACE_STYLE_USAGE(.BOTH.,#31);
#30=SURFACE_STYLE_USAGE(.BOTH.,#32);
#31=SURFACE_SIDE_STYLE('',(#33));
#32=SURFACE_SIDE_STYLE('',(#34));
#33=SURFACE_STYLE_FILL_AREA(#35);
#34=SURFACE_STYLE_FILL_AREA(#36);
#35=FILL_AREA_STYLE('',(#37));
#36=FILL_AREA_STYLE('',(#38));
#37=FILL_AREA_STYLE_COLOUR('',#279);
#38=FILL_AREA_STYLE_COLOUR('',#280);
#39=MANIFOLD_SOLID_BREP('NOCUT',#41);
#40=MANIFOLD_SOLID_BREP('CUT',#42);
#41=CLOSED_SHELL('',(#59,#60,#61,#62,#63,#64,#65,#66,#67,#68,#69,#70,#71));
#42=CLOSED_SHELL('',(#72,#73,#74));
#43=TOROIDAL_SURFACE('',#295,2.7,0.499999999999999);
#44=TOROIDAL_SURFACE('',#303,3.91361257567267,0.3);
#45=CONICAL_SURFACE('',#291,2.,44.9999999999994);
#46=CONICAL_SURFACE('',#299,2.95565854503112,6.);
#47=CONICAL_SURFACE('',#301,3.54424226251891,2.19999999999996);
#48=CONICAL_SURFACE('',#311,0.749999999999997,70.0000000000001);
#49=CONICAL_SURFACE('',#313,5.,30.);
#50=PLANE('',#289);
#51=PLANE('',#297);
#52=PLANE('',#304);
#53=PLANE('',#308);
#54=PLANE('',#309);
#55=PLANE('',#314);
#56=FACE_OUTER_BOUND('',#106,.T.);
#57=FACE_OUTER_BOUND('',#127,.T.);
#58=FACE_OUTER_BOUND('',#131,.T.);
#59=ADVANCED_FACE('',(#78,#79),#75,.T.);
#60=ADVANCED_FACE('',(#56),#50,.F.);
#61=ADVANCED_FACE('',(#80,#81),#45,.T.);
#62=ADVANCED_FACE('',(#82,#83),#76,.T.);
#63=ADVANCED_FACE('',(#84,#85),#43,.F.);
#64=ADVANCED_FACE('',(#86,#87),#51,.F.);
#65=ADVANCED_FACE('',(#88,#89),#46,.T.);
#66=ADVANCED_FACE('',(#90,#91),#47,.T.);
#67=ADVANCED_FACE('',(#92,#93),#44,.F.);
#68=ADVANCED_FACE('',(#94,#95),#52,.T.);
#69=ADVANCED_FACE('',(#96,#97),#77,.T.);
#70=ADVANCED_FACE('',(#98,#99),#53,.F.);
#71=ADVANCED_FACE('',(#57),#54,.T.);
#72=ADVANCED_FACE('',(#100,#101),#48,.T.);
#73=ADVANCED_FACE('',(#102,#103),#49,.T.);
#74=ADVANCED_FACE('',(#58),#55,.T.);
#75=CYLINDRICAL_SURFACE('',#287,4.85);
#76=CYLINDRICAL_SURFACE('',#293,2.2);
#77=CYLINDRICAL_SURFACE('',#307,5.);
#78=FACE_BOUND('',#104,.T.);
#79=FACE_BOUND('',#105,.T.);
#80=FACE_BOUND('',#107,.T.);
#81=FACE_BOUND('',#108,.T.);
#82=FACE_BOUND('',#109,.T.);
#83=FACE_BOUND('',#110,.T.);
#84=FACE_BOUND('',#111,.T.);
#85=FACE_BOUND('',#112,.T.);
#86=FACE_BOUND('',#113,.T.);
#87=FACE_BOUND('',#114,.T.);
#88=FACE_BOUND('',#115,.T.);
#89=FACE_BOUND('',#116,.T.);
#90=FACE_BOUND('',#117,.T.);
#91=FACE_BOUND('',#118,.T.);
#92=FACE_BOUND('',#119,.T.);
#93=FACE_BOUND('',#120,.T.);
#94=FACE_BOUND('',#121,.T.);
#95=FACE_BOUND('',#122,.T.);
#96=FACE_BOUND('',#123,.T.);
#97=FACE_BOUND('',#124,.T.);
#98=FACE_BOUND('',#125,.T.);
#99=FACE_BOUND('',#126,.T.);
#100=FACE_BOUND('',#28,.T.);
#101=FACE_BOUND('',#128,.T.);
#102=FACE_BOUND('',#129,.T.);
#103=FACE_BOUND('',#130,.T.);
#104=EDGE_LOOP('',(#132));
#105=EDGE_LOOP('',(#133));
#106=EDGE_LOOP('',(#134));
#107=EDGE_LOOP('',(#135));
#108=EDGE_LOOP('',(#136));
#109=EDGE_LOOP('',(#137));
#110=EDGE_LOOP('',(#138));
#111=EDGE_LOOP('',(#139));
#112=EDGE_LOOP('',(#140));
#113=EDGE_LOOP('',(#141));
#114=EDGE_LOOP('',(#142));
#115=EDGE_LOOP('',(#143));
#116=EDGE_LOOP('',(#144));
#117=EDGE_LOOP('',(#145));
#118=EDGE_LOOP('',(#146));
#119=EDGE_LOOP('',(#147));
#120=EDGE_LOOP('',(#148));
#121=EDGE_LOOP('',(#149));
#122=EDGE_LOOP('',(#150));
#123=EDGE_LOOP('',(#151));
#124=EDGE_LOOP('',(#152));
#125=EDGE_LOOP('',(#153));
#126=EDGE_LOOP('',(#154));
#127=EDGE_LOOP('',(#155));
#128=EDGE_LOOP('',(#156));
#129=EDGE_LOOP('',(#157));
#130=EDGE_LOOP('',(#158));
#131=EDGE_LOOP('',(#159));
#132=ORIENTED_EDGE('',*,*,#175,.T.);
#133=ORIENTED_EDGE('',*,*,#176,.T.);
#134=ORIENTED_EDGE('',*,*,#177,.F.);
#135=ORIENTED_EDGE('',*,*,#178,.F.);
#136=ORIENTED_EDGE('',*,*,#177,.T.);
#137=ORIENTED_EDGE('',*,*,#179,.F.);
#138=ORIENTED_EDGE('',*,*,#178,.T.);
#139=ORIENTED_EDGE('',*,*,#180,.F.);
#140=ORIENTED_EDGE('',*,*,#179,.T.);
#141=ORIENTED_EDGE('',*,*,#181,.F.);
#142=ORIENTED_EDGE('',*,*,#180,.T.);
#143=ORIENTED_EDGE('',*,*,#182,.F.);
#144=ORIENTED_EDGE('',*,*,#181,.T.);
#145=ORIENTED_EDGE('',*,*,#183,.F.);
#146=ORIENTED_EDGE('',*,*,#182,.T.);
#147=ORIENTED_EDGE('',*,*,#184,.F.);
#148=ORIENTED_EDGE('',*,*,#183,.T.);
#149=ORIENTED_EDGE('',*,*,#184,.T.);
#150=ORIENTED_EDGE('',*,*,#175,.F.);
#151=ORIENTED_EDGE('',*,*,#185,.F.);
#152=ORIENTED_EDGE('',*,*,#186,.T.);
#153=ORIENTED_EDGE('',*,*,#176,.F.);
#154=ORIENTED_EDGE('',*,*,#186,.F.);
#155=ORIENTED_EDGE('',*,*,#185,.T.);
#156=ORIENTED_EDGE('',*,*,#187,.F.);
#157=ORIENTED_EDGE('',*,*,#187,.T.);
#158=ORIENTED_EDGE('',*,*,#188,.F.);
#159=ORIENTED_EDGE('',*,*,#188,.T.);
#160=VERTEX_POINT('',#420);
#161=VERTEX_POINT('',#422);
#162=VERTEX_POINT('',#425);
#163=VERTEX_POINT('',#428);
#164=VERTEX_POINT('',#431);
#165=VERTEX_POINT('',#434);
#166=VERTEX_POINT('',#437);
#167=VERTEX_POINT('',#440);
#168=VERTEX_POINT('',#443);
#169=VERTEX_POINT('',#446);
#170=VERTEX_POINT('',#450);
#171=VERTEX_POINT('',#452);
#172=VERTEX_POINT('',#456);
#173=VERTEX_POINT('',#458);
#174=VERTEX_POINT('',#461);
#175=EDGE_CURVE('',#160,#160,#189,.T.);
#176=EDGE_CURVE('',#161,#161,#190,.T.);
#177=EDGE_CURVE('',#162,#162,#191,.T.);
#178=EDGE_CURVE('',#163,#163,#192,.T.);
#179=EDGE_CURVE('',#164,#164,#193,.T.);
#180=EDGE_CURVE('',#165,#165,#194,.T.);
#181=EDGE_CURVE('',#166,#166,#195,.T.);
#182=EDGE_CURVE('',#167,#167,#196,.T.);
#183=EDGE_CURVE('',#168,#168,#197,.T.);
#184=EDGE_CURVE('',#169,#169,#198,.T.);
#185=EDGE_CURVE('',#170,#170,#199,.T.);
#186=EDGE_CURVE('',#171,#171,#200,.T.);
#187=EDGE_CURVE('',#173,#173,#201,.T.);
#188=EDGE_CURVE('',#174,#174,#202,.T.);
#189=CIRCLE('',#285,4.85);
#190=CIRCLE('',#286,4.85);
#191=CIRCLE('',#288,2.);
#192=CIRCLE('',#290,2.2);
#193=CIRCLE('',#292,2.2);
#194=CIRCLE('',#294,2.7);
#195=CIRCLE('',#296,2.95565854503112);
#196=CIRCLE('',#298,3.54424226251891);
#197=CIRCLE('',#300,3.61383370074948);
#198=CIRCLE('',#302,3.91361257567267);
#199=CIRCLE('',#305,5.);
#200=CIRCLE('',#306,5.);
#201=CIRCLE('',#310,0.749999999999997);
#202=CIRCLE('',#312,5.);
#203=B_SPLINE_CURVE_WITH_KNOTS('CUTTING PART LINE',3,(#406,#407,#408,#409,
#410,#411,#412,#413,#414,#415),.UNSPECIFIED.,.F.,.F.,(4,3,3,4),(0.,0.0558208061796453,
0.650304002286167,1.),.UNSPECIFIED.);
#204=DRAUGHTING_PRE_DEFINED_COLOUR('blue');
#205=(
BOUNDED_CURVE()
B_SPLINE_CURVE(3,(#396,#397,#398,#399,#400,#401,#402,#403,#404,#405),
 .UNSPECIFIED.,.F.,.F.)
B_SPLINE_CURVE_WITH_KNOTS((4,3,3,4),(0.,0.732863694747174,0.772559543009497,
1.),.UNSPECIFIED.)
CURVE()
GEOMETRIC_REPRESENTATION_ITEM()
RATIONAL_B_SPLINE_CURVE((1.,1.,1.,1.,0.804737854124365,0.804737854124365,
1.,1.,1.,1.))
REPRESENTATION_ITEM('')
);
#206=INVISIBILITY((#243,#244,#245,#246,#247));
#207=CURVE_STYLE('',#216,POSITIVE_LENGTH_MEASURE(0.18),#278);
#208=CURVE_STYLE('',#217,POSITIVE_LENGTH_MEASURE(0.18),#278);
#209=CURVE_STYLE('',#218,POSITIVE_LENGTH_MEASURE(0.18),#278);
#210=CURVE_STYLE('',#219,POSITIVE_LENGTH_MEASURE(0.18),#278);
#211=CURVE_STYLE('',#220,POSITIVE_LENGTH_MEASURE(0.18),#204);
#212=CURVE_STYLE('',#221,POSITIVE_LENGTH_MEASURE(0.18),#204);
#213=CURVE_STYLE('',#222,POSITIVE_LENGTH_MEASURE(0.18),#277);
#214=CURVE_STYLE('',#223,POSITIVE_LENGTH_MEASURE(0.18),#277);
#215=CURVE_STYLE('',#224,POSITIVE_LENGTH_MEASURE(0.18),#277);
#216=DRAUGHTING_PRE_DEFINED_CURVE_FONT('continuous');
#217=DRAUGHTING_PRE_DEFINED_CURVE_FONT('chain double dash');
#218=DRAUGHTING_PRE_DEFINED_CURVE_FONT('continuous');
#219=DRAUGHTING_PRE_DEFINED_CURVE_FONT('continuous');
#220=DRAUGHTING_PRE_DEFINED_CURVE_FONT('continuous');
#221=DRAUGHTING_PRE_DEFINED_CURVE_FONT('continuous');
#222=DRAUGHTING_PRE_DEFINED_CURVE_FONT('continuous');
#223=DRAUGHTING_PRE_DEFINED_CURVE_FONT('continuous');
#224=DRAUGHTING_PRE_DEFINED_CURVE_FONT('continuous');
#225=TRIMMED_CURVE('Line23',#230,(PARAMETER_VALUE(0.)),(
PARAMETER_VALUE(1.)),.T.,.PARAMETER.);
#226=TRIMMED_CURVE('Line24',#231,(PARAMETER_VALUE(0.)),(
PARAMETER_VALUE(1.)),.T.,.PARAMETER.);
#227=TRIMMED_CURVE('Line25',#232,(PARAMETER_VALUE(0.)),(
PARAMETER_VALUE(1.)),.T.,.PARAMETER.);
#228=TRIMMED_CURVE('Line26',#233,(PARAMETER_VALUE(0.)),(
PARAMETER_VALUE(1.)),.T.,.PARAMETER.);
#229=TRIMMED_CURVE('',#205,(PARAMETER_VALUE(0.)),(PARAMETER_VALUE(1.)),
 .T.,.PARAMETER.);
#230=LINE('Line23',#392,#234);
#231=LINE('Line24',#393,#235);
#232=LINE('Line25',#394,#236);
#233=LINE('Line26',#395,#237);
#234=VECTOR('',#317,5.);
#235=VECTOR('',#318,7.63419360786737);
#236=VECTOR('',#319,0.798133329356934);
#237=VECTOR('',#320,8.49999999999999);
#238=PRESENTATION_LAYER_ASSIGNMENT('1','Layer 1',(#388,#389,#390,#391,#225,
#226,#227,#228,#229,#203,#282,#283,#284,#39,#40));
#239=STYLED_ITEM('',(#254),#388);
#240=STYLED_ITEM('',(#255),#389);
#241=STYLED_ITEM('',(#256),#390);
#242=STYLED_ITEM('',(#257),#391);
#243=STYLED_ITEM('',(#258),#225);
#244=STYLED_ITEM('',(#259),#226);
#245=STYLED_ITEM('',(#260),#227);
#246=STYLED_ITEM('',(#261),#228);
#247=STYLED_ITEM('',(#262),#229);
#248=STYLED_ITEM('',(#263),#203);
#249=STYLED_ITEM('',(#264),#282);
#250=STYLED_ITEM('',(#265),#283);
#251=STYLED_ITEM('',(#266),#284);
#252=STYLED_ITEM('',(#267),#39);
#253=STYLED_ITEM('',(#268),#40);
#254=PRESENTATION_STYLE_ASSIGNMENT((#269));
#255=PRESENTATION_STYLE_ASSIGNMENT((#270));
#256=PRESENTATION_STYLE_ASSIGNMENT((#271));
#257=PRESENTATION_STYLE_ASSIGNMENT((#272));
#258=PRESENTATION_STYLE_ASSIGNMENT((#207));
#259=PRESENTATION_STYLE_ASSIGNMENT((#208));
#260=PRESENTATION_STYLE_ASSIGNMENT((#209));
#261=PRESENTATION_STYLE_ASSIGNMENT((#210));
#262=PRESENTATION_STYLE_ASSIGNMENT((#211));
#263=PRESENTATION_STYLE_ASSIGNMENT((#212));
#264=PRESENTATION_STYLE_ASSIGNMENT((#213));
#265=PRESENTATION_STYLE_ASSIGNMENT((#214));
#266=PRESENTATION_STYLE_ASSIGNMENT((#215));
#267=PRESENTATION_STYLE_ASSIGNMENT((#29));
#268=PRESENTATION_STYLE_ASSIGNMENT((#30));
#269=POINT_STYLE('',#273,POSITIVE_LENGTH_MEASURE(3.),#277);
#270=POINT_STYLE('',#274,POSITIVE_LENGTH_MEASURE(3.),#277);
#271=POINT_STYLE('',#275,POSITIVE_LENGTH_MEASURE(3.),#277);
#272=POINT_STYLE('',#276,POSITIVE_LENGTH_MEASURE(3.),#278);
#273=PRE_DEFINED_POINT_MARKER_SYMBOL('plus');
#274=PRE_DEFINED_POINT_MARKER_SYMBOL('plus');
#275=PRE_DEFINED_POINT_MARKER_SYMBOL('plus');
#276=PRE_DEFINED_POINT_MARKER_SYMBOL('plus');
#277=COLOUR_RGB('Medium Weak Red',0.6,0.4,0.4);
#278=COLOUR_RGB('Dark Hard Blue',0.,0.,0.8);
#279=COLOUR_RGB('Dark Dull Magenta',0.501960784313725,0.501960784313725,
0.501960784313725);
#280=COLOUR_RGB('Pale Gray',0.8,0.8,0.8);
#281=AXIS2_PLACEMENT_3D('',#387,#315,#316);
#282=AXIS2_PLACEMENT_3D('PCS',#416,#321,#322);
#283=AXIS2_PLACEMENT_3D('MCS',#417,#323,#324);
#284=AXIS2_PLACEMENT_3D('CIP',#418,#325,#326);
#285=AXIS2_PLACEMENT_3D('',#419,#327,#328);
#286=AXIS2_PLACEMENT_3D('',#421,#329,#330);
#287=AXIS2_PLACEMENT_3D('',#423,#331,#332);
#288=AXIS2_PLACEMENT_3D('',#424,#333,#334);
#289=AXIS2_PLACEMENT_3D('',#426,#335,#336);
#290=AXIS2_PLACEMENT_3D('',#427,#337,#338);
#291=AXIS2_PLACEMENT_3D('',#429,#339,#340);
#292=AXIS2_PLACEMENT_3D('',#430,#341,#342);
#293=AXIS2_PLACEMENT_3D('',#432,#343,#344);
#294=AXIS2_PLACEMENT_3D('',#433,#345,#346);
#295=AXIS2_PLACEMENT_3D('',#435,#347,#348);
#296=AXIS2_PLACEMENT_3D('',#436,#349,#350);
#297=AXIS2_PLACEMENT_3D('',#438,#351,#352);
#298=AXIS2_PLACEMENT_3D('',#439,#353,#354);
#299=AXIS2_PLACEMENT_3D('',#441,#355,#356);
#300=AXIS2_PLACEMENT_3D('',#442,#357,#358);
#301=AXIS2_PLACEMENT_3D('',#444,#359,#360);
#302=AXIS2_PLACEMENT_3D('',#445,#361,#362);
#303=AXIS2_PLACEMENT_3D('',#447,#363,#364);
#304=AXIS2_PLACEMENT_3D('',#448,#365,#366);
#305=AXIS2_PLACEMENT_3D('',#449,#367,#368);
#306=AXIS2_PLACEMENT_3D('',#451,#369,#370);
#307=AXIS2_PLACEMENT_3D('',#453,#371,#372);
#308=AXIS2_PLACEMENT_3D('',#454,#373,#374);
#309=AXIS2_PLACEMENT_3D('',#455,#375,#376);
#310=AXIS2_PLACEMENT_3D('',#457,#377,#378);
#311=AXIS2_PLACEMENT_3D('',#459,#379,#380);
#312=AXIS2_PLACEMENT_3D('',#460,#381,#382);
#313=AXIS2_PLACEMENT_3D('',#462,#383,#384);
#314=AXIS2_PLACEMENT_3D('',#463,#385,#386);
#315=DIRECTION('',(0.,0.,1.));
#316=DIRECTION('',(1.,0.,0.));
#317=DIRECTION('',(-1.,0.,1.77635683940025E-16));
#318=DIRECTION('',(-1.18092286822402E-16,0.,-1.));
#319=DIRECTION('',(0.939692620785909,0.,0.342020143325667));
#320=DIRECTION('',(0.500000000000001,0.,0.866025403784438));
#321=DIRECTION('',(0.,0.,1.));
#322=DIRECTION('',(1.,0.,0.));
#323=DIRECTION('',(0.,0.,1.));
#324=DIRECTION('',(1.,0.,0.));
#325=DIRECTION('',(0.,0.,1.));
#326=DIRECTION('',(1.,0.,0.));
#327=DIRECTION('',(0.,0.,-1.));
#328=DIRECTION('',(-1.,0.,0.));
#329=DIRECTION('',(0.,0.,1.));
#330=DIRECTION('',(-1.,0.,0.));
#331=DIRECTION('',(0.,0.,-1.));
#332=DIRECTION('',(-1.,0.,0.));
#333=DIRECTION('',(0.,0.,-1.));
#334=DIRECTION('',(-1.,0.,0.));
#335=DIRECTION('',(0.,0.,-1.));
#336=DIRECTION('',(-1.,0.,0.));
#337=DIRECTION('',(0.,0.,-1.));
#338=DIRECTION('',(-1.,0.,0.));
#339=DIRECTION('',(0.,0.,-1.));
#340=DIRECTION('',(-1.,0.,-1.21188266784809E-17));
#341=DIRECTION('',(0.,0.,-1.));
#342=DIRECTION('',(-1.,0.,0.));
#343=DIRECTION('',(0.,0.,-1.));
#344=DIRECTION('',(-1.,0.,0.));
#345=DIRECTION('',(0.,0.,-1.));
#346=DIRECTION('',(-1.,0.,0.));
#347=DIRECTION('',(0.,0.,-1.));
#348=DIRECTION('',(-1.,0.,0.));
#349=DIRECTION('',(0.,0.,-1.));
#350=DIRECTION('',(-1.,0.,0.));
#351=DIRECTION('',(0.,0.,-1.));
#352=DIRECTION('',(-1.,0.,0.));
#353=DIRECTION('',(0.,0.,-1.));
#354=DIRECTION('',(-1.,0.,0.));
#355=DIRECTION('',(0.,0.,-1.));
#356=DIRECTION('',(-1.,0.,3.61200412410646E-16));
#357=DIRECTION('',(0.,0.,-1.));
#358=DIRECTION('',(-1.,0.,0.));
#359=DIRECTION('',(0.,0.,-1.));
#360=DIRECTION('',(-1.,0.,-2.27380734350798E-16));
#361=DIRECTION('',(0.,0.,-1.));
#362=DIRECTION('',(-1.,0.,0.));
#363=DIRECTION('',(0.,0.,-1.));
#364=DIRECTION('',(-1.,0.,0.));
#365=DIRECTION('',(0.,0.,1.));
#366=DIRECTION('',(1.,0.,0.));
#367=DIRECTION('',(0.,0.,-1.));
#368=DIRECTION('',(-1.,0.,0.));
#369=DIRECTION('',(0.,0.,-1.));
#370=DIRECTION('',(-1.,0.,0.));
#371=DIRECTION('',(0.,0.,-1.));
#372=DIRECTION('',(-1.,0.,0.));
#373=DIRECTION('',(0.,0.,-1.));
#374=DIRECTION('',(-1.,0.,0.));
#375=DIRECTION('',(0.,0.,-1.));
#376=DIRECTION('',(-1.,0.,0.));
#377=DIRECTION('',(0.,0.,1.));
#378=DIRECTION('',(1.,0.,0.));
#379=DIRECTION('',(0.,0.,1.));
#380=DIRECTION('',(1.,0.,-3.78729241334995E-18));
#381=DIRECTION('',(0.,0.,1.));
#382=DIRECTION('',(1.,0.,0.));
#383=DIRECTION('',(0.,0.,1.));
#384=DIRECTION('',(1.,0.,5.36189716388968E-17));
#385=DIRECTION('',(0.,0.,1.));
#386=DIRECTION('',(1.,0.,0.));
#387=CARTESIAN_POINT('',(0.,0.,0.));
#388=CARTESIAN_POINT('PCS',(0.,0.,0.));
#389=CARTESIAN_POINT('MCS',(0.,0.,0.));
#390=CARTESIAN_POINT('CIP',(0.,0.,-11.8001936078674));
#391=CARTESIAN_POINT('CRP',(0.749999999999999,0.,-11.5270223243004));
#392=CARTESIAN_POINT('',(5.,0.,-4.16580639213263));
#393=CARTESIAN_POINT('',(3.56437235834783E-16,0.,-4.16580639213263));
#394=CARTESIAN_POINT('',(-5.45102145363241E-16,0.,-11.8));
#395=CARTESIAN_POINT('',(0.749999999999999,0.,-11.5270223243004));
#396=CARTESIAN_POINT('',(1.25417578491581,4.84014907833745,8.3));
#397=CARTESIAN_POINT('',(1.25417578491581,4.84014907833744,13.1333333333333));
#398=CARTESIAN_POINT('',(1.25417578491581,4.84014907833744,17.9666666666667));
#399=CARTESIAN_POINT('',(1.25417578491581,4.84014907833745,22.8));
#400=CARTESIAN_POINT('',(1.25417578491581,4.84014907833745,23.0928932188135));
#401=CARTESIAN_POINT('',(1.20222612294461,4.63966353912195,23.3));
#402=CARTESIAN_POINT('',(1.12875820642423,4.3561341705037,23.3));
#403=CARTESIAN_POINT('',(0.752505470949486,2.90408944700246,23.3));
#404=CARTESIAN_POINT('',(0.376252735474743,1.45204472350123,23.3));
#405=CARTESIAN_POINT('',(4.44089209850063E-16,-2.66453525910038E-15,23.3));
#406=CARTESIAN_POINT('',(-5.55111512312578E-16,0.,-11.8));
#407=CARTESIAN_POINT('',(0.249999999999999,0.,-11.7090074414335));
#408=CARTESIAN_POINT('',(0.499999999999999,0.,-11.6180148828669));
#409=CARTESIAN_POINT('',(0.749999999999999,0.,-11.5270223243004));
#410=CARTESIAN_POINT('',(2.16666666666667,0.,-9.07328368024444));
#411=CARTESIAN_POINT('',(3.58333333333333,0.,-6.61954503618854));
#412=CARTESIAN_POINT('',(5.,0.,-4.16580639213263));
#413=CARTESIAN_POINT('',(3.33333333333333,0.,-4.16580639213263));
#414=CARTESIAN_POINT('',(1.66666666666667,0.,-4.16580639213263));
#415=CARTESIAN_POINT('',(0.,0.,-4.16580639213263));
#416=CARTESIAN_POINT('',(0.,0.,0.));
#417=CARTESIAN_POINT('',(0.,0.,0.));
#418=CARTESIAN_POINT('',(0.,0.,-11.8001936078674));
#419=CARTESIAN_POINT('',(0.,0.,0.));
#420=CARTESIAN_POINT('',(-4.85,0.,0.));
#421=CARTESIAN_POINT('',(0.,0.,-4.));
#422=CARTESIAN_POINT('',(-4.85,0.,-4.));
#423=CARTESIAN_POINT('',(0.,0.,0.));
#424=CARTESIAN_POINT('',(0.,0.,11.2));
#425=CARTESIAN_POINT('',(-2.,0.,11.2));
#426=CARTESIAN_POINT('',(0.,0.,11.2));
#427=CARTESIAN_POINT('',(0.,0.,11.));
#428=CARTESIAN_POINT('',(-2.2,0.,11.));
#429=CARTESIAN_POINT('',(0.,0.,11.2));
#430=CARTESIAN_POINT('',(0.,0.,8.2));
#431=CARTESIAN_POINT('',(-2.2,0.,8.2));
#432=CARTESIAN_POINT('',(0.,0.,0.));
#433=CARTESIAN_POINT('',(0.,0.,7.7));
#434=CARTESIAN_POINT('',(-2.7,0.,7.7));
#435=CARTESIAN_POINT('',(0.,0.,8.2));
#436=CARTESIAN_POINT('',(0.,0.,7.7));
#437=CARTESIAN_POINT('',(-2.95565854503112,0.,7.7));
#438=CARTESIAN_POINT('',(0.,2.7,7.7));
#439=CARTESIAN_POINT('',(0.,0.,2.1));
#440=CARTESIAN_POINT('',(-3.54424226251891,0.,2.1));
#441=CARTESIAN_POINT('',(0.,0.,7.7));
#442=CARTESIAN_POINT('',(0.,0.,0.288483657273744));
#443=CARTESIAN_POINT('',(-3.61383370074948,0.,0.288483657273744));
#444=CARTESIAN_POINT('',(0.,0.,2.1));
#445=CARTESIAN_POINT('',(0.,0.,-3.79470760369927E-16));
#446=CARTESIAN_POINT('',(-3.91361257567267,0.,-3.79470760369927E-16));
#447=CARTESIAN_POINT('',(0.,0.,0.3));
#448=CARTESIAN_POINT('',(0.,4.85,0.));
#449=CARTESIAN_POINT('',(0.,0.,-4.1658));
#450=CARTESIAN_POINT('',(-5.,0.,-4.1658));
#451=CARTESIAN_POINT('',(0.,0.,-4.));
#452=CARTESIAN_POINT('',(-5.,0.,-4.));
#453=CARTESIAN_POINT('',(0.,0.,-4.1658));
#454=CARTESIAN_POINT('',(0.,0.,-4.));
#455=CARTESIAN_POINT('',(0.,0.,-4.1658));
#456=CARTESIAN_POINT('',(-7.58941520739853E-16,0.,-11.8));
#457=CARTESIAN_POINT('',(0.,0.,-11.5270223243004));
#458=CARTESIAN_POINT('',(0.749999999999997,0.,-11.5270223243004));
#459=CARTESIAN_POINT('',(0.,0.,-11.5270223243004));
#460=CARTESIAN_POINT('',(0.,0.,-4.16580639213263));
#461=CARTESIAN_POINT('',(5.,0.,-4.16580639213263));
#462=CARTESIAN_POINT('',(0.,0.,-4.16580639213263));
#463=CARTESIAN_POINT('',(0.,0.,-4.16580639213263));
#464=MECHANICAL_DESIGN_GEOMETRIC_PRESENTATION_REPRESENTATION('',(#239,#240,
#241,#242,#243,#244,#245,#246,#247,#248,#249,#250,#251,#252,#253),#465);
#465=(
GEOMETRIC_REPRESENTATION_CONTEXT(3)
GLOBAL_UNCERTAINTY_ASSIGNED_CONTEXT((#466))
GLOBAL_UNIT_ASSIGNED_CONTEXT((#472,#468,#467))
REPRESENTATION_CONTEXT('1574236508320','TOP_LEVEL_ASSEMBLY_PART')
);
#466=UNCERTAINTY_MEASURE_WITH_UNIT(LENGTH_MEASURE(2.E-5),#472,
'DISTANCE_ACCURACY_VALUE','Maximum Tolerance applied to model');
#467=(
NAMED_UNIT(*)
SI_UNIT($,.STERADIAN.)
SOLID_ANGLE_UNIT()
);
#468=(
CONVERSION_BASED_UNIT('DEGREE',#470)
NAMED_UNIT(#469)
PLANE_ANGLE_UNIT()
);
#469=DIMENSIONAL_EXPONENTS(0.,0.,0.,0.,0.,0.,0.);
#470=PLANE_ANGLE_MEASURE_WITH_UNIT(PLANE_ANGLE_MEASURE(0.0174532925),#471);
#471=(
NAMED_UNIT(*)
PLANE_ANGLE_UNIT()
SI_UNIT($,.RADIAN.)
);
#472=(
LENGTH_UNIT()
NAMED_UNIT(*)
SI_UNIT(.MILLI.,.METRE.)
);
ENDSEC;
END-ISO-10303-21;
