ISO-10303-21;
HEADER;
/* Generated by software containing ST-Developer
 * from STEP Tools, Inc. (www.steptools.com) 
 */
/* OPTION: using custom schema-name function */

FILE_DESCRIPTION(
/* description */ (''),
/* implementation_level */ '2;1');

FILE_NAME(
/* name */ '1573131658793.stp',
/* time_stamp */ '2019-11-07T14:01:06+01:00',
/* author */ (''),
/* organization */ ('SMS'),
/* preprocessor_version */ 'ST-DEVELOPER v16.7',
/* originating_system */ 'SIEMENS PLM Software NX 12.0',
/* authorisation */ '');

FILE_SCHEMA (('AUTOMOTIVE_DESIGN { 1 0 10303 214 3 1 1 1 }'));
ENDSEC;

DATA;
#10=CONSTRUCTIVE_GEOMETRY_REPRESENTATION_RELATIONSHIP(
'supplemental geometry','',#26,#11);
#11=CONSTRUCTIVE_GEOMETRY_REPRESENTATION('supplemental geometry',(#295,
#296,#297),#504);
#12=GEOMETRICALLY_BOUNDED_WIREFRAME_SHAPE_REPRESENTATION(
'202673577mod000_00-None',(#27),#504);
#13=SHAPE_REPRESENTATION_RELATIONSHIP('None',
'relationship between 202673577mod000_00-None and 202673577mod000_00-N
one',#26,#15);
#14=SHAPE_REPRESENTATION_RELATIONSHIP('None',
'relationship between 202673577mod000_00-None and 202673577mod000_00-N
one',#26,#12);
#15=ADVANCED_BREP_SHAPE_REPRESENTATION('202673577mod000_00-None',(#33),
#504);
#16=SHAPE_DEFINITION_REPRESENTATION(#17,#26);
#17=PRODUCT_DEFINITION_SHAPE('','',#18);
#18=PRODUCT_DEFINITION(' ','',#20,#19);
#19=PRODUCT_DEFINITION_CONTEXT('part definition',#25,'design');
#20=PRODUCT_DEFINITION_FORMATION_WITH_SPECIFIED_SOURCE(' ',' ',#22,
 .NOT_KNOWN.);
#21=PRODUCT_RELATED_PRODUCT_CATEGORY('part','',(#22));
#22=PRODUCT('202673577mod000_00','202673577mod000_00',' ',(#23));
#23=PRODUCT_CONTEXT(' ',#25,'mechanical');
#24=APPLICATION_PROTOCOL_DEFINITION('international standard',
'automotive_design',2010,#25);
#25=APPLICATION_CONTEXT(
'core data for automotive mechanical design processes');
#26=SHAPE_REPRESENTATION('202673577mod000_00-None',(#294),#504);
#27=GEOMETRIC_CURVE_SET('None',(#430,#431,#432));
#28=SURFACE_STYLE_USAGE(.BOTH.,#29);
#29=SURFACE_SIDE_STYLE('',(#30));
#30=SURFACE_STYLE_FILL_AREA(#31);
#31=FILL_AREA_STYLE('',(#32));
#32=FILL_AREA_STYLE_COLOUR('',#293);
#33=MANIFOLD_SOLID_BREP('NOCUT',#34);
#34=CLOSED_SHELL('',(#64,#65,#66,#67,#68,#69,#70,#71,#72,#73,#74,#75,#76,
#77,#78,#79,#80));
#35=CONICAL_SURFACE('',#331,44.,1.43916666666667);
#36=CONICAL_SURFACE('',#332,17.,1.43916666666667);
#37=CONICAL_SURFACE('',#333,44.,1.43916666666667);
#38=CONICAL_SURFACE('',#334,17.,1.43916666666667);
#39=CONICAL_SURFACE('',#335,44.,1.43916666666667);
#40=CONICAL_SURFACE('',#336,17.,1.43916666666667);
#41=FACE_OUTER_BOUND('',#131,.T.);
#42=FACE_OUTER_BOUND('',#132,.T.);
#43=FACE_OUTER_BOUND('',#133,.T.);
#44=FACE_OUTER_BOUND('',#134,.T.);
#45=FACE_OUTER_BOUND('',#135,.T.);
#46=FACE_OUTER_BOUND('',#136,.T.);
#47=LINE('',#491,#53);
#48=LINE('',#492,#54);
#49=LINE('',#494,#55);
#50=LINE('',#496,#56);
#51=LINE('',#498,#57);
#52=LINE('',#500,#58);
#53=VECTOR('',#411,1.);
#54=VECTOR('',#412,1.);
#55=VECTOR('',#415,1.);
#56=VECTOR('',#418,1.);
#57=VECTOR('',#421,1.);
#58=VECTOR('',#424,1.);
#59=CYLINDRICAL_SURFACE('',#303,53.);
#60=CYLINDRICAL_SURFACE('',#316,32.5);
#61=CYLINDRICAL_SURFACE('',#318,40.0125);
#62=CYLINDRICAL_SURFACE('',#321,40.);
#63=CYLINDRICAL_SURFACE('',#323,36.5);
#64=ADVANCED_FACE('',(#87,#88),#81,.T.);
#65=ADVANCED_FACE('',(#89,#90),#59,.T.);
#66=ADVANCED_FACE('',(#91,#92),#82,.T.);
#67=ADVANCED_FACE('',(#93,#94),#83,.T.);
#68=ADVANCED_FACE('',(#95,#96),#60,.F.);
#69=ADVANCED_FACE('',(#97,#98),#61,.T.);
#70=ADVANCED_FACE('',(#99,#100),#84,.T.);
#71=ADVANCED_FACE('',(#101,#102),#62,.T.);
#72=ADVANCED_FACE('',(#103,#104),#85,.F.);
#73=ADVANCED_FACE('',(#105,#106),#63,.T.);
#74=ADVANCED_FACE('',(#107,#108),#86,.F.);
#75=ADVANCED_FACE('',(#41),#35,.F.);
#76=ADVANCED_FACE('',(#42),#36,.F.);
#77=ADVANCED_FACE('',(#43),#37,.F.);
#78=ADVANCED_FACE('',(#44),#38,.F.);
#79=ADVANCED_FACE('',(#45),#39,.F.);
#80=ADVANCED_FACE('',(#46),#40,.F.);
#81=PLANE('',#300);
#82=PLANE('',#311);
#83=PLANE('',#314);
#84=PLANE('',#319);
#85=PLANE('',#322);
#86=PLANE('',#330);
#87=FACE_BOUND('',#109,.T.);
#88=FACE_BOUND('',#110,.T.);
#89=FACE_BOUND('',#111,.T.);
#90=FACE_BOUND('',#112,.T.);
#91=FACE_BOUND('',#113,.T.);
#92=FACE_BOUND('',#114,.T.);
#93=FACE_BOUND('',#115,.T.);
#94=FACE_BOUND('',#116,.T.);
#95=FACE_BOUND('',#117,.T.);
#96=FACE_BOUND('',#118,.T.);
#97=FACE_BOUND('',#119,.T.);
#98=FACE_BOUND('',#120,.T.);
#99=FACE_BOUND('',#121,.T.);
#100=FACE_BOUND('',#122,.T.);
#101=FACE_BOUND('',#123,.T.);
#102=FACE_BOUND('',#124,.T.);
#103=FACE_BOUND('',#125,.T.);
#104=FACE_BOUND('',#126,.T.);
#105=FACE_BOUND('',#127,.T.);
#106=FACE_BOUND('',#128,.T.);
#107=FACE_BOUND('',#129,.T.);
#108=FACE_BOUND('',#130,.T.);
#109=EDGE_LOOP('',(#137));
#110=EDGE_LOOP('',(#138));
#111=EDGE_LOOP('',(#139));
#112=EDGE_LOOP('',(#140));
#113=EDGE_LOOP('',(#141,#142,#143,#144,#145,#146));
#114=EDGE_LOOP('',(#147));
#115=EDGE_LOOP('',(#148));
#116=EDGE_LOOP('',(#149));
#117=EDGE_LOOP('',(#150));
#118=EDGE_LOOP('',(#151));
#119=EDGE_LOOP('',(#152));
#120=EDGE_LOOP('',(#153));
#121=EDGE_LOOP('',(#154));
#122=EDGE_LOOP('',(#155));
#123=EDGE_LOOP('',(#156));
#124=EDGE_LOOP('',(#157));
#125=EDGE_LOOP('',(#158));
#126=EDGE_LOOP('',(#159));
#127=EDGE_LOOP('',(#160));
#128=EDGE_LOOP('',(#161));
#129=EDGE_LOOP('',(#162,#163,#164,#165,#166,#167));
#130=EDGE_LOOP('',(#168));
#131=EDGE_LOOP('',(#169,#170,#171,#172));
#132=EDGE_LOOP('',(#173,#174,#175,#176));
#133=EDGE_LOOP('',(#177,#178,#179,#180));
#134=EDGE_LOOP('',(#181,#182,#183,#184));
#135=EDGE_LOOP('',(#185,#186,#187,#188));
#136=EDGE_LOOP('',(#189,#190,#191,#192));
#137=ORIENTED_EDGE('',*,*,#215,.T.);
#138=ORIENTED_EDGE('',*,*,#216,.T.);
#139=ORIENTED_EDGE('',*,*,#217,.F.);
#140=ORIENTED_EDGE('',*,*,#218,.T.);
#141=ORIENTED_EDGE('',*,*,#219,.F.);
#142=ORIENTED_EDGE('',*,*,#220,.F.);
#143=ORIENTED_EDGE('',*,*,#221,.F.);
#144=ORIENTED_EDGE('',*,*,#222,.F.);
#145=ORIENTED_EDGE('',*,*,#223,.F.);
#146=ORIENTED_EDGE('',*,*,#224,.F.);
#147=ORIENTED_EDGE('',*,*,#225,.F.);
#148=ORIENTED_EDGE('',*,*,#226,.F.);
#149=ORIENTED_EDGE('',*,*,#227,.T.);
#150=ORIENTED_EDGE('',*,*,#228,.F.);
#151=ORIENTED_EDGE('',*,*,#215,.F.);
#152=ORIENTED_EDGE('',*,*,#227,.F.);
#153=ORIENTED_EDGE('',*,*,#229,.T.);
#154=ORIENTED_EDGE('',*,*,#218,.F.);
#155=ORIENTED_EDGE('',*,*,#229,.F.);
#156=ORIENTED_EDGE('',*,*,#225,.T.);
#157=ORIENTED_EDGE('',*,*,#230,.T.);
#158=ORIENTED_EDGE('',*,*,#217,.T.);
#159=ORIENTED_EDGE('',*,*,#230,.F.);
#160=ORIENTED_EDGE('',*,*,#216,.F.);
#161=ORIENTED_EDGE('',*,*,#226,.T.);
#162=ORIENTED_EDGE('',*,*,#231,.T.);
#163=ORIENTED_EDGE('',*,*,#232,.T.);
#164=ORIENTED_EDGE('',*,*,#233,.T.);
#165=ORIENTED_EDGE('',*,*,#234,.T.);
#166=ORIENTED_EDGE('',*,*,#235,.T.);
#167=ORIENTED_EDGE('',*,*,#236,.T.);
#168=ORIENTED_EDGE('',*,*,#228,.T.);
#169=ORIENTED_EDGE('',*,*,#237,.F.);
#170=ORIENTED_EDGE('',*,*,#219,.T.);
#171=ORIENTED_EDGE('',*,*,#238,.T.);
#172=ORIENTED_EDGE('',*,*,#233,.F.);
#173=ORIENTED_EDGE('',*,*,#238,.F.);
#174=ORIENTED_EDGE('',*,*,#224,.T.);
#175=ORIENTED_EDGE('',*,*,#239,.T.);
#176=ORIENTED_EDGE('',*,*,#234,.F.);
#177=ORIENTED_EDGE('',*,*,#239,.F.);
#178=ORIENTED_EDGE('',*,*,#223,.T.);
#179=ORIENTED_EDGE('',*,*,#240,.T.);
#180=ORIENTED_EDGE('',*,*,#235,.F.);
#181=ORIENTED_EDGE('',*,*,#240,.F.);
#182=ORIENTED_EDGE('',*,*,#222,.T.);
#183=ORIENTED_EDGE('',*,*,#241,.T.);
#184=ORIENTED_EDGE('',*,*,#236,.F.);
#185=ORIENTED_EDGE('',*,*,#241,.F.);
#186=ORIENTED_EDGE('',*,*,#221,.T.);
#187=ORIENTED_EDGE('',*,*,#242,.T.);
#188=ORIENTED_EDGE('',*,*,#231,.F.);
#189=ORIENTED_EDGE('',*,*,#242,.F.);
#190=ORIENTED_EDGE('',*,*,#220,.T.);
#191=ORIENTED_EDGE('',*,*,#237,.T.);
#192=ORIENTED_EDGE('',*,*,#232,.F.);
#193=VERTEX_POINT('',#437);
#194=VERTEX_POINT('',#439);
#195=VERTEX_POINT('',#442);
#196=VERTEX_POINT('',#444);
#197=VERTEX_POINT('',#447);
#198=VERTEX_POINT('',#448);
#199=VERTEX_POINT('',#450);
#200=VERTEX_POINT('',#452);
#201=VERTEX_POINT('',#454);
#202=VERTEX_POINT('',#456);
#203=VERTEX_POINT('',#459);
#204=VERTEX_POINT('',#462);
#205=VERTEX_POINT('',#464);
#206=VERTEX_POINT('',#467);
#207=VERTEX_POINT('',#470);
#208=VERTEX_POINT('',#474);
#209=VERTEX_POINT('',#479);
#210=VERTEX_POINT('',#480);
#211=VERTEX_POINT('',#482);
#212=VERTEX_POINT('',#484);
#213=VERTEX_POINT('',#486);
#214=VERTEX_POINT('',#488);
#215=EDGE_CURVE('',#193,#193,#243,.T.);
#216=EDGE_CURVE('',#194,#194,#244,.T.);
#217=EDGE_CURVE('',#195,#195,#245,.T.);
#218=EDGE_CURVE('',#196,#196,#246,.T.);
#219=EDGE_CURVE('',#197,#198,#247,.T.);
#220=EDGE_CURVE('',#199,#197,#248,.T.);
#221=EDGE_CURVE('',#200,#199,#249,.T.);
#222=EDGE_CURVE('',#201,#200,#250,.T.);
#223=EDGE_CURVE('',#202,#201,#251,.T.);
#224=EDGE_CURVE('',#198,#202,#252,.T.);
#225=EDGE_CURVE('',#203,#203,#253,.T.);
#226=EDGE_CURVE('',#204,#204,#254,.T.);
#227=EDGE_CURVE('',#205,#205,#255,.T.);
#228=EDGE_CURVE('',#206,#206,#256,.T.);
#229=EDGE_CURVE('',#207,#207,#257,.T.);
#230=EDGE_CURVE('',#208,#208,#258,.T.);
#231=EDGE_CURVE('',#209,#210,#259,.T.);
#232=EDGE_CURVE('',#210,#211,#260,.T.);
#233=EDGE_CURVE('',#211,#212,#261,.T.);
#234=EDGE_CURVE('',#212,#213,#262,.T.);
#235=EDGE_CURVE('',#213,#214,#263,.T.);
#236=EDGE_CURVE('',#214,#209,#264,.T.);
#237=EDGE_CURVE('',#197,#211,#47,.T.);
#238=EDGE_CURVE('',#198,#212,#48,.T.);
#239=EDGE_CURVE('',#202,#213,#49,.T.);
#240=EDGE_CURVE('',#201,#214,#50,.T.);
#241=EDGE_CURVE('',#200,#209,#51,.T.);
#242=EDGE_CURVE('',#199,#210,#52,.T.);
#243=CIRCLE('',#298,32.5);
#244=CIRCLE('',#299,36.5);
#245=CIRCLE('',#301,53.);
#246=CIRCLE('',#302,53.);
#247=CIRCLE('',#304,44.);
#248=CIRCLE('',#305,17.);
#249=CIRCLE('',#306,44.);
#250=CIRCLE('',#307,17.);
#251=CIRCLE('',#308,44.);
#252=CIRCLE('',#309,17.);
#253=CIRCLE('',#310,40.);
#254=CIRCLE('',#312,36.5);
#255=CIRCLE('',#313,40.0125);
#256=CIRCLE('',#315,32.5);
#257=CIRCLE('',#317,40.0125);
#258=CIRCLE('',#320,40.);
#259=CIRCLE('',#324,42.8091470144437);
#260=CIRCLE('',#325,15.8091470144437);
#261=CIRCLE('',#326,42.8091470144437);
#262=CIRCLE('',#327,15.8091470144437);
#263=CIRCLE('',#328,42.8091470144437);
#264=CIRCLE('',#329,15.8091470144437);
#265=CURVE_STYLE('',#268,POSITIVE_LENGTH_MEASURE(0.18),#292);
#266=CURVE_STYLE('',#269,POSITIVE_LENGTH_MEASURE(0.18),#292);
#267=CURVE_STYLE('',#270,POSITIVE_LENGTH_MEASURE(0.18),#292);
#268=DRAUGHTING_PRE_DEFINED_CURVE_FONT('continuous');
#269=DRAUGHTING_PRE_DEFINED_CURVE_FONT('continuous');
#270=DRAUGHTING_PRE_DEFINED_CURVE_FONT('continuous');
#271=PRESENTATION_LAYER_ASSIGNMENT('1','Layer 1',(#430,#431,#432,#295,#296,
#297,#33));
#272=STYLED_ITEM('',(#279),#430);
#273=STYLED_ITEM('',(#280),#431);
#274=STYLED_ITEM('',(#281),#432);
#275=STYLED_ITEM('',(#282),#295);
#276=STYLED_ITEM('',(#283),#296);
#277=STYLED_ITEM('',(#284),#297);
#278=STYLED_ITEM('',(#285),#33);
#279=PRESENTATION_STYLE_ASSIGNMENT((#286));
#280=PRESENTATION_STYLE_ASSIGNMENT((#287));
#281=PRESENTATION_STYLE_ASSIGNMENT((#288));
#282=PRESENTATION_STYLE_ASSIGNMENT((#265));
#283=PRESENTATION_STYLE_ASSIGNMENT((#266));
#284=PRESENTATION_STYLE_ASSIGNMENT((#267));
#285=PRESENTATION_STYLE_ASSIGNMENT((#28));
#286=POINT_STYLE('',#289,POSITIVE_LENGTH_MEASURE(3.),#292);
#287=POINT_STYLE('',#290,POSITIVE_LENGTH_MEASURE(3.),#292);
#288=POINT_STYLE('',#291,POSITIVE_LENGTH_MEASURE(3.),#292);
#289=PRE_DEFINED_POINT_MARKER_SYMBOL('plus');
#290=PRE_DEFINED_POINT_MARKER_SYMBOL('plus');
#291=PRE_DEFINED_POINT_MARKER_SYMBOL('plus');
#292=COLOUR_RGB('Strong Stone',0.576470588235294,0.54508278019379,0.392156862745098);
#293=COLOUR_RGB('TLS_NOCUT',0.501960784313725,0.501960784313725,0.501960784313725);
#294=AXIS2_PLACEMENT_3D('',#429,#337,#338);
#295=AXIS2_PLACEMENT_3D('PCS',#433,#339,#340);
#296=AXIS2_PLACEMENT_3D('MCS',#434,#341,#342);
#297=AXIS2_PLACEMENT_3D('CSW',#435,#343,#344);
#298=AXIS2_PLACEMENT_3D('',#436,#345,#346);
#299=AXIS2_PLACEMENT_3D('',#438,#347,#348);
#300=AXIS2_PLACEMENT_3D('',#440,#349,#350);
#301=AXIS2_PLACEMENT_3D('',#441,#351,#352);
#302=AXIS2_PLACEMENT_3D('',#443,#353,#354);
#303=AXIS2_PLACEMENT_3D('',#445,#355,#356);
#304=AXIS2_PLACEMENT_3D('',#446,#357,#358);
#305=AXIS2_PLACEMENT_3D('',#449,#359,#360);
#306=AXIS2_PLACEMENT_3D('',#451,#361,#362);
#307=AXIS2_PLACEMENT_3D('',#453,#363,#364);
#308=AXIS2_PLACEMENT_3D('',#455,#365,#366);
#309=AXIS2_PLACEMENT_3D('',#457,#367,#368);
#310=AXIS2_PLACEMENT_3D('',#458,#369,#370);
#311=AXIS2_PLACEMENT_3D('',#460,#371,#372);
#312=AXIS2_PLACEMENT_3D('',#461,#373,#374);
#313=AXIS2_PLACEMENT_3D('',#463,#375,#376);
#314=AXIS2_PLACEMENT_3D('',#465,#377,#378);
#315=AXIS2_PLACEMENT_3D('',#466,#379,#380);
#316=AXIS2_PLACEMENT_3D('',#468,#381,#382);
#317=AXIS2_PLACEMENT_3D('',#469,#383,#384);
#318=AXIS2_PLACEMENT_3D('',#471,#385,#386);
#319=AXIS2_PLACEMENT_3D('',#472,#387,#388);
#320=AXIS2_PLACEMENT_3D('',#473,#389,#390);
#321=AXIS2_PLACEMENT_3D('',#475,#391,#392);
#322=AXIS2_PLACEMENT_3D('',#476,#393,#394);
#323=AXIS2_PLACEMENT_3D('',#477,#395,#396);
#324=AXIS2_PLACEMENT_3D('',#478,#397,#398);
#325=AXIS2_PLACEMENT_3D('',#481,#399,#400);
#326=AXIS2_PLACEMENT_3D('',#483,#401,#402);
#327=AXIS2_PLACEMENT_3D('',#485,#403,#404);
#328=AXIS2_PLACEMENT_3D('',#487,#405,#406);
#329=AXIS2_PLACEMENT_3D('',#489,#407,#408);
#330=AXIS2_PLACEMENT_3D('',#490,#409,#410);
#331=AXIS2_PLACEMENT_3D('',#493,#413,#414);
#332=AXIS2_PLACEMENT_3D('',#495,#416,#417);
#333=AXIS2_PLACEMENT_3D('',#497,#419,#420);
#334=AXIS2_PLACEMENT_3D('',#499,#422,#423);
#335=AXIS2_PLACEMENT_3D('',#501,#425,#426);
#336=AXIS2_PLACEMENT_3D('',#502,#427,#428);
#337=DIRECTION('',(0.,0.,1.));
#338=DIRECTION('',(1.,0.,0.));
#339=DIRECTION('',(0.,0.,1.));
#340=DIRECTION('',(1.,0.,0.));
#341=DIRECTION('',(0.,0.,1.));
#342=DIRECTION('',(1.,0.,0.));
#343=DIRECTION('',(0.,0.,1.));
#344=DIRECTION('',(1.,0.,0.));
#345=DIRECTION('',(-2.73392419813945E-15,0.,-1.));
#346=DIRECTION('',(1.,0.,-2.56205313375036E-15));
#347=DIRECTION('',(2.73392419813945E-15,0.,1.));
#348=DIRECTION('',(1.,0.,-2.66149355218359E-15));
#349=DIRECTION('',(2.73392419813945E-15,0.,1.));
#350=DIRECTION('',(1.,0.,-2.73392419813945E-15));
#351=DIRECTION('',(-2.73392419813945E-15,0.,-1.));
#352=DIRECTION('',(1.,0.,-2.73300774045403E-15));
#353=DIRECTION('',(-2.73392419813945E-15,0.,-1.));
#354=DIRECTION('',(1.,0.,-2.74937305626513E-15));
#355=DIRECTION('',(2.73392419813945E-15,0.,1.));
#356=DIRECTION('',(1.,0.,-2.73392419813945E-15));
#357=DIRECTION('',(-4.67681449123347E-15,0.,-1.));
#358=DIRECTION('',(-1.,0.,4.67681449123347E-15));
#359=DIRECTION('',(-4.67681449123347E-15,0.,-1.));
#360=DIRECTION('',(-1.,0.,4.67681449123347E-15));
#361=DIRECTION('',(-4.67681449123347E-15,0.,-1.));
#362=DIRECTION('',(-1.,0.,4.67681449123347E-15));
#363=DIRECTION('',(-4.67681449123347E-15,0.,-1.));
#364=DIRECTION('',(-1.,0.,4.67681449123347E-15));
#365=DIRECTION('',(-4.67681449123347E-15,0.,-1.));
#366=DIRECTION('',(-1.,0.,4.67681449123347E-15));
#367=DIRECTION('',(-4.67681449123347E-15,0.,-1.));
#368=DIRECTION('',(-1.,0.,4.67681449123347E-15));
#369=DIRECTION('',(2.73392419813945E-15,0.,1.));
#370=DIRECTION('',(-1.,0.,2.73392419813945E-15));
#371=DIRECTION('',(-2.73392419813945E-15,0.,-1.));
#372=DIRECTION('',(-1.,0.,2.73392419813945E-15));
#373=DIRECTION('',(2.73392419813945E-15,0.,1.));
#374=DIRECTION('',(1.,0.,-2.66149355218359E-15));
#375=DIRECTION('',(2.73392419813945E-15,0.,1.));
#376=DIRECTION('',(1.,0.,-2.77469047079077E-15));
#377=DIRECTION('',(2.73392419813945E-15,0.,1.));
#378=DIRECTION('',(1.,0.,-2.73392419813945E-15));
#379=DIRECTION('',(2.73392419813945E-15,0.,1.));
#380=DIRECTION('',(-1.,0.,2.77555756156289E-15));
#381=DIRECTION('',(-2.73392419813945E-15,0.,-1.));
#382=DIRECTION('',(-1.,0.,2.56205313375036E-15));
#383=DIRECTION('',(2.73392419813945E-15,0.,1.));
#384=DIRECTION('',(1.,0.,-2.73133593218466E-15));
#385=DIRECTION('',(2.73392419813945E-15,0.,1.));
#386=DIRECTION('',(1.,0.,-2.73133593218466E-15));
#387=DIRECTION('',(2.73392419813945E-15,0.,1.));
#388=DIRECTION('',(1.,0.,-2.73392419813945E-15));
#389=DIRECTION('',(-2.73392419813945E-15,0.,-1.));
#390=DIRECTION('',(1.,0.,-2.73218947466347E-15));
#391=DIRECTION('',(2.73392419813945E-15,0.,1.));
#392=DIRECTION('',(1.,0.,-2.73489998009468E-15));
#393=DIRECTION('',(2.73392419813945E-15,0.,1.));
#394=DIRECTION('',(1.,0.,-2.73392419813945E-15));
#395=DIRECTION('',(2.73392419813945E-15,0.,1.));
#396=DIRECTION('',(1.,0.,-2.66149355218359E-15));
#397=DIRECTION('',(-2.73392419813945E-15,0.,-1.));
#398=DIRECTION('',(-1.,0.,2.75551382340375E-15));
#399=DIRECTION('',(-2.73392419813945E-15,0.,-1.));
#400=DIRECTION('',(-1.,0.,2.63349840351323E-15));
#401=DIRECTION('',(-2.73392419813945E-15,0.,-1.));
#402=DIRECTION('',(-1.,0.,2.75551382340375E-15));
#403=DIRECTION('',(-2.73392419813945E-15,0.,-1.));
#404=DIRECTION('',(-1.,0.,2.63349840351323E-15));
#405=DIRECTION('',(-2.73392419813945E-15,0.,-1.));
#406=DIRECTION('',(-1.,0.,2.75551382340375E-15));
#407=DIRECTION('',(-2.73392419813945E-15,0.,-1.));
#408=DIRECTION('',(-1.,0.,2.63349840351323E-15));
#409=DIRECTION('',(-2.73392419813945E-15,0.,-1.));
#410=DIRECTION('',(-1.,0.,2.73392419813945E-15));
#411=DIRECTION('',(0.0249627669049536,-0.00276611690419668,0.999684554679986));
#412=DIRECTION('',(0.0149147548525815,-0.0202074546137319,0.999684554679986));
#413=DIRECTION('',(-4.67681449123347E-15,0.,-1.));
#414=DIRECTION('',(-1.,0.,5.90168078254616E-15));
#415=DIRECTION('',(-0.014881502985731,-0.0202319550010383,0.999684554679986));
#416=DIRECTION('',(-4.67681449123347E-15,0.,-1.));
#417=DIRECTION('',(-1.,0.,5.26868137086151E-15));
#418=DIRECTION('',(-0.0249621384919859,-0.00277178213162193,0.999684554679986));
#419=DIRECTION('',(-4.67681449123347E-15,0.,-1.));
#420=DIRECTION('',(-1.,0.,5.34058417114762E-15));
#421=DIRECTION('',(-0.0100427916150198,0.0230202839004147,0.999684554679986));
#422=DIRECTION('',(-4.67681449123347E-15,0.,-1.));
#423=DIRECTION('',(-1.,0.,6.47187293734319E-15));
#424=DIRECTION('',(0.0100858559436073,0.0230014487405336,0.999684554679986));
#425=DIRECTION('',(-4.67681449123347E-15,0.,-1.));
#426=DIRECTION('',(-1.,0.,4.81960349270744E-15));
#427=DIRECTION('',(-4.67681449123347E-15,0.,-1.));
#428=DIRECTION('',(-1.,0.,4.06938363275572E-15));
#429=CARTESIAN_POINT('',(0.,0.,0.));
#430=CARTESIAN_POINT('',(0.,0.,0.));
#431=CARTESIAN_POINT('',(3.91423005119407E-14,-4.77048955893622E-15,14.));
#432=CARTESIAN_POINT('',(0.,-3.9934153232187E-29,1.70446755546757E-14));
#433=CARTESIAN_POINT('',(0.,0.,0.));
#434=CARTESIAN_POINT('',(3.91423005119407E-14,-4.77048955893622E-15,14.));
#435=CARTESIAN_POINT('',(0.,-3.9934153232187E-29,1.70446755546757E-14));
#436=CARTESIAN_POINT('',(2.14113449192865E-13,-4.33680868994202E-15,78.));
#437=CARTESIAN_POINT('',(32.5000000000002,-4.33680868994202E-15,77.9999999999999));
#438=CARTESIAN_POINT('',(2.13246087454877E-13,-5.20417042793042E-15,78.));
#439=CARTESIAN_POINT('',(36.5000000000002,-5.20417042793042E-15,77.9999999999999));
#440=CARTESIAN_POINT('',(2.13246087454877E-13,-5.20417042793042E-15,78.));
#441=CARTESIAN_POINT('',(2.73392419813945E-15,0.,1.));
#442=CARTESIAN_POINT('',(53.,0.,0.999999999999856));
#443=CARTESIAN_POINT('',(3.82749387739522E-14,0.,14.));
#444=CARTESIAN_POINT('',(53.,0.,13.9999999999999));
#445=CARTESIAN_POINT('',(0.,0.,0.));
#446=CARTESIAN_POINT('',(16.0104298491108,-9.22366132498966,-7.48778103291981E-14));
#447=CARTESIAN_POINT('',(-27.7218992413453,-4.3776947213028,1.29650180096438E-13));
#448=CARTESIAN_POINT('',(-10.118763681397,26.1778251613893,4.73235806185245E-14));
#449=CARTESIAN_POINT('',(-10.8253175473055,-6.25,5.06280019774422E-14));
#450=CARTESIAN_POINT('',(-17.6521444593339,-21.8190216235062,4.82596248864262E-14));
#451=CARTESIAN_POINT('',(0.0172899012102976,18.4772696373334,-8.0861660532315E-17));
#452=CARTESIAN_POINT('',(17.6112797648921,-21.8520189836758,-8.23646884136141E-14));
#453=CARTESIAN_POINT('',(10.813601863015,-6.27024838010407,-5.05732098953779E-14));
#454=CARTESIAN_POINT('',(27.7097582023284,-4.3941084712807,-1.29593398709225E-13));
#455=CARTESIAN_POINT('',(-16.0214699700121,-9.25,7.49294429266145E-14));
#456=CARTESIAN_POINT('',(10.0494695380507,26.194408771581,-4.69995047647649E-14));
#457=CARTESIAN_POINT('',(-0.0233934537008329,12.4999781098338,1.09406843268055E-16));
#458=CARTESIAN_POINT('',(0.,0.,0.));
#459=CARTESIAN_POINT('',(-40.,0.,1.09356967925578E-13));
#460=CARTESIAN_POINT('',(0.,0.,0.));
#461=CARTESIAN_POINT('',(1.2958800699181E-13,-5.20417042793042E-15,47.4));
#462=CARTESIAN_POINT('',(36.5000000000001,-5.20417042793042E-15,47.3999999999999));
#463=CARTESIAN_POINT('',(1.30455368729798E-13,-4.77048955893622E-15,47.4));
#464=CARTESIAN_POINT('',(40.0125000000001,-4.77048955893622E-15,47.3999999999999));
#465=CARTESIAN_POINT('',(1.30455368729798E-13,-4.77048955893622E-15,47.4));
#466=CARTESIAN_POINT('',(1.30455368729798E-13,-4.33680868994202E-15,47.4));
#467=CARTESIAN_POINT('',(-32.4999999999999,-4.33680868994202E-15,47.4000000000001));
#468=CARTESIAN_POINT('',(2.14113449192865E-13,-4.33680868994202E-15,78.));
#469=CARTESIAN_POINT('',(3.91423005119407E-14,-4.77048955893622E-15,14.));
#470=CARTESIAN_POINT('',(40.0125,-4.77048955893622E-15,13.9999999999999));
#471=CARTESIAN_POINT('',(3.91423005119407E-14,-4.77048955893622E-15,14.));
#472=CARTESIAN_POINT('',(3.82749387739522E-14,0.,14.));
#473=CARTESIAN_POINT('',(2.73392419813945E-15,0.,1.));
#474=CARTESIAN_POINT('',(40.,0.,0.999999999999892));
#475=CARTESIAN_POINT('',(1.36696209906972E-15,0.,0.5));
#476=CARTESIAN_POINT('',(2.73392419813945E-15,0.,1.));
#477=CARTESIAN_POINT('',(1.2958800699181E-13,-5.20417042793042E-15,47.4));
#478=CARTESIAN_POINT('',(0.0172899012105172,18.4772696373334,47.4));
#479=CARTESIAN_POINT('',(17.1351012340511,-20.7605132164101,47.3999999999999));
#480=CARTESIAN_POINT('',(-17.1739240352122,-20.7284089245331,47.4));
#481=CARTESIAN_POINT('',(-10.8253175473053,-6.25,47.4));
#482=CARTESIAN_POINT('',(-26.5382907262837,-4.50885003489159,47.4000000000001));
#483=CARTESIAN_POINT('',(16.010429849111,-9.22366132498966,47.4));
#484=CARTESIAN_POINT('',(-9.41158122398807,25.2196895733112,47.4));
#485=CARTESIAN_POINT('',(-0.023393453700612,12.4999781098338,47.4));
#486=CARTESIAN_POINT('',(9.34386371647288,25.2351114986966,47.4));
#487=CARTESIAN_POINT('',(-16.0214699700119,-9.25,47.4));
#488=CARTESIAN_POINT('',(26.5261794834406,-4.52553240138327,47.3999999999999));
#489=CARTESIAN_POINT('',(10.8136018630153,-6.27024838010407,47.4));
#490=CARTESIAN_POINT('',(1.30455368729798E-13,-4.33680868994202E-15,47.4));
#491=CARTESIAN_POINT('',(-27.7218992413453,-4.3776947213028,1.29650180096438E-13));
#492=CARTESIAN_POINT('',(-10.118763681397,26.1778251613893,4.73235806185245E-14));
#493=CARTESIAN_POINT('',(16.0104298491108,-9.22366132498966,-7.48778103291981E-14));
#494=CARTESIAN_POINT('',(10.0494695380507,26.194408771581,-4.69995047647649E-14));
#495=CARTESIAN_POINT('',(-0.0233934537008329,12.4999781098338,1.09406843268055E-16));
#496=CARTESIAN_POINT('',(27.7097582023284,-4.3941084712807,-1.29593398709225E-13));
#497=CARTESIAN_POINT('',(-16.0214699700121,-9.25,7.49294429266145E-14));
#498=CARTESIAN_POINT('',(17.6112797648921,-21.8520189836758,-8.23646884136141E-14));
#499=CARTESIAN_POINT('',(10.813601863015,-6.27024838010407,-5.05732098953779E-14));
#500=CARTESIAN_POINT('',(-17.6521444593339,-21.8190216235062,8.25558050087595E-14));
#501=CARTESIAN_POINT('',(0.0172899012102976,18.4772696373334,-8.0861660532315E-17));
#502=CARTESIAN_POINT('',(-10.8253175473055,-6.25,5.06280019774422E-14));
#503=MECHANICAL_DESIGN_GEOMETRIC_PRESENTATION_REPRESENTATION('',(#272,#273,
#274,#275,#276,#277,#278),#504);
#504=(
GEOMETRIC_REPRESENTATION_CONTEXT(3)
GLOBAL_UNCERTAINTY_ASSIGNED_CONTEXT((#505))
GLOBAL_UNIT_ASSIGNED_CONTEXT((#511,#507,#506))
REPRESENTATION_CONTEXT('1573131658793','TOP_LEVEL_ASSEMBLY_PART')
);
#505=UNCERTAINTY_MEASURE_WITH_UNIT(LENGTH_MEASURE(2.E-5),#511,
'DISTANCE_ACCURACY_VALUE','Maximum Tolerance applied to model');
#506=(
NAMED_UNIT(*)
SI_UNIT($,.STERADIAN.)
SOLID_ANGLE_UNIT()
);
#507=(
CONVERSION_BASED_UNIT('DEGREE',#509)
NAMED_UNIT(#508)
PLANE_ANGLE_UNIT()
);
#508=DIMENSIONAL_EXPONENTS(0.,0.,0.,0.,0.,0.,0.);
#509=PLANE_ANGLE_MEASURE_WITH_UNIT(PLANE_ANGLE_MEASURE(0.0174532925),#510);
#510=(
NAMED_UNIT(*)
PLANE_ANGLE_UNIT()
SI_UNIT($,.RADIAN.)
);
#511=(
LENGTH_UNIT()
NAMED_UNIT(*)
SI_UNIT(.MILLI.,.METRE.)
);
ENDSEC;
END-ISO-10303-21;
