ISO-10303-21;
HEADER;
/* Generated by software containing ST-Developer
 * from STEP Tools, Inc. (www.steptools.com) 
 */
/* OPTION: using custom schema-name function */

FILE_DESCRIPTION(
/* description */ (''),
/* implementation_level */ '2;1');

FILE_NAME(
/* name */ 'aaa341561_a.stp',
/* time_stamp */ '2019-11-04T09:07:54+01:00',
/* author */ (''),
/* organization */ ('SMS'),
/* preprocessor_version */ 'ST-DEVELOPER v16.7',
/* originating_system */ 'SIEMENS PLM Software NX 12.0',
/* authorisation */ '');

FILE_SCHEMA (('AUTOMOTIVE_DESIGN { 1 0 10303 214 3 1 1 1 }'));
ENDSEC;

DATA;
#10=CONSTRUCTIVE_GEOMETRY_REPRESENTATION_RELATIONSHIP(
'supplemental geometry','',#26,#11);
#11=CONSTRUCTIVE_GEOMETRY_REPRESENTATION('supplemental geometry',(#284,
#285),#545);
#12=GEOMETRICALLY_BOUNDED_WIREFRAME_SHAPE_REPRESENTATION(
'AAA341561_A-None',(#27),#545);
#13=SHAPE_REPRESENTATION_RELATIONSHIP('None',
'relationship between AAA341561_A-None and AAA341561_A-None',#26,#15);
#14=SHAPE_REPRESENTATION_RELATIONSHIP('None',
'relationship between AAA341561_A-None and AAA341561_A-None',#26,#12);
#15=ADVANCED_BREP_SHAPE_REPRESENTATION('AAA341561_A-None',(#33),#545);
#16=SHAPE_DEFINITION_REPRESENTATION(#17,#26);
#17=PRODUCT_DEFINITION_SHAPE('','',#18);
#18=PRODUCT_DEFINITION(' ','',#20,#19);
#19=PRODUCT_DEFINITION_CONTEXT('part definition',#25,'design');
#20=PRODUCT_DEFINITION_FORMATION_WITH_SPECIFIED_SOURCE(' ',' ',#22,
 .NOT_KNOWN.);
#21=PRODUCT_RELATED_PRODUCT_CATEGORY('part','',(#22));
#22=PRODUCT('AAA341561_A','AAA341561_A','MASTER_INSERT',(#23));
#23=PRODUCT_CONTEXT(' ',#25,'mechanical');
#24=APPLICATION_PROTOCOL_DEFINITION('international standard',
'automotive_design',2010,#25);
#25=APPLICATION_CONTEXT(
'core data for automotive mechanical design processes');
#26=SHAPE_REPRESENTATION('AAA341561_A-None',(#283),#545);
#27=GEOMETRIC_CURVE_SET('None',(#390,#391,#263));
#28=SURFACE_STYLE_USAGE(.BOTH.,#29);
#29=SURFACE_SIDE_STYLE('',(#30));
#30=SURFACE_STYLE_FILL_AREA(#31);
#31=FILL_AREA_STYLE('',(#32));
#32=FILL_AREA_STYLE_COLOUR('',#282);
#33=MANIFOLD_SOLID_BREP('CUT',#34);
#34=CLOSED_SHELL('',(#56,#57,#58,#59,#60,#61,#62,#63,#64,#65,#66,#67,#68,
#69));
#35=TOROIDAL_SURFACE('',#311,0.910389055470469,0.5);
#36=TOROIDAL_SURFACE('',#312,2.69999999999999,1.6);
#37=CYLINDRICAL_SURFACE('',#309,1.1);
#38=FACE_BOUND('',#91,.T.);
#39=FACE_BOUND('',#92,.T.);
#40=FACE_BOUND('',#93,.T.);
#41=FACE_BOUND('',#94,.T.);
#42=FACE_BOUND('',#95,.T.);
#43=FACE_BOUND('',#96,.T.);
#44=FACE_BOUND('',#97,.T.);
#45=FACE_BOUND('',#98,.T.);
#46=FACE_BOUND('',#99,.T.);
#47=FACE_BOUND('',#100,.T.);
#48=FACE_BOUND('',#101,.T.);
#49=FACE_BOUND('',#102,.T.);
#50=PLANE('',#298);
#51=PLANE('',#299);
#52=PLANE('',#300);
#53=PLANE('',#301);
#54=PLANE('',#303);
#55=PLANE('',#305);
#56=ADVANCED_FACE('',(#75),#70,.T.);
#57=ADVANCED_FACE('',(#76),#71,.T.);
#58=ADVANCED_FACE('',(#77),#72,.T.);
#59=ADVANCED_FACE('',(#78),#73,.T.);
#60=ADVANCED_FACE('',(#79),#50,.T.);
#61=ADVANCED_FACE('',(#80),#51,.T.);
#62=ADVANCED_FACE('',(#81),#52,.T.);
#63=ADVANCED_FACE('',(#82),#53,.T.);
#64=ADVANCED_FACE('',(#38,#39),#54,.T.);
#65=ADVANCED_FACE('',(#40,#41),#55,.F.);
#66=ADVANCED_FACE('',(#42,#43),#74,.F.);
#67=ADVANCED_FACE('',(#44,#45),#37,.F.);
#68=ADVANCED_FACE('',(#46,#47),#35,.F.);
#69=ADVANCED_FACE('',(#48,#49),#36,.T.);
#70=CONICAL_SURFACE('',#288,4.33680868994202E-16,11.);
#71=CONICAL_SURFACE('',#291,4.33680868994202E-16,11.);
#72=CONICAL_SURFACE('',#294,4.33680868994202E-16,11.);
#73=CONICAL_SURFACE('',#297,4.33680868994202E-16,11.);
#74=CONICAL_SURFACE('',#307,1.40917108060038,4.);
#75=FACE_OUTER_BOUND('',#83,.T.);
#76=FACE_OUTER_BOUND('',#84,.T.);
#77=FACE_OUTER_BOUND('',#85,.T.);
#78=FACE_OUTER_BOUND('',#86,.T.);
#79=FACE_OUTER_BOUND('',#87,.T.);
#80=FACE_OUTER_BOUND('',#88,.T.);
#81=FACE_OUTER_BOUND('',#89,.T.);
#82=FACE_OUTER_BOUND('',#90,.T.);
#83=EDGE_LOOP('',(#135,#136,#137,#138));
#84=EDGE_LOOP('',(#139,#140,#141,#142));
#85=EDGE_LOOP('',(#143,#144,#145,#146));
#86=EDGE_LOOP('',(#147,#148,#149,#150));
#87=EDGE_LOOP('',(#151,#152,#153,#154));
#88=EDGE_LOOP('',(#155,#156,#157,#158));
#89=EDGE_LOOP('',(#159,#160,#161,#162));
#90=EDGE_LOOP('',(#163,#164,#165,#166));
#91=EDGE_LOOP('',(#167));
#92=EDGE_LOOP('',(#168,#169,#170,#171,#172,#173,#174,#175));
#93=EDGE_LOOP('',(#176));
#94=EDGE_LOOP('',(#177,#178,#179,#180,#181,#182,#183,#184));
#95=EDGE_LOOP('',(#185));
#96=EDGE_LOOP('',(#186));
#97=EDGE_LOOP('',(#187));
#98=EDGE_LOOP('',(#188));
#99=EDGE_LOOP('',(#189));
#100=EDGE_LOOP('',(#190));
#101=EDGE_LOOP('',(#191));
#102=EDGE_LOOP('',(#192));
#103=LINE('',#483,#119);
#104=LINE('',#487,#120);
#105=LINE('',#492,#121);
#106=LINE('',#496,#122);
#107=LINE('',#501,#123);
#108=LINE('',#505,#124);
#109=LINE('',#510,#125);
#110=LINE('',#514,#126);
#111=LINE('',#516,#127);
#112=LINE('',#517,#128);
#113=LINE('',#519,#129);
#114=LINE('',#520,#130);
#115=LINE('',#522,#131);
#116=LINE('',#523,#132);
#117=LINE('',#525,#133);
#118=LINE('',#526,#134);
#119=VECTOR('',#321,1.);
#120=VECTOR('',#324,1.);
#121=VECTOR('',#329,1.);
#122=VECTOR('',#332,1.);
#123=VECTOR('',#337,1.);
#124=VECTOR('',#340,1.);
#125=VECTOR('',#345,1.);
#126=VECTOR('',#348,1.);
#127=VECTOR('',#351,1.);
#128=VECTOR('',#352,1.);
#129=VECTOR('',#355,1.);
#130=VECTOR('',#356,1.);
#131=VECTOR('',#359,1.);
#132=VECTOR('',#360,1.);
#133=VECTOR('',#363,1.);
#134=VECTOR('',#364,1.);
#135=ORIENTED_EDGE('',*,*,#214,.T.);
#136=ORIENTED_EDGE('',*,*,#215,.T.);
#137=ORIENTED_EDGE('',*,*,#216,.F.);
#138=ORIENTED_EDGE('',*,*,#217,.F.);
#139=ORIENTED_EDGE('',*,*,#218,.T.);
#140=ORIENTED_EDGE('',*,*,#219,.T.);
#141=ORIENTED_EDGE('',*,*,#220,.F.);
#142=ORIENTED_EDGE('',*,*,#221,.F.);
#143=ORIENTED_EDGE('',*,*,#222,.T.);
#144=ORIENTED_EDGE('',*,*,#223,.T.);
#145=ORIENTED_EDGE('',*,*,#224,.F.);
#146=ORIENTED_EDGE('',*,*,#225,.F.);
#147=ORIENTED_EDGE('',*,*,#226,.T.);
#148=ORIENTED_EDGE('',*,*,#227,.T.);
#149=ORIENTED_EDGE('',*,*,#228,.F.);
#150=ORIENTED_EDGE('',*,*,#229,.F.);
#151=ORIENTED_EDGE('',*,*,#230,.T.);
#152=ORIENTED_EDGE('',*,*,#225,.T.);
#153=ORIENTED_EDGE('',*,*,#231,.T.);
#154=ORIENTED_EDGE('',*,*,#219,.F.);
#155=ORIENTED_EDGE('',*,*,#232,.T.);
#156=ORIENTED_EDGE('',*,*,#229,.T.);
#157=ORIENTED_EDGE('',*,*,#233,.T.);
#158=ORIENTED_EDGE('',*,*,#223,.F.);
#159=ORIENTED_EDGE('',*,*,#227,.F.);
#160=ORIENTED_EDGE('',*,*,#234,.T.);
#161=ORIENTED_EDGE('',*,*,#217,.T.);
#162=ORIENTED_EDGE('',*,*,#235,.T.);
#163=ORIENTED_EDGE('',*,*,#236,.T.);
#164=ORIENTED_EDGE('',*,*,#221,.T.);
#165=ORIENTED_EDGE('',*,*,#237,.T.);
#166=ORIENTED_EDGE('',*,*,#215,.F.);
#167=ORIENTED_EDGE('',*,*,#238,.F.);
#168=ORIENTED_EDGE('',*,*,#220,.T.);
#169=ORIENTED_EDGE('',*,*,#231,.F.);
#170=ORIENTED_EDGE('',*,*,#224,.T.);
#171=ORIENTED_EDGE('',*,*,#233,.F.);
#172=ORIENTED_EDGE('',*,*,#228,.T.);
#173=ORIENTED_EDGE('',*,*,#235,.F.);
#174=ORIENTED_EDGE('',*,*,#216,.T.);
#175=ORIENTED_EDGE('',*,*,#237,.F.);
#176=ORIENTED_EDGE('',*,*,#239,.F.);
#177=ORIENTED_EDGE('',*,*,#234,.F.);
#178=ORIENTED_EDGE('',*,*,#226,.F.);
#179=ORIENTED_EDGE('',*,*,#232,.F.);
#180=ORIENTED_EDGE('',*,*,#222,.F.);
#181=ORIENTED_EDGE('',*,*,#230,.F.);
#182=ORIENTED_EDGE('',*,*,#218,.F.);
#183=ORIENTED_EDGE('',*,*,#236,.F.);
#184=ORIENTED_EDGE('',*,*,#214,.F.);
#185=ORIENTED_EDGE('',*,*,#240,.T.);
#186=ORIENTED_EDGE('',*,*,#238,.T.);
#187=ORIENTED_EDGE('',*,*,#241,.F.);
#188=ORIENTED_EDGE('',*,*,#239,.T.);
#189=ORIENTED_EDGE('',*,*,#240,.F.);
#190=ORIENTED_EDGE('',*,*,#242,.T.);
#191=ORIENTED_EDGE('',*,*,#241,.T.);
#192=ORIENTED_EDGE('',*,*,#242,.F.);
#193=VERTEX_POINT('',#481);
#194=VERTEX_POINT('',#482);
#195=VERTEX_POINT('',#484);
#196=VERTEX_POINT('',#486);
#197=VERTEX_POINT('',#490);
#198=VERTEX_POINT('',#491);
#199=VERTEX_POINT('',#493);
#200=VERTEX_POINT('',#495);
#201=VERTEX_POINT('',#499);
#202=VERTEX_POINT('',#500);
#203=VERTEX_POINT('',#502);
#204=VERTEX_POINT('',#504);
#205=VERTEX_POINT('',#508);
#206=VERTEX_POINT('',#509);
#207=VERTEX_POINT('',#511);
#208=VERTEX_POINT('',#513);
#209=VERTEX_POINT('',#529);
#210=VERTEX_POINT('',#532);
#211=VERTEX_POINT('',#535);
#212=VERTEX_POINT('',#538);
#213=VERTEX_POINT('',#541);
#214=EDGE_CURVE('',#193,#194,#243,.T.);
#215=EDGE_CURVE('',#194,#195,#103,.T.);
#216=EDGE_CURVE('',#196,#195,#244,.T.);
#217=EDGE_CURVE('',#193,#196,#104,.T.);
#218=EDGE_CURVE('',#197,#198,#245,.T.);
#219=EDGE_CURVE('',#198,#199,#105,.T.);
#220=EDGE_CURVE('',#200,#199,#246,.T.);
#221=EDGE_CURVE('',#197,#200,#106,.T.);
#222=EDGE_CURVE('',#201,#202,#247,.T.);
#223=EDGE_CURVE('',#202,#203,#107,.T.);
#224=EDGE_CURVE('',#204,#203,#248,.T.);
#225=EDGE_CURVE('',#201,#204,#108,.T.);
#226=EDGE_CURVE('',#205,#206,#249,.T.);
#227=EDGE_CURVE('',#206,#207,#109,.T.);
#228=EDGE_CURVE('',#208,#207,#250,.T.);
#229=EDGE_CURVE('',#205,#208,#110,.T.);
#230=EDGE_CURVE('',#198,#201,#111,.T.);
#231=EDGE_CURVE('',#204,#199,#112,.T.);
#232=EDGE_CURVE('',#202,#205,#113,.T.);
#233=EDGE_CURVE('',#208,#203,#114,.T.);
#234=EDGE_CURVE('',#206,#193,#115,.T.);
#235=EDGE_CURVE('',#196,#207,#116,.T.);
#236=EDGE_CURVE('',#194,#197,#117,.T.);
#237=EDGE_CURVE('',#200,#195,#118,.T.);
#238=EDGE_CURVE('',#209,#209,#251,.T.);
#239=EDGE_CURVE('',#210,#210,#252,.T.);
#240=EDGE_CURVE('',#211,#211,#253,.T.);
#241=EDGE_CURVE('',#212,#212,#254,.T.);
#242=EDGE_CURVE('',#213,#213,#255,.T.);
#243=CIRCLE('',#286,0.720852537975524);
#244=CIRCLE('',#287,1.2);
#245=CIRCLE('',#289,0.720852537975524);
#246=CIRCLE('',#290,1.2);
#247=CIRCLE('',#292,0.720852537975524);
#248=CIRCLE('',#293,1.2);
#249=CIRCLE('',#295,0.720852537975524);
#250=CIRCLE('',#296,1.2);
#251=CIRCLE('',#302,1.44894876836046);
#252=CIRCLE('',#304,1.1);
#253=CIRCLE('',#306,1.40917108060038);
#254=CIRCLE('',#308,1.09999999999999);
#255=CIRCLE('',#310,1.33648689940607);
#256=CURVE_STYLE('',#260,POSITIVE_LENGTH_MEASURE(0.18),#259);
#257=CURVE_STYLE('',#261,POSITIVE_LENGTH_MEASURE(0.18),#281);
#258=CURVE_STYLE('',#262,POSITIVE_LENGTH_MEASURE(0.18),#281);
#259=DRAUGHTING_PRE_DEFINED_COLOUR('blue');
#260=DRAUGHTING_PRE_DEFINED_CURVE_FONT('continuous');
#261=DRAUGHTING_PRE_DEFINED_CURVE_FONT('continuous');
#262=DRAUGHTING_PRE_DEFINED_CURVE_FONT('continuous');
#263=B_SPLINE_CURVE_WITH_KNOTS('CUTTING EDGE LINE',3,(#392,#393,#394,#395,
#396,#397,#398,#399,#400,#401,#402,#403,#404,#405,#406,#407,#408,#409,#410,
#411,#412,#413,#414,#415,#416,#417,#418,#419,#420,#421,#422,#423,#424,#425,
#426,#427,#428,#429,#430,#431,#432,#433,#434,#435,#436,#437,#438,#439,#440,
#441,#442,#443,#444,#445,#446,#447,#448,#449,#450,#451,#452,#453,#454,#455,
#456,#457,#458,#459,#460,#461,#462,#463,#464,#465,#466,#467,#468,#469,#470,
#471,#472,#473,#474,#475,#476,#477),.UNSPECIFIED.,.T.,.F.,(1,1,2,1,1,1,
1,1,1,1,1,1,1,1,1,1,1,1,1,1,1,1,1,1,1,1,1,1,1,1,1,1,1,1,1,1,1,1,1,1,1,1,
1,1,1,1,1,1,1,1,1,1,1,1,1,1,1,1,1,1,1,1,1,1,1,1,1,1,1,1,1,1,1,1,1,1,1,1,
1,1,1,1,1,1,1,2,1,1),(-0.03125,-0.015625,0.,0.0625,0.125,0.1328125,0.140625,
0.142578125,0.14453125,0.1484375,0.15234375,0.15625,0.1640625,0.171875,
0.1875,0.203125,0.21875,0.234375,0.2421875,0.24609375,0.25,0.25390625,0.2578125,
0.265625,0.28125,0.3125,0.375,0.3828125,0.390625,0.392578125,0.39453125,
0.3984375,0.40234375,0.40625,0.4140625,0.421875,0.4375,0.453125,0.46875,
0.484375,0.4921875,0.49609375,0.5,0.501953125,0.50390625,0.5078125,0.515625,
0.53125,0.5625,0.625,0.6328125,0.640625,0.642578125,0.64453125,0.6484375,
0.65234375,0.65625,0.6640625,0.671875,0.6875,0.703125,0.71875,0.734375,
0.7421875,0.74609375,0.75,0.75390625,0.7578125,0.765625,0.78125,0.8125,
0.875,0.8828125,0.890625,0.892578125,0.89453125,0.8984375,0.90234375,0.90625,
0.9140625,0.921875,0.9375,0.953125,0.96875,0.984375,1.,1.0625,1.125),
 .UNSPECIFIED.);
#264=PRESENTATION_LAYER_ASSIGNMENT('1','Layer 1',(#390,#391,#263,#284,#285,
#33));
#265=STYLED_ITEM('',(#271),#390);
#266=STYLED_ITEM('',(#272),#391);
#267=STYLED_ITEM('',(#273),#263);
#268=STYLED_ITEM('',(#274),#284);
#269=STYLED_ITEM('',(#275),#285);
#270=STYLED_ITEM('',(#276),#33);
#271=PRESENTATION_STYLE_ASSIGNMENT((#277));
#272=PRESENTATION_STYLE_ASSIGNMENT((#278));
#273=PRESENTATION_STYLE_ASSIGNMENT((#256));
#274=PRESENTATION_STYLE_ASSIGNMENT((#257));
#275=PRESENTATION_STYLE_ASSIGNMENT((#258));
#276=PRESENTATION_STYLE_ASSIGNMENT((#28));
#277=POINT_STYLE('',#279,POSITIVE_LENGTH_MEASURE(3.),#281);
#278=POINT_STYLE('',#280,POSITIVE_LENGTH_MEASURE(3.),#281);
#279=PRE_DEFINED_POINT_MARKER_SYMBOL('plus');
#280=PRE_DEFINED_POINT_MARKER_SYMBOL('plus');
#281=COLOUR_RGB('Medium Maroon',0.6,0.4,0.4);
#282=COLOUR_RGB('Light Gray',0.8,0.8,0.8);
#283=AXIS2_PLACEMENT_3D('',#389,#313,#314);
#284=AXIS2_PLACEMENT_3D('PCS',#478,#315,#316);
#285=AXIS2_PLACEMENT_3D('MCS',#479,#317,#318);
#286=AXIS2_PLACEMENT_3D('',#480,#319,#320);
#287=AXIS2_PLACEMENT_3D('',#485,#322,#323);
#288=AXIS2_PLACEMENT_3D('',#488,#325,#326);
#289=AXIS2_PLACEMENT_3D('',#489,#327,#328);
#290=AXIS2_PLACEMENT_3D('',#494,#330,#331);
#291=AXIS2_PLACEMENT_3D('',#497,#333,#334);
#292=AXIS2_PLACEMENT_3D('',#498,#335,#336);
#293=AXIS2_PLACEMENT_3D('',#503,#338,#339);
#294=AXIS2_PLACEMENT_3D('',#506,#341,#342);
#295=AXIS2_PLACEMENT_3D('',#507,#343,#344);
#296=AXIS2_PLACEMENT_3D('',#512,#346,#347);
#297=AXIS2_PLACEMENT_3D('',#515,#349,#350);
#298=AXIS2_PLACEMENT_3D('',#518,#353,#354);
#299=AXIS2_PLACEMENT_3D('',#521,#357,#358);
#300=AXIS2_PLACEMENT_3D('',#524,#361,#362);
#301=AXIS2_PLACEMENT_3D('',#527,#365,#366);
#302=AXIS2_PLACEMENT_3D('',#528,#367,#368);
#303=AXIS2_PLACEMENT_3D('',#530,#369,#370);
#304=AXIS2_PLACEMENT_3D('',#531,#371,#372);
#305=AXIS2_PLACEMENT_3D('',#533,#373,#374);
#306=AXIS2_PLACEMENT_3D('',#534,#375,#376);
#307=AXIS2_PLACEMENT_3D('',#536,#377,#378);
#308=AXIS2_PLACEMENT_3D('',#537,#379,#380);
#309=AXIS2_PLACEMENT_3D('',#539,#381,#382);
#310=AXIS2_PLACEMENT_3D('',#540,#383,#384);
#311=AXIS2_PLACEMENT_3D('',#542,#385,#386);
#312=AXIS2_PLACEMENT_3D('',#543,#387,#388);
#313=DIRECTION('',(0.,0.,1.));
#314=DIRECTION('',(1.,0.,0.));
#315=DIRECTION('',(0.,0.,1.));
#316=DIRECTION('',(0.,-1.,0.));
#317=DIRECTION('',(0.,0.,1.));
#318=DIRECTION('',(0.,-1.,0.));
#319=DIRECTION('',(0.,0.,1.));
#320=DIRECTION('',(1.,0.,0.));
#321=DIRECTION('',(-0.190808995376545,0.,0.981627183447664));
#322=DIRECTION('',(0.,0.,1.));
#323=DIRECTION('',(1.,0.,0.));
#324=DIRECTION('',(-4.23681079945271E-17,0.190808995376545,0.981627183447664));
#325=DIRECTION('',(0.,0.,1.));
#326=DIRECTION('',(1.,0.,2.67731358748034E-17));
#327=DIRECTION('',(0.,0.,1.));
#328=DIRECTION('',(1.,0.,0.));
#329=DIRECTION('',(-2.23524221244456E-16,-0.190808995376545,0.981627183447664));
#330=DIRECTION('',(0.,0.,1.));
#331=DIRECTION('',(1.,0.,0.));
#332=DIRECTION('',(-0.190808995376545,1.81156113249929E-16,0.981627183447664));
#333=DIRECTION('',(0.,0.,1.));
#334=DIRECTION('',(1.17132469452265E-15,1.,2.67731358748034E-17));
#335=DIRECTION('',(0.,0.,1.));
#336=DIRECTION('',(1.,0.,0.));
#337=DIRECTION('',(0.190808995376545,-4.47048442488911E-16,0.981627183447664));
#338=DIRECTION('',(0.,0.,1.));
#339=DIRECTION('',(1.,0.,0.));
#340=DIRECTION('',(-4.04680334494384E-16,-0.190808995376545,0.981627183447664));
#341=DIRECTION('',(0.,0.,1.));
#342=DIRECTION('',(-1.,2.34264938904529E-15,2.67731358748034E-17));
#343=DIRECTION('',(0.,0.,1.));
#344=DIRECTION('',(1.,0.,0.));
#345=DIRECTION('',(7.12940771727894E-16,0.190808995376545,0.981627183447664));
#346=DIRECTION('',(0.,0.,1.));
#347=DIRECTION('',(1.,0.,0.));
#348=DIRECTION('',(0.190808995376545,-6.70572663733367E-16,0.981627183447664));
#349=DIRECTION('',(0.,0.,1.));
#350=DIRECTION('',(-3.73596800186319E-15,-1.,2.67731358748034E-17));
#351=DIRECTION('',(1.,-1.17145536458252E-15,0.));
#352=DIRECTION('',(-1.,1.17145536458252E-15,0.));
#353=DIRECTION('',(-1.1499324300698E-15,-0.981627183447664,-0.190808995376545));
#354=DIRECTION('',(-2.22044604925031E-16,-0.190808995376545,0.981627183447664));
#355=DIRECTION('',(2.34291072916505E-15,1.,0.));
#356=DIRECTION('',(-2.34291072916505E-15,-1.,0.));
#357=DIRECTION('',(0.981627183447664,-2.2998648601396E-15,-0.190808995376545));
#358=DIRECTION('',(0.190808995376545,-4.47558656802016E-16,0.981627183447664));
#359=DIRECTION('',(-1.,-2.22044604925031E-16,0.));
#360=DIRECTION('',(1.,2.22044604925031E-16,0.));
#361=DIRECTION('',(-2.17965020132308E-16,0.981627183447664,-0.190808995376545));
#362=DIRECTION('',(-4.16333634234434E-17,0.190808995376545,0.981627183447664));
#363=DIRECTION('',(0.,-1.,0.));
#364=DIRECTION('',(0.,1.,0.));
#365=DIRECTION('',(-0.981627183447664,0.,-0.190808995376545));
#366=DIRECTION('',(-0.190808995376545,0.,0.981627183447664));
#367=DIRECTION('',(0.,0.,1.));
#368=DIRECTION('',(1.,0.,0.));
#369=DIRECTION('',(0.,0.,1.));
#370=DIRECTION('',(1.,0.,0.));
#371=DIRECTION('',(0.,0.,-1.));
#372=DIRECTION('',(1.,0.,0.));
#373=DIRECTION('',(0.,0.,1.));
#374=DIRECTION('',(-1.,0.,0.));
#375=DIRECTION('',(0.,0.,-1.));
#376=DIRECTION('',(1.,0.,0.));
#377=DIRECTION('',(0.,0.,1.));
#378=DIRECTION('',(1.,0.,6.55056700043389E-16));
#379=DIRECTION('',(0.,0.,-1.));
#380=DIRECTION('',(1.,0.,0.));
#381=DIRECTION('',(0.,0.,1.));
#382=DIRECTION('',(1.,0.,0.));
#383=DIRECTION('',(0.,0.,-1.));
#384=DIRECTION('',(1.,0.,0.));
#385=DIRECTION('',(0.,0.,1.));
#386=DIRECTION('',(1.,0.,0.));
#387=DIRECTION('',(0.,0.,1.));
#388=DIRECTION('',(1.,0.,0.));
#389=CARTESIAN_POINT('',(0.,0.,0.));
#390=CARTESIAN_POINT('PCS',(-2.5,2.5,0.));
#391=CARTESIAN_POINT('MCS',(0.,0.,0.));
#392=CARTESIAN_POINT('',(2.50000000000001,1.39343611390174,0.));
#393=CARTESIAN_POINT('',(2.5,0.926255544754476,0.));
#394=CARTESIAN_POINT('',(2.50001617522356,0.17876664776882,0.));
#395=CARTESIAN_POINT('',(2.49996372771293,-0.615440366354005,0.));
#396=CARTESIAN_POINT('',(2.50025418574952,-1.08262085025426,0.));
#397=CARTESIAN_POINT('',(2.50029318672834,-1.18773601318552,0.));
#398=CARTESIAN_POINT('',(2.5004511596875,-1.25781392977129,0.));
#399=CARTESIAN_POINT('',(2.50031428092551,-1.30453185387728,0.));
#400=CARTESIAN_POINT('',(2.4987698783639,-1.36292237647385,0.));
#401=CARTESIAN_POINT('',(2.49319057662704,-1.43280900325283,0.));
#402=CARTESIAN_POINT('',(2.48032411309993,-1.52538826371078,0.));
#403=CARTESIAN_POINT('',(2.45385532301746,-1.63935617082121,0.));
#404=CARTESIAN_POINT('',(2.39066350963474,-1.81556028269722,0.));
#405=CARTESIAN_POINT('',(2.27388528301153,-2.0197055428718,0.));
#406=CARTESIAN_POINT('',(2.0808428285299,-2.22558676852105,0.));
#407=CARTESIAN_POINT('',(1.84538619246113,-2.3812100310731,0.));
#408=CARTESIAN_POINT('',(1.62449164259905,-2.46186367422235,0.));
#409=CARTESIAN_POINT('',(1.46319784647115,-2.49053847612543,0.));
#410=CARTESIAN_POINT('',(1.37007343602937,-2.49838558119899,0.));
#411=CARTESIAN_POINT('',(1.29999749149699,-2.50057129881369,0.));
#412=CARTESIAN_POINT('',(1.22992012386249,-2.50015122342478,0.));
#413=CARTESIAN_POINT('',(1.13648476850542,-2.50014958089681,0.));
#414=CARTESIAN_POINT('',(0.972971202674539,-2.49999864311983,0.));
#415=CARTESIAN_POINT('',(0.64594506142522,-2.50000158670945,0.));
#416=CARTESIAN_POINT('',(-0.00810789999068573,-2.50000702974245,0.));
#417=CARTESIAN_POINT('',(-0.615442608340931,-2.499963603586,0.));
#418=CARTESIAN_POINT('',(-1.08262309495546,-2.50025418734857,0.));
#419=CARTESIAN_POINT('',(-1.18773825783526,-2.50029319101412,0.));
#420=CARTESIAN_POINT('',(-1.2578161745232,-2.50045115950327,0.));
#421=CARTESIAN_POINT('',(-1.30453409848195,-2.50031425615836,0.));
#422=CARTESIAN_POINT('',(-1.36292461957485,-2.49876976539125,0.));
#423=CARTESIAN_POINT('',(-1.43281123583754,-2.49319033373859,0.));
#424=CARTESIAN_POINT('',(-1.52539047144843,-2.48032368955883,0.));
#425=CARTESIAN_POINT('',(-1.63935832900312,-2.45385468699917,0.));
#426=CARTESIAN_POINT('',(-1.81556232297403,-2.39066254589362,0.));
#427=CARTESIAN_POINT('',(-2.01970736444334,-2.27388393634116,0.));
#428=CARTESIAN_POINT('',(-2.22558822917482,-2.08084109713406,0.));
#429=CARTESIAN_POINT('',(-2.38121105052962,-1.84538416987426,0.));
#430=CARTESIAN_POINT('',(-2.46186428380791,-1.62448946967996,0.));
#431=CARTESIAN_POINT('',(-2.4905387774788,-1.46319561877487,0.));
#432=CARTESIAN_POINT('',(-2.49838571016546,-1.37007119421919,0.));
#433=CARTESIAN_POINT('',(-2.50022888299553,-1.31167397260448,0.));
#434=CARTESIAN_POINT('',(-2.5003284944415,-1.26495745904273,0.));
#435=CARTESIAN_POINT('',(-2.5001510173731,-1.21823844622698,0.));
#436=CARTESIAN_POINT('',(-2.5001495781781,-1.13648254464251,0.));
#437=CARTESIAN_POINT('',(-2.49999864312888,-0.972968944080605,0.));
#438=CARTESIAN_POINT('',(-2.50000158663147,-0.645942825984903,0.));
#439=CARTESIAN_POINT('',(-2.50000702973141,0.00811015086669892,0.));
#440=CARTESIAN_POINT('',(-2.49996360387356,0.615444852785663,0.));
#441=CARTESIAN_POINT('',(-2.50025418894763,1.08262533965667,0.));
#442=CARTESIAN_POINT('',(-2.50029319529668,1.18774050286975,0.));
#443=CARTESIAN_POINT('',(-2.50045115932227,1.25781841889036,0.));
#444=CARTESIAN_POINT('',(-2.50031423140103,1.30453634183614,0.));
#445=CARTESIAN_POINT('',(-2.49876965241298,1.36292686286806,0.));
#446=CARTESIAN_POINT('',(-2.49319009084335,1.43281346867831,0.));
#447=CARTESIAN_POINT('',(-2.48032326601482,1.52539267905702,0.));
#448=CARTESIAN_POINT('',(-2.45385405097689,1.63936048718384,0.));
#449=CARTESIAN_POINT('',(-2.39066158214864,1.81556436324904,0.));
#450=CARTESIAN_POINT('',(-2.27388258966741,2.01970918601238,0.));
#451=CARTESIAN_POINT('',(-2.08083936573549,2.22558968982535,0.));
#452=CARTESIAN_POINT('',(-1.84538214728547,2.38121206998252,0.));
#453=CARTESIAN_POINT('',(-1.62448729675975,2.46186489338896,0.));
#454=CARTESIAN_POINT('',(-1.463193391078,2.49053907882873,0.));
#455=CARTESIAN_POINT('',(-1.37006895240878,2.49838583912628,0.));
#456=CARTESIAN_POINT('',(-1.29999300666763,2.50057130678734,0.));
#457=CARTESIAN_POINT('',(-1.22991561192924,2.50015122253667,0.));
#458=CARTESIAN_POINT('',(-1.13648031721604,2.50014957545408,0.));
#459=CARTESIAN_POINT('',(-0.972966687862385,2.4999986431415,0.));
#460=CARTESIAN_POINT('',(-0.645940588960795,2.50000158655112,0.));
#461=CARTESIAN_POINT('',(0.00811240068683738,2.50000702972194,0.));
#462=CARTESIAN_POINT('',(0.615447097274374,2.49996360416105,0.));
#463=CARTESIAN_POINT('',(1.08262758435787,2.50025419054669,0.));
#464=CARTESIAN_POINT('',(1.18774274685083,2.50029319959086,0.));
#465=CARTESIAN_POINT('',(1.25782066431092,2.50045115912965,0.));
#466=CARTESIAN_POINT('',(1.30453858861385,2.50031420660526,0.));
#467=CARTESIAN_POINT('',(1.3629291056344,2.49876953943652,0.));
#468=CARTESIAN_POINT('',(1.43281570081634,2.49318984795121,0.));
#469=CARTESIAN_POINT('',(1.52539488701592,2.48032284246294,0.));
#470=CARTESIAN_POINT('',(1.63936264536337,2.45385341495062,0.));
#471=CARTESIAN_POINT('',(1.81556640352223,2.3906606183998,0.));
#472=CARTESIAN_POINT('',(2.01971100757888,2.27388124299027,0.));
#473=CARTESIAN_POINT('',(2.22559115047265,2.08083763433418,0.));
#474=CARTESIAN_POINT('',(2.38119296534908,1.84538081534978,0.));
#475=CARTESIAN_POINT('',(2.47807125387544,1.58030340922661,0.));
#476=CARTESIAN_POINT('',(2.50000000000001,1.39343611390174,0.));
#477=CARTESIAN_POINT('',(2.5,0.926255544754476,0.));
#478=CARTESIAN_POINT('',(-2.5,2.5,0.));
#479=CARTESIAN_POINT('',(0.,0.,0.));
#480=CARTESIAN_POINT('',(-1.3,1.3,-2.465));
#481=CARTESIAN_POINT('',(-1.3,2.02085253797552,-2.465));
#482=CARTESIAN_POINT('',(-2.02085253797552,1.3,-2.465));
#483=CARTESIAN_POINT('',(-1.3,1.3,-6.17346481916437));
#484=CARTESIAN_POINT('',(-2.5,1.3,0.));
#485=CARTESIAN_POINT('',(-1.3,1.3,0.));
#486=CARTESIAN_POINT('',(-1.3,2.5,0.));
#487=CARTESIAN_POINT('',(-1.3,1.3,-6.17346481916437));
#488=CARTESIAN_POINT('',(-1.3,1.3,-6.17346481916437));
#489=CARTESIAN_POINT('',(-1.3,-1.3,-2.465));
#490=CARTESIAN_POINT('',(-2.02085253797552,-1.3,-2.465));
#491=CARTESIAN_POINT('',(-1.3,-2.02085253797552,-2.465));
#492=CARTESIAN_POINT('',(-1.3,-1.3,-6.17346481916437));
#493=CARTESIAN_POINT('',(-1.3,-2.5,0.));
#494=CARTESIAN_POINT('',(-1.3,-1.3,0.));
#495=CARTESIAN_POINT('',(-2.5,-1.3,0.));
#496=CARTESIAN_POINT('',(-1.3,-1.3,-6.17346481916437));
#497=CARTESIAN_POINT('',(-1.3,-1.3,-6.17346481916437));
#498=CARTESIAN_POINT('',(1.3,-1.3,-2.465));
#499=CARTESIAN_POINT('',(1.3,-2.02085253797553,-2.465));
#500=CARTESIAN_POINT('',(2.02085253797552,-1.3,-2.465));
#501=CARTESIAN_POINT('',(1.3,-1.3,-6.17346481916437));
#502=CARTESIAN_POINT('',(2.5,-1.30000000000001,0.));
#503=CARTESIAN_POINT('',(1.3,-1.3,0.));
#504=CARTESIAN_POINT('',(1.3,-2.50000000000001,0.));
#505=CARTESIAN_POINT('',(1.3,-1.3,-6.17346481916437));
#506=CARTESIAN_POINT('',(1.3,-1.3,-6.17346481916437));
#507=CARTESIAN_POINT('',(1.3,1.3,-2.465));
#508=CARTESIAN_POINT('',(2.02085253797553,1.29999999999999,-2.465));
#509=CARTESIAN_POINT('',(1.30000000000001,2.02085253797552,-2.465));
#510=CARTESIAN_POINT('',(1.3,1.3,-6.17346481916437));
#511=CARTESIAN_POINT('',(1.30000000000001,2.5,0.));
#512=CARTESIAN_POINT('',(1.3,1.3,0.));
#513=CARTESIAN_POINT('',(2.50000000000001,1.29999999999999,0.));
#514=CARTESIAN_POINT('',(1.3,1.3,-6.17346481916437));
#515=CARTESIAN_POINT('',(1.3,1.3,-6.17346481916437));
#516=CARTESIAN_POINT('',(-2.36733854664164E-15,-2.02085253797552,-2.465));
#517=CARTESIAN_POINT('',(16.,-2.50000000000002,0.));
#518=CARTESIAN_POINT('',(16.,-2.50000000000002,0.));
#519=CARTESIAN_POINT('',(2.02085253797552,-4.73467709328327E-15,-2.465));
#520=CARTESIAN_POINT('',(2.50000000000004,16.,0.));
#521=CARTESIAN_POINT('',(2.50000000000004,16.,0.));
#522=CARTESIAN_POINT('',(-4.48719403406522E-16,2.02085253797552,-2.465));
#523=CARTESIAN_POINT('',(16.,2.5,0.));
#524=CARTESIAN_POINT('',(16.,2.5,0.));
#525=CARTESIAN_POINT('',(-2.02085253797552,0.,-2.465));
#526=CARTESIAN_POINT('',(-2.5,-16.,0.));
#527=CARTESIAN_POINT('',(-2.5,-16.,0.));
#528=CARTESIAN_POINT('',(0.,0.,0.));
#529=CARTESIAN_POINT('',(1.44894876836046,0.,0.));
#530=CARTESIAN_POINT('',(-1.3,-1.3,0.));
#531=CARTESIAN_POINT('',(0.,0.,-2.465));
#532=CARTESIAN_POINT('',(1.1,0.,-2.465));
#533=CARTESIAN_POINT('',(0.,0.,-2.465));
#534=CARTESIAN_POINT('',(0.,0.,-0.568847437120537));
#535=CARTESIAN_POINT('',(1.40917108060038,0.,-0.568847437120537));
#536=CARTESIAN_POINT('',(0.,0.,-0.568847437120537));
#537=CARTESIAN_POINT('',(0.,0.,-1.63273790530889));
#538=CARTESIAN_POINT('',(1.09999999999999,0.,-1.63273790530889));
#539=CARTESIAN_POINT('',(0.,0.,-2.475));
#540=CARTESIAN_POINT('',(0.,0.,-0.79558079669143));
#541=CARTESIAN_POINT('',(1.33648689940607,0.,-0.79558079669143));
#542=CARTESIAN_POINT('',(0.,0.,-0.533969200248473));
#543=CARTESIAN_POINT('',(0.,0.,-1.63273790530889));
#544=MECHANICAL_DESIGN_GEOMETRIC_PRESENTATION_REPRESENTATION('',(#265,#266,
#267,#268,#269,#270),#545);
#545=(
GEOMETRIC_REPRESENTATION_CONTEXT(3)
GLOBAL_UNCERTAINTY_ASSIGNED_CONTEXT((#546))
GLOBAL_UNIT_ASSIGNED_CONTEXT((#552,#548,#547))
REPRESENTATION_CONTEXT('aaa341561_a','TOP_LEVEL_ASSEMBLY_PART')
);
#546=UNCERTAINTY_MEASURE_WITH_UNIT(LENGTH_MEASURE(0.000200000000000867),
#552,'DISTANCE_ACCURACY_VALUE','Maximum Tolerance applied to model');
#547=(
NAMED_UNIT(*)
SI_UNIT($,.STERADIAN.)
SOLID_ANGLE_UNIT()
);
#548=(
CONVERSION_BASED_UNIT('DEGREE',#550)
NAMED_UNIT(#549)
PLANE_ANGLE_UNIT()
);
#549=DIMENSIONAL_EXPONENTS(0.,0.,0.,0.,0.,0.,0.);
#550=PLANE_ANGLE_MEASURE_WITH_UNIT(PLANE_ANGLE_MEASURE(0.0174532925),#551);
#551=(
NAMED_UNIT(*)
PLANE_ANGLE_UNIT()
SI_UNIT($,.RADIAN.)
);
#552=(
LENGTH_UNIT()
NAMED_UNIT(*)
SI_UNIT(.MILLI.,.METRE.)
);
ENDSEC;
END-ISO-10303-21;
