ISO-10303-21;
HEADER;
/* Generated by software containing ST-Developer
 * from STEP Tools, Inc. (www.steptools.com) 
 */
/* OPTION: using custom schema-name function */

FILE_DESCRIPTION(
/* description */ (''),
/* implementation_level */ '2;1');

FILE_NAME(
/* name */ 'aaa339399_a.stp',
/* time_stamp */ '2019-09-25T15:24:01+02:00',
/* author */ (''),
/* organization */ ('SMS'),
/* preprocessor_version */ 'ST-DEVELOPER v16.7',
/* originating_system */ 'SIEMENS PLM Software NX 12.0',
/* authorisation */ '');

FILE_SCHEMA (('AUTOMOTIVE_DESIGN { 1 0 10303 214 3 1 1 1 }'));
ENDSEC;

DATA;
#10=CONSTRUCTIVE_GEOMETRY_REPRESENTATION_RELATIONSHIP(
'supplemental geometry','',#26,#11);
#11=CONSTRUCTIVE_GEOMETRY_REPRESENTATION('supplemental geometry',(#231,
#232),#431);
#12=GEOMETRICALLY_BOUNDED_WIREFRAME_SHAPE_REPRESENTATION(
'AAA339399_A-None',(#27),#431);
#13=SHAPE_REPRESENTATION_RELATIONSHIP('None',
'relationship between AAA339399_A-None and AAA339399_A-None',#26,#15);
#14=SHAPE_REPRESENTATION_RELATIONSHIP('None',
'relationship between AAA339399_A-None and AAA339399_A-None',#26,#12);
#15=ADVANCED_BREP_SHAPE_REPRESENTATION('AAA339399_A-None',(#33),#431);
#16=SHAPE_DEFINITION_REPRESENTATION(#17,#26);
#17=PRODUCT_DEFINITION_SHAPE('','',#18);
#18=PRODUCT_DEFINITION(' ','',#20,#19);
#19=PRODUCT_DEFINITION_CONTEXT('part definition',#25,'design');
#20=PRODUCT_DEFINITION_FORMATION_WITH_SPECIFIED_SOURCE(' ',' ',#22,
 .NOT_KNOWN.);
#21=PRODUCT_RELATED_PRODUCT_CATEGORY('part','',(#22));
#22=PRODUCT('AAA339399_A','AAA339399_A','MASTER_INSERT',(#23));
#23=PRODUCT_CONTEXT(' ',#25,'mechanical');
#24=APPLICATION_PROTOCOL_DEFINITION('international standard',
'automotive_design',2010,#25);
#25=APPLICATION_CONTEXT(
'core data for automotive mechanical design processes');
#26=SHAPE_REPRESENTATION('AAA339399_A-None',(#230),#431);
#27=GEOMETRIC_CURVE_SET('None',(#310,#311,#210));
#28=SURFACE_STYLE_USAGE(.BOTH.,#29);
#29=SURFACE_SIDE_STYLE('',(#30));
#30=SURFACE_STYLE_FILL_AREA(#31);
#31=FILL_AREA_STYLE('',(#32));
#32=FILL_AREA_STYLE_COLOUR('',#229);
#33=MANIFOLD_SOLID_BREP('CUT',#34);
#34=CLOSED_SHELL('',(#47,#48,#49,#50,#51,#52,#53,#54,#55,#56));
#35=CYLINDRICAL_SURFACE('',#249,0.4);
#36=CYLINDRICAL_SURFACE('',#250,0.4);
#37=ELLIPSE('',#243,0.403301338160768,0.4);
#38=ELLIPSE('',#244,0.403301338160768,0.4);
#39=ELLIPSE('',#246,0.403301338160768,0.4);
#40=ELLIPSE('',#247,0.403301338160768,0.4);
#41=CONICAL_SURFACE('',#237,1.191,6.99999999999999);
#42=CONICAL_SURFACE('',#242,1.191,6.99999999999999);
#43=CIRCLE('',#235,1.191);
#44=CIRCLE('',#236,0.606545490102175);
#45=CIRCLE('',#240,1.191);
#46=CIRCLE('',#241,0.606545490102175);
#47=ADVANCED_FACE('',(#63),#57,.F.);
#48=ADVANCED_FACE('',(#64),#58,.F.);
#49=ADVANCED_FACE('',(#65),#41,.T.);
#50=ADVANCED_FACE('',(#66),#59,.F.);
#51=ADVANCED_FACE('',(#67),#60,.F.);
#52=ADVANCED_FACE('',(#68),#42,.T.);
#53=ADVANCED_FACE('',(#69),#61,.T.);
#54=ADVANCED_FACE('',(#70),#62,.F.);
#55=ADVANCED_FACE('',(#71),#35,.T.);
#56=ADVANCED_FACE('',(#72),#36,.T.);
#57=PLANE('',#233);
#58=PLANE('',#234);
#59=PLANE('',#238);
#60=PLANE('',#239);
#61=PLANE('',#245);
#62=PLANE('',#248);
#63=FACE_OUTER_BOUND('',#73,.T.);
#64=FACE_OUTER_BOUND('',#74,.T.);
#65=FACE_OUTER_BOUND('',#75,.T.);
#66=FACE_OUTER_BOUND('',#76,.T.);
#67=FACE_OUTER_BOUND('',#77,.T.);
#68=FACE_OUTER_BOUND('',#78,.T.);
#69=FACE_OUTER_BOUND('',#79,.T.);
#70=FACE_OUTER_BOUND('',#80,.T.);
#71=FACE_OUTER_BOUND('',#81,.T.);
#72=FACE_OUTER_BOUND('',#82,.T.);
#73=EDGE_LOOP('',(#83,#84,#85,#86));
#74=EDGE_LOOP('',(#87,#88,#89,#90));
#75=EDGE_LOOP('',(#91,#92,#93,#94));
#76=EDGE_LOOP('',(#95,#96,#97,#98));
#77=EDGE_LOOP('',(#99,#100,#101,#102));
#78=EDGE_LOOP('',(#103,#104,#105,#106));
#79=EDGE_LOOP('',(#107,#108,#109,#110,#111,#112,#113,#114));
#80=EDGE_LOOP('',(#115,#116,#117,#118,#119,#120,#121,#122));
#81=EDGE_LOOP('',(#123,#124,#125,#126));
#82=EDGE_LOOP('',(#127,#128,#129,#130));
#83=ORIENTED_EDGE('',*,*,#147,.T.);
#84=ORIENTED_EDGE('',*,*,#148,.T.);
#85=ORIENTED_EDGE('',*,*,#149,.F.);
#86=ORIENTED_EDGE('',*,*,#150,.T.);
#87=ORIENTED_EDGE('',*,*,#151,.F.);
#88=ORIENTED_EDGE('',*,*,#152,.T.);
#89=ORIENTED_EDGE('',*,*,#153,.T.);
#90=ORIENTED_EDGE('',*,*,#154,.F.);
#91=ORIENTED_EDGE('',*,*,#155,.T.);
#92=ORIENTED_EDGE('',*,*,#156,.F.);
#93=ORIENTED_EDGE('',*,*,#157,.F.);
#94=ORIENTED_EDGE('',*,*,#154,.T.);
#95=ORIENTED_EDGE('',*,*,#158,.T.);
#96=ORIENTED_EDGE('',*,*,#159,.T.);
#97=ORIENTED_EDGE('',*,*,#160,.F.);
#98=ORIENTED_EDGE('',*,*,#156,.T.);
#99=ORIENTED_EDGE('',*,*,#161,.F.);
#100=ORIENTED_EDGE('',*,*,#162,.T.);
#101=ORIENTED_EDGE('',*,*,#163,.T.);
#102=ORIENTED_EDGE('',*,*,#164,.F.);
#103=ORIENTED_EDGE('',*,*,#165,.T.);
#104=ORIENTED_EDGE('',*,*,#150,.F.);
#105=ORIENTED_EDGE('',*,*,#166,.F.);
#106=ORIENTED_EDGE('',*,*,#164,.T.);
#107=ORIENTED_EDGE('',*,*,#149,.T.);
#108=ORIENTED_EDGE('',*,*,#167,.T.);
#109=ORIENTED_EDGE('',*,*,#151,.T.);
#110=ORIENTED_EDGE('',*,*,#157,.T.);
#111=ORIENTED_EDGE('',*,*,#160,.T.);
#112=ORIENTED_EDGE('',*,*,#168,.T.);
#113=ORIENTED_EDGE('',*,*,#161,.T.);
#114=ORIENTED_EDGE('',*,*,#166,.T.);
#115=ORIENTED_EDGE('',*,*,#153,.F.);
#116=ORIENTED_EDGE('',*,*,#169,.T.);
#117=ORIENTED_EDGE('',*,*,#147,.F.);
#118=ORIENTED_EDGE('',*,*,#165,.F.);
#119=ORIENTED_EDGE('',*,*,#163,.F.);
#120=ORIENTED_EDGE('',*,*,#170,.T.);
#121=ORIENTED_EDGE('',*,*,#158,.F.);
#122=ORIENTED_EDGE('',*,*,#155,.F.);
#123=ORIENTED_EDGE('',*,*,#167,.F.);
#124=ORIENTED_EDGE('',*,*,#148,.F.);
#125=ORIENTED_EDGE('',*,*,#169,.F.);
#126=ORIENTED_EDGE('',*,*,#152,.F.);
#127=ORIENTED_EDGE('',*,*,#168,.F.);
#128=ORIENTED_EDGE('',*,*,#159,.F.);
#129=ORIENTED_EDGE('',*,*,#170,.F.);
#130=ORIENTED_EDGE('',*,*,#162,.F.);
#131=VERTEX_POINT('',#381);
#132=VERTEX_POINT('',#382);
#133=VERTEX_POINT('',#384);
#134=VERTEX_POINT('',#386);
#135=VERTEX_POINT('',#390);
#136=VERTEX_POINT('',#391);
#137=VERTEX_POINT('',#393);
#138=VERTEX_POINT('',#395);
#139=VERTEX_POINT('',#399);
#140=VERTEX_POINT('',#401);
#141=VERTEX_POINT('',#405);
#142=VERTEX_POINT('',#407);
#143=VERTEX_POINT('',#411);
#144=VERTEX_POINT('',#412);
#145=VERTEX_POINT('',#414);
#146=VERTEX_POINT('',#416);
#147=EDGE_CURVE('',#131,#132,#171,.T.);
#148=EDGE_CURVE('',#132,#133,#172,.T.);
#149=EDGE_CURVE('',#134,#133,#173,.T.);
#150=EDGE_CURVE('',#134,#131,#174,.T.);
#151=EDGE_CURVE('',#135,#136,#175,.T.);
#152=EDGE_CURVE('',#135,#137,#176,.T.);
#153=EDGE_CURVE('',#137,#138,#177,.T.);
#154=EDGE_CURVE('',#136,#138,#178,.T.);
#155=EDGE_CURVE('',#138,#139,#43,.T.);
#156=EDGE_CURVE('',#140,#139,#179,.T.);
#157=EDGE_CURVE('',#136,#140,#44,.T.);
#158=EDGE_CURVE('',#139,#141,#180,.T.);
#159=EDGE_CURVE('',#141,#142,#181,.T.);
#160=EDGE_CURVE('',#140,#142,#182,.T.);
#161=EDGE_CURVE('',#143,#144,#183,.T.);
#162=EDGE_CURVE('',#143,#145,#184,.T.);
#163=EDGE_CURVE('',#145,#146,#185,.T.);
#164=EDGE_CURVE('',#144,#146,#186,.T.);
#165=EDGE_CURVE('',#146,#131,#45,.T.);
#166=EDGE_CURVE('',#144,#134,#46,.T.);
#167=EDGE_CURVE('',#133,#135,#37,.T.);
#168=EDGE_CURVE('',#142,#143,#38,.T.);
#169=EDGE_CURVE('',#137,#132,#39,.T.);
#170=EDGE_CURVE('',#145,#141,#40,.T.);
#171=LINE('',#380,#187);
#172=LINE('',#383,#188);
#173=LINE('',#385,#189);
#174=LINE('',#387,#190);
#175=LINE('',#389,#191);
#176=LINE('',#392,#192);
#177=LINE('',#394,#193);
#178=LINE('',#396,#194);
#179=LINE('',#400,#195);
#180=LINE('',#404,#196);
#181=LINE('',#406,#197);
#182=LINE('',#408,#198);
#183=LINE('',#410,#199);
#184=LINE('',#413,#200);
#185=LINE('',#415,#201);
#186=LINE('',#417,#202);
#187=VECTOR('',#257,1.);
#188=VECTOR('',#258,1.);
#189=VECTOR('',#259,1.);
#190=VECTOR('',#260,1.);
#191=VECTOR('',#263,1.);
#192=VECTOR('',#264,1.);
#193=VECTOR('',#265,1.);
#194=VECTOR('',#266,1.);
#195=VECTOR('',#271,1.);
#196=VECTOR('',#276,1.);
#197=VECTOR('',#277,1.);
#198=VECTOR('',#278,1.);
#199=VECTOR('',#281,1.);
#200=VECTOR('',#282,1.);
#201=VECTOR('',#283,1.);
#202=VECTOR('',#284,1.);
#203=CURVE_STYLE('',#207,POSITIVE_LENGTH_MEASURE(0.18),#206);
#204=CURVE_STYLE('',#208,POSITIVE_LENGTH_MEASURE(0.18),#228);
#205=CURVE_STYLE('',#209,POSITIVE_LENGTH_MEASURE(0.18),#228);
#206=DRAUGHTING_PRE_DEFINED_COLOUR('blue');
#207=DRAUGHTING_PRE_DEFINED_CURVE_FONT('continuous');
#208=DRAUGHTING_PRE_DEFINED_CURVE_FONT('continuous');
#209=DRAUGHTING_PRE_DEFINED_CURVE_FONT('continuous');
#210=B_SPLINE_CURVE_WITH_KNOTS('CUTTING EDGE LINE',3,(#312,#313,#314,#315,
#316,#317,#318,#319,#320,#321,#322,#323,#324,#325,#326,#327,#328,#329,#330,
#331,#332,#333,#334,#335,#336,#337,#338,#339,#340,#341,#342,#343,#344,#345,
#346,#347,#348,#349,#350,#351,#352,#353,#354,#355,#356,#357,#358,#359,#360,
#361,#362,#363,#364,#365,#366,#367,#368,#369,#370,#371,#372,#373,#374,#375,
#376,#377),.UNSPECIFIED.,.T.,.F.,(1,1,2,1,1,1,1,1,1,1,1,1,1,1,1,1,1,1,1,
1,1,1,1,1,1,1,1,1,1,1,1,1,1,1,1,1,1,1,1,1,1,1,1,1,1,1,1,1,1,1,1,1,1,1,1,
1,1,1,1,1,1,1,1,1,1,2,1,1),(-0.00317286644999992,-0.00211524429999999,0.,
0.11079837895,0.220211778163125,0.220904268031563,0.2215967579,0.221904820373633,
0.223239757759375,0.22488275761875,0.2281687573375,0.234740756775,0.2413127562125,
0.24788475565,0.2544567550875,0.261028754525,0.2676007539625,0.27088675368125,
0.272529753540625,0.273864690926367,0.2741727534,0.27486524326875,0.2755577331375,
0.3849711324,0.4403703219,0.49507702153125,0.495423266465625,0.4957695114,
0.496298322475,0.49682713355,0.4978847557,0.49894237785,0.499471188925,
0.5,0.500276995947375,0.50055399189475,0.61079837895,0.666197568425,0.719865533228906,
0.720731145564453,0.7215967579,0.722007507864844,0.723239757759375,0.72488275761875,
0.7281687573375,0.734740756775,0.7413127562125,0.74788475565,0.7544567550875,
0.761028754525,0.7676007539625,0.77088675368125,0.772529753540625,0.773864690926367,
0.7741727534,0.77486524326875,0.7755577331375,0.8849711324,0.9403703219,
0.99507702153125,0.995423266465625,0.9957695114,0.996298322475,0.99682713355,
0.9978847557,1.,1.11079837895,1.22021177816312),.UNSPECIFIED.);
#211=PRESENTATION_LAYER_ASSIGNMENT('1','Layer 1',(#310,#311,#210,#231,#232,
#33));
#212=STYLED_ITEM('',(#218),#310);
#213=STYLED_ITEM('',(#219),#311);
#214=STYLED_ITEM('',(#220),#210);
#215=STYLED_ITEM('',(#221),#231);
#216=STYLED_ITEM('',(#222),#232);
#217=STYLED_ITEM('',(#223),#33);
#218=PRESENTATION_STYLE_ASSIGNMENT((#224));
#219=PRESENTATION_STYLE_ASSIGNMENT((#225));
#220=PRESENTATION_STYLE_ASSIGNMENT((#203));
#221=PRESENTATION_STYLE_ASSIGNMENT((#204));
#222=PRESENTATION_STYLE_ASSIGNMENT((#205));
#223=PRESENTATION_STYLE_ASSIGNMENT((#28));
#224=POINT_STYLE('',#226,POSITIVE_LENGTH_MEASURE(3.),#228);
#225=POINT_STYLE('',#227,POSITIVE_LENGTH_MEASURE(3.),#228);
#226=PRE_DEFINED_POINT_MARKER_SYMBOL('plus');
#227=PRE_DEFINED_POINT_MARKER_SYMBOL('plus');
#228=COLOUR_RGB('Medium Maroon',0.6,0.4,0.4);
#229=COLOUR_RGB('Light Gray',0.8,0.8,0.8);
#230=AXIS2_PLACEMENT_3D('',#309,#251,#252);
#231=AXIS2_PLACEMENT_3D('MCS',#378,#253,#254);
#232=AXIS2_PLACEMENT_3D('PCS',#379,#255,#256);
#233=AXIS2_PLACEMENT_3D('',#388,#261,#262);
#234=AXIS2_PLACEMENT_3D('',#397,#267,#268);
#235=AXIS2_PLACEMENT_3D('',#398,#269,#270);
#236=AXIS2_PLACEMENT_3D('',#402,#272,#273);
#237=AXIS2_PLACEMENT_3D('',#403,#274,#275);
#238=AXIS2_PLACEMENT_3D('',#409,#279,#280);
#239=AXIS2_PLACEMENT_3D('',#418,#285,#286);
#240=AXIS2_PLACEMENT_3D('',#419,#287,#288);
#241=AXIS2_PLACEMENT_3D('',#420,#289,#290);
#242=AXIS2_PLACEMENT_3D('',#421,#291,#292);
#243=AXIS2_PLACEMENT_3D('',#422,#293,#294);
#244=AXIS2_PLACEMENT_3D('',#423,#295,#296);
#245=AXIS2_PLACEMENT_3D('',#424,#297,#298);
#246=AXIS2_PLACEMENT_3D('',#425,#299,#300);
#247=AXIS2_PLACEMENT_3D('',#426,#301,#302);
#248=AXIS2_PLACEMENT_3D('',#427,#303,#304);
#249=AXIS2_PLACEMENT_3D('',#428,#305,#306);
#250=AXIS2_PLACEMENT_3D('',#429,#307,#308);
#251=DIRECTION('',(0.,0.,1.));
#252=DIRECTION('',(1.,0.,0.));
#253=DIRECTION('',(0.,0.,1.));
#254=DIRECTION('',(0.,-1.,0.));
#255=DIRECTION('',(0.,0.,1.));
#256=DIRECTION('',(0.,-1.,0.));
#257=DIRECTION('',(0.573576436351046,-0.819152044288992,0.));
#258=DIRECTION('',(-0.121779472850605,-0.0383969203001167,-0.991814214711453));
#259=DIRECTION('',(0.573576436351046,-0.819152044288992,0.));
#260=DIRECTION('',(0.0998295217864837,0.0699013836907662,0.992546151641322));
#261=DIRECTION('',(-0.813046209168161,-0.569301084572374,0.121869343405147));
#262=DIRECTION('',(0.573576436351046,-0.819152044288992,0.));
#263=DIRECTION('',(-1.35219323909832E-16,-1.,0.));
#264=DIRECTION('',(0.121779472850605,0.0383969203001167,0.991814214711453));
#265=DIRECTION('',(-1.35219323909832E-16,-1.,0.));
#266=DIRECTION('',(0.121869343405147,0.,0.992546151641322));
#267=DIRECTION('',(-0.992546151641322,1.34211419574245E-16,0.121869343405147));
#268=DIRECTION('',(0.121869343405147,0.,0.992546151641322));
#269=DIRECTION('',(0.,0.,-1.));
#270=DIRECTION('',(3.64131712001849E-16,-1.,0.));
#271=DIRECTION('',(-0.0998295217864836,-0.0699013836907663,0.992546151641322));
#272=DIRECTION('',(0.,0.,-1.));
#273=DIRECTION('',(-1.,0.,0.));
#274=DIRECTION('',(0.,0.,1.));
#275=DIRECTION('',(1.8540013765047E-16,-1.,0.));
#276=DIRECTION('',(-0.573576436351046,0.819152044288992,0.));
#277=DIRECTION('',(0.121779472850605,0.0383969203001167,-0.991814214711453));
#278=DIRECTION('',(-0.573576436351046,0.819152044288992,0.));
#279=DIRECTION('',(0.813046209168161,0.569301084572374,0.121869343405147));
#280=DIRECTION('',(-0.573576436351046,0.819152044288992,0.));
#281=DIRECTION('',(1.35219323909832E-16,1.,0.));
#282=DIRECTION('',(-0.121779472850605,-0.0383969203001167,0.991814214711453));
#283=DIRECTION('',(1.35219323909832E-16,1.,0.));
#284=DIRECTION('',(-0.121869343405147,0.,0.992546151641322));
#285=DIRECTION('',(0.992546151641322,-1.34211419574245E-16,0.121869343405147));
#286=DIRECTION('',(0.121869343405147,0.,-0.992546151641322));
#287=DIRECTION('',(0.,0.,-1.));
#288=DIRECTION('',(3.64131712001848E-16,-1.,0.));
#289=DIRECTION('',(0.,0.,-1.));
#290=DIRECTION('',(-1.,0.,0.));
#291=DIRECTION('',(0.,0.,1.));
#292=DIRECTION('',(1.8540013765047E-16,-1.,0.));
#293=DIRECTION('',(0.,0.,-1.));
#294=DIRECTION('',(0.953716950748227,0.300705799504273,0.));
#295=DIRECTION('',(0.,0.,-1.));
#296=DIRECTION('',(-0.953716950748227,-0.300705799504273,0.));
#297=DIRECTION('',(0.,0.,-1.));
#298=DIRECTION('',(-1.,0.,0.));
#299=DIRECTION('',(0.,0.,1.));
#300=DIRECTION('',(0.953716950748227,0.300705799504273,0.));
#301=DIRECTION('',(0.,0.,1.));
#302=DIRECTION('',(-0.953716950748227,-0.300705799504273,0.));
#303=DIRECTION('',(0.,0.,-1.));
#304=DIRECTION('',(-1.,0.,0.));
#305=DIRECTION('',(0.121779472850605,0.0383969203001167,0.991814214711452));
#306=DIRECTION('',(0.992546151641323,0.,-0.121869343405147));
#307=DIRECTION('',(-0.121779472850605,-0.0383969203001167,0.991814214711452));
#308=DIRECTION('',(0.992546151641323,0.,0.121869343405147));
#309=CARTESIAN_POINT('',(0.,0.,0.));
#310=CARTESIAN_POINT('',(0.,0.,0.));
#311=CARTESIAN_POINT('',(-4.76250000000001,15.1047202462548,0.));
#312=CARTESIAN_POINT('',(-4.7625,-1.41685221426687,0.));
#313=CARTESIAN_POINT('',(-4.7625,0.740865937582904,0.));
#314=CARTESIAN_POINT('',(-4.7625,4.94899368495819,0.));
#315=CARTESIAN_POINT('',(-4.7625,9.17035453845729,0.));
#316=CARTESIAN_POINT('',(-4.7625,11.2876515182688,0.));
#317=CARTESIAN_POINT('',(-4.76254946974606,11.3200046644822,0.));
#318=CARTESIAN_POINT('',(-4.76226525638993,11.3646344522734,0.));
#319=CARTESIAN_POINT('',(-4.75929767305595,11.4273900664802,0.));
#320=CARTESIAN_POINT('',(-4.74509697262069,11.5463418434679,0.));
#321=CARTESIAN_POINT('',(-4.69338587250452,11.7606500566245,0.));
#322=CARTESIAN_POINT('',(-4.54812978228128,12.0434454202723,0.));
#323=CARTESIAN_POINT('',(-4.27689692253029,12.3117311019144,0.));
#324=CARTESIAN_POINT('',(-3.93566418176486,12.4823320629257,0.));
#325=CARTESIAN_POINT('',(-3.55828999354785,12.5383069963089,0.));
#326=CARTESIAN_POINT('',(-3.18222669695784,12.4741130089661,0.));
#327=CARTESIAN_POINT('',(-2.9010351166857,12.3257760793297,0.));
#328=CARTESIAN_POINT('',(-2.73575372203637,12.1798853368698,0.));
#329=CARTESIAN_POINT('',(-2.65589325286988,12.0905909326986,0.));
#330=CARTESIAN_POINT('',(-2.61746720934965,12.040886678896,0.));
#331=CARTESIAN_POINT('',(-2.59163580075836,12.0044911150704,0.));
#332=CARTESIAN_POINT('',(-2.57311932169473,11.9779605945334,0.));
#333=CARTESIAN_POINT('',(-1.35868766531765,10.243572445154,0.));
#334=CARTESIAN_POINT('',(0.455369621395631,7.6528301470184,0.));
#335=CARTESIAN_POINT('',(2.86146234059274,4.21657362606033,0.));
#336=CARTESIAN_POINT('',(4.07209889804365,2.48760543964767,0.));
#337=CARTESIAN_POINT('',(4.6793147262322,1.62041136495794,0.));
#338=CARTESIAN_POINT('',(4.69280526542085,1.60136657885389,0.));
#339=CARTESIAN_POINT('',(4.70745203053797,1.57887273948264,0.));
#340=CARTESIAN_POINT('',(4.72671194758566,1.5433004698095,0.));
#341=CARTESIAN_POINT('',(4.74561615849703,1.49628702725886,0.));
#342=CARTESIAN_POINT('',(4.75709653832216,1.44693285975769,0.));
#343=CARTESIAN_POINT('',(4.7617231535718,1.40674672775015,0.));
#344=CARTESIAN_POINT('',(4.76260172976821,1.38124311818184,0.));
#345=CARTESIAN_POINT('',(4.7625,1.36055131487998,0.));
#346=CARTESIAN_POINT('',(4.7625,-0.756745664931485,0.));
#347=CARTESIAN_POINT('',(4.7625,-3.92739789219915,0.));
#348=CARTESIAN_POINT('',(4.7625,-8.11832260161347,0.));
#349=CARTESIAN_POINT('',(4.7625,-10.2190781987702,0.));
#350=CARTESIAN_POINT('',(4.7625,-11.2777266886759,0.));
#351=CARTESIAN_POINT('',(4.76258244957677,-11.3186587082864,0.));
#352=CARTESIAN_POINT('',(4.76218700851991,-11.3665967118187,0.));
#353=CARTESIAN_POINT('',(4.75906487468816,-11.4293400956111,0.));
#354=CARTESIAN_POINT('',(4.74509697262069,-11.5463418434679,0.));
#355=CARTESIAN_POINT('',(4.69338587250452,-11.7606500566245,0.));
#356=CARTESIAN_POINT('',(4.54812978228128,-12.0434454202723,0.));
#357=CARTESIAN_POINT('',(4.27689692253028,-12.3117311019144,0.));
#358=CARTESIAN_POINT('',(3.93566418176486,-12.4823320629257,0.));
#359=CARTESIAN_POINT('',(3.55828999354785,-12.5383069963089,0.));
#360=CARTESIAN_POINT('',(3.18222669695784,-12.4741130089661,0.));
#361=CARTESIAN_POINT('',(2.9010351166857,-12.3257760793297,0.));
#362=CARTESIAN_POINT('',(2.73575372203637,-12.1798853368698,0.));
#363=CARTESIAN_POINT('',(2.65589325286988,-12.0905909326986,0.));
#364=CARTESIAN_POINT('',(2.61746720934965,-12.040886678896,0.));
#365=CARTESIAN_POINT('',(2.59163580075836,-12.0044911150704,0.));
#366=CARTESIAN_POINT('',(2.57311932169473,-11.9779605945334,0.));
#367=CARTESIAN_POINT('',(1.35868766531765,-10.243572445154,0.));
#368=CARTESIAN_POINT('',(-0.455369621395633,-7.6528301470184,0.));
#369=CARTESIAN_POINT('',(-2.86146234059274,-4.21657362606033,0.));
#370=CARTESIAN_POINT('',(-4.07209889804365,-2.48760543964767,0.));
#371=CARTESIAN_POINT('',(-4.6793147262322,-1.62041136495794,0.));
#372=CARTESIAN_POINT('',(-4.69280526542085,-1.60136657885389,0.));
#373=CARTESIAN_POINT('',(-4.70745203053798,-1.57887273948264,0.));
#374=CARTESIAN_POINT('',(-4.72671194758566,-1.5433004698095,0.));
#375=CARTESIAN_POINT('',(-4.75317784286157,-1.4774816502386,0.));
#376=CARTESIAN_POINT('',(-4.7625,-1.41685221426687,0.));
#377=CARTESIAN_POINT('',(-4.7625,0.740865937582904,0.));
#378=CARTESIAN_POINT('',(0.,0.,0.));
#379=CARTESIAN_POINT('',(-4.76250000000001,15.1047202462548,0.));
#380=CARTESIAN_POINT('',(-2.59588991525181,12.0104803723343,0.));
#381=CARTESIAN_POINT('',(-2.59588991525181,12.0104803723343,0.));
#382=CARTESIAN_POINT('',(4.69070002301073,1.60415147605751,0.));
#383=CARTESIAN_POINT('',(4.63129768885076,1.58542199204029,-0.483793188029091));
#384=CARTESIAN_POINT('',(4.10624551311291,1.41987367693187,-4.76));
#385=CARTESIAN_POINT('',(-3.07464702182853,11.6752510373378,-4.76));
#386=CARTESIAN_POINT('',(-3.07464702182853,11.6752510373378,-4.76));
#387=CARTESIAN_POINT('',(-2.59588991525181,12.0104803723343,0.));
#388=CARTESIAN_POINT('',(-2.59588991525181,12.0104803723343,0.));
#389=CARTESIAN_POINT('',(4.17804549010217,1.50161048203616,-4.76));
#390=CARTESIAN_POINT('',(4.17804549010217,1.19215324310292,-4.76));
#391=CARTESIAN_POINT('',(4.17804549010217,-11.3273508366402,-4.76));
#392=CARTESIAN_POINT('',(4.76308533364193,1.37661559721695,0.00476715995580413));
#393=CARTESIAN_POINT('',(4.7625,1.37643104222856,0.));
#394=CARTESIAN_POINT('',(4.7625,1.50161048203616,0.));
#395=CARTESIAN_POINT('',(4.7625,-11.3273508366402,0.));
#396=CARTESIAN_POINT('',(4.7625,-11.3273508366402,7.86876734342913E-17));
#397=CARTESIAN_POINT('',(4.7625,1.50161048203616,0.));
#398=CARTESIAN_POINT('',(3.5715,-11.3273508366402,0.));
#399=CARTESIAN_POINT('',(2.59588991525181,-12.0104803723343,0.));
#400=CARTESIAN_POINT('',(2.59588991525181,-12.0104803723343,-4.23332279099617E-17));
#401=CARTESIAN_POINT('',(3.07464702182853,-11.6752510373378,-4.76));
#402=CARTESIAN_POINT('',(3.5715,-11.3273508366402,-4.76));
#403=CARTESIAN_POINT('',(3.5715,-11.3273508366402,0.));
#404=CARTESIAN_POINT('',(2.59588991525181,-12.0104803723343,0.));
#405=CARTESIAN_POINT('',(-4.69070002301073,-1.60415147605751,0.));
#406=CARTESIAN_POINT('',(-4.63129768885077,-1.58542199204029,-0.483793188029091));
#407=CARTESIAN_POINT('',(-4.10624551311291,-1.41987367693186,-4.76));
#408=CARTESIAN_POINT('',(3.07464702182853,-11.6752510373378,-4.76));
#409=CARTESIAN_POINT('',(2.59588991525181,-12.0104803723343,0.));
#410=CARTESIAN_POINT('',(-4.17804549010218,-1.50161048203616,-4.76));
#411=CARTESIAN_POINT('',(-4.17804549010218,-1.19215324310291,-4.76));
#412=CARTESIAN_POINT('',(-4.17804549010217,11.3273508366402,-4.76));
#413=CARTESIAN_POINT('',(-4.76308533364193,-1.37661559721695,0.00476715995580413));
#414=CARTESIAN_POINT('',(-4.7625,-1.37643104222856,0.));
#415=CARTESIAN_POINT('',(-4.7625,-1.50161048203616,0.));
#416=CARTESIAN_POINT('',(-4.7625,11.3273508366402,0.));
#417=CARTESIAN_POINT('',(-4.7625,11.3273508366402,2.62292244780971E-16));
#418=CARTESIAN_POINT('',(-4.7625,-1.50161048203616,0.));
#419=CARTESIAN_POINT('',(-3.5715,11.3273508366402,0.));
#420=CARTESIAN_POINT('',(-3.5715,11.3273508366402,-4.76));
#421=CARTESIAN_POINT('',(-3.5715,11.3273508366402,0.));
#422=CARTESIAN_POINT('',(3.77504155991863,1.19026603181018,-4.76));
#423=CARTESIAN_POINT('',(-3.77504155991864,-1.19026603181018,-4.76));
#424=CARTESIAN_POINT('',(3.5715,-11.3273508366402,-4.76));
#425=CARTESIAN_POINT('',(4.35949606981646,1.37454383093582,0.));
#426=CARTESIAN_POINT('',(-4.35949606981646,-1.37454383093582,0.));
#427=CARTESIAN_POINT('',(3.5715,-11.3273508366402,0.));
#428=CARTESIAN_POINT('',(4.3660668729854,1.37661559721695,0.0535148973178631));
#429=CARTESIAN_POINT('',(-4.3660668729854,-1.37661559721695,0.0535148973178631));
#430=MECHANICAL_DESIGN_GEOMETRIC_PRESENTATION_REPRESENTATION('',(#212,#213,
#214,#215,#216,#217),#431);
#431=(
GEOMETRIC_REPRESENTATION_CONTEXT(3)
GLOBAL_UNCERTAINTY_ASSIGNED_CONTEXT((#432))
GLOBAL_UNIT_ASSIGNED_CONTEXT((#438,#434,#433))
REPRESENTATION_CONTEXT('aaa339399_a','TOP_LEVEL_ASSEMBLY_PART')
);
#432=UNCERTAINTY_MEASURE_WITH_UNIT(LENGTH_MEASURE(2.E-5),#438,
'DISTANCE_ACCURACY_VALUE','Maximum Tolerance applied to model');
#433=(
NAMED_UNIT(*)
SI_UNIT($,.STERADIAN.)
SOLID_ANGLE_UNIT()
);
#434=(
CONVERSION_BASED_UNIT('DEGREE',#436)
NAMED_UNIT(#435)
PLANE_ANGLE_UNIT()
);
#435=DIMENSIONAL_EXPONENTS(0.,0.,0.,0.,0.,0.,0.);
#436=PLANE_ANGLE_MEASURE_WITH_UNIT(PLANE_ANGLE_MEASURE(0.0174532925),#437);
#437=(
NAMED_UNIT(*)
PLANE_ANGLE_UNIT()
SI_UNIT($,.RADIAN.)
);
#438=(
LENGTH_UNIT()
NAMED_UNIT(*)
SI_UNIT(.MILLI.,.METRE.)
);
ENDSEC;
END-ISO-10303-21;
