ISO-10303-21;
HEADER;
/* Generated by software containing ST-Developer
 * from STEP Tools, Inc. (www.steptools.com) 
 */
/* OPTION: using custom schema-name function */

FILE_DESCRIPTION(
/* description */ (''),
/* implementation_level */ '2;1');

FILE_NAME(
/* name */ 'aaa339383_a.stp',
/* time_stamp */ '2019-09-25T15:15:17+02:00',
/* author */ (''),
/* organization */ ('SMS'),
/* preprocessor_version */ 'ST-DEVELOPER v16.7',
/* originating_system */ 'SIEMENS PLM Software NX 12.0',
/* authorisation */ '');

FILE_SCHEMA (('AUTOMOTIVE_DESIGN { 1 0 10303 214 3 1 1 1 }'));
ENDSEC;

DATA;
#10=CONSTRUCTIVE_GEOMETRY_REPRESENTATION_RELATIONSHIP(
'supplemental geometry','',#26,#11);
#11=CONSTRUCTIVE_GEOMETRY_REPRESENTATION('supplemental geometry',(#231,
#232),#428);
#12=GEOMETRICALLY_BOUNDED_WIREFRAME_SHAPE_REPRESENTATION(
'AAA339383_A-None',(#27),#428);
#13=SHAPE_REPRESENTATION_RELATIONSHIP('None',
'relationship between AAA339383_A-None and AAA339383_A-None',#26,#15);
#14=SHAPE_REPRESENTATION_RELATIONSHIP('None',
'relationship between AAA339383_A-None and AAA339383_A-None',#26,#12);
#15=ADVANCED_BREP_SHAPE_REPRESENTATION('AAA339383_A-None',(#33),#428);
#16=SHAPE_DEFINITION_REPRESENTATION(#17,#26);
#17=PRODUCT_DEFINITION_SHAPE('','',#18);
#18=PRODUCT_DEFINITION(' ','',#20,#19);
#19=PRODUCT_DEFINITION_CONTEXT('part definition',#25,'design');
#20=PRODUCT_DEFINITION_FORMATION_WITH_SPECIFIED_SOURCE(' ',' ',#22,
 .NOT_KNOWN.);
#21=PRODUCT_RELATED_PRODUCT_CATEGORY('part','',(#22));
#22=PRODUCT('AAA339383_A','AAA339383_A','MASTER_INSERT',(#23));
#23=PRODUCT_CONTEXT(' ',#25,'mechanical');
#24=APPLICATION_PROTOCOL_DEFINITION('international standard',
'automotive_design',2010,#25);
#25=APPLICATION_CONTEXT(
'core data for automotive mechanical design processes');
#26=SHAPE_REPRESENTATION('AAA339383_A-None',(#230),#428);
#27=GEOMETRIC_CURVE_SET('None',(#310,#311,#210));
#28=SURFACE_STYLE_USAGE(.BOTH.,#29);
#29=SURFACE_SIDE_STYLE('',(#30));
#30=SURFACE_STYLE_FILL_AREA(#31);
#31=FILL_AREA_STYLE('',(#32));
#32=FILL_AREA_STYLE_COLOUR('',#229);
#33=MANIFOLD_SOLID_BREP('CUT',#34);
#34=CLOSED_SHELL('',(#47,#48,#49,#50,#51,#52,#53,#54,#55,#56));
#35=CYLINDRICAL_SURFACE('',#249,0.4);
#36=CYLINDRICAL_SURFACE('',#250,0.4);
#37=ELLIPSE('',#243,0.403301338160768,0.4);
#38=ELLIPSE('',#244,0.403301338160768,0.4);
#39=ELLIPSE('',#246,0.403301338160768,0.4);
#40=ELLIPSE('',#247,0.403301338160768,0.4);
#41=CONICAL_SURFACE('',#237,0.793999999999996,6.99999999999999);
#42=CONICAL_SURFACE('',#242,0.794,6.99999999999999);
#43=CIRCLE('',#235,0.793999999999996);
#44=CIRCLE('',#236,0.209545490102171);
#45=CIRCLE('',#240,0.794);
#46=CIRCLE('',#241,0.209545490102174);
#47=ADVANCED_FACE('',(#63),#57,.F.);
#48=ADVANCED_FACE('',(#64),#58,.F.);
#49=ADVANCED_FACE('',(#65),#41,.T.);
#50=ADVANCED_FACE('',(#66),#59,.F.);
#51=ADVANCED_FACE('',(#67),#60,.F.);
#52=ADVANCED_FACE('',(#68),#42,.T.);
#53=ADVANCED_FACE('',(#69),#61,.T.);
#54=ADVANCED_FACE('',(#70),#62,.F.);
#55=ADVANCED_FACE('',(#71),#35,.T.);
#56=ADVANCED_FACE('',(#72),#36,.T.);
#57=PLANE('',#233);
#58=PLANE('',#234);
#59=PLANE('',#238);
#60=PLANE('',#239);
#61=PLANE('',#245);
#62=PLANE('',#248);
#63=FACE_OUTER_BOUND('',#73,.T.);
#64=FACE_OUTER_BOUND('',#74,.T.);
#65=FACE_OUTER_BOUND('',#75,.T.);
#66=FACE_OUTER_BOUND('',#76,.T.);
#67=FACE_OUTER_BOUND('',#77,.T.);
#68=FACE_OUTER_BOUND('',#78,.T.);
#69=FACE_OUTER_BOUND('',#79,.T.);
#70=FACE_OUTER_BOUND('',#80,.T.);
#71=FACE_OUTER_BOUND('',#81,.T.);
#72=FACE_OUTER_BOUND('',#82,.T.);
#73=EDGE_LOOP('',(#83,#84,#85,#86));
#74=EDGE_LOOP('',(#87,#88,#89,#90));
#75=EDGE_LOOP('',(#91,#92,#93,#94));
#76=EDGE_LOOP('',(#95,#96,#97,#98));
#77=EDGE_LOOP('',(#99,#100,#101,#102));
#78=EDGE_LOOP('',(#103,#104,#105,#106));
#79=EDGE_LOOP('',(#107,#108,#109,#110,#111,#112,#113,#114));
#80=EDGE_LOOP('',(#115,#116,#117,#118,#119,#120,#121,#122));
#81=EDGE_LOOP('',(#123,#124,#125,#126));
#82=EDGE_LOOP('',(#127,#128,#129,#130));
#83=ORIENTED_EDGE('',*,*,#147,.T.);
#84=ORIENTED_EDGE('',*,*,#148,.T.);
#85=ORIENTED_EDGE('',*,*,#149,.F.);
#86=ORIENTED_EDGE('',*,*,#150,.T.);
#87=ORIENTED_EDGE('',*,*,#151,.F.);
#88=ORIENTED_EDGE('',*,*,#152,.T.);
#89=ORIENTED_EDGE('',*,*,#153,.T.);
#90=ORIENTED_EDGE('',*,*,#154,.F.);
#91=ORIENTED_EDGE('',*,*,#155,.T.);
#92=ORIENTED_EDGE('',*,*,#156,.F.);
#93=ORIENTED_EDGE('',*,*,#157,.F.);
#94=ORIENTED_EDGE('',*,*,#154,.T.);
#95=ORIENTED_EDGE('',*,*,#158,.T.);
#96=ORIENTED_EDGE('',*,*,#159,.T.);
#97=ORIENTED_EDGE('',*,*,#160,.F.);
#98=ORIENTED_EDGE('',*,*,#156,.T.);
#99=ORIENTED_EDGE('',*,*,#161,.F.);
#100=ORIENTED_EDGE('',*,*,#162,.T.);
#101=ORIENTED_EDGE('',*,*,#163,.T.);
#102=ORIENTED_EDGE('',*,*,#164,.F.);
#103=ORIENTED_EDGE('',*,*,#165,.T.);
#104=ORIENTED_EDGE('',*,*,#150,.F.);
#105=ORIENTED_EDGE('',*,*,#166,.F.);
#106=ORIENTED_EDGE('',*,*,#164,.T.);
#107=ORIENTED_EDGE('',*,*,#149,.T.);
#108=ORIENTED_EDGE('',*,*,#167,.T.);
#109=ORIENTED_EDGE('',*,*,#151,.T.);
#110=ORIENTED_EDGE('',*,*,#157,.T.);
#111=ORIENTED_EDGE('',*,*,#160,.T.);
#112=ORIENTED_EDGE('',*,*,#168,.T.);
#113=ORIENTED_EDGE('',*,*,#161,.T.);
#114=ORIENTED_EDGE('',*,*,#166,.T.);
#115=ORIENTED_EDGE('',*,*,#153,.F.);
#116=ORIENTED_EDGE('',*,*,#169,.T.);
#117=ORIENTED_EDGE('',*,*,#147,.F.);
#118=ORIENTED_EDGE('',*,*,#165,.F.);
#119=ORIENTED_EDGE('',*,*,#163,.F.);
#120=ORIENTED_EDGE('',*,*,#170,.T.);
#121=ORIENTED_EDGE('',*,*,#158,.F.);
#122=ORIENTED_EDGE('',*,*,#155,.F.);
#123=ORIENTED_EDGE('',*,*,#167,.F.);
#124=ORIENTED_EDGE('',*,*,#148,.F.);
#125=ORIENTED_EDGE('',*,*,#169,.F.);
#126=ORIENTED_EDGE('',*,*,#152,.F.);
#127=ORIENTED_EDGE('',*,*,#168,.F.);
#128=ORIENTED_EDGE('',*,*,#159,.F.);
#129=ORIENTED_EDGE('',*,*,#170,.F.);
#130=ORIENTED_EDGE('',*,*,#162,.F.);
#131=VERTEX_POINT('',#378);
#132=VERTEX_POINT('',#379);
#133=VERTEX_POINT('',#381);
#134=VERTEX_POINT('',#383);
#135=VERTEX_POINT('',#387);
#136=VERTEX_POINT('',#388);
#137=VERTEX_POINT('',#390);
#138=VERTEX_POINT('',#392);
#139=VERTEX_POINT('',#396);
#140=VERTEX_POINT('',#398);
#141=VERTEX_POINT('',#402);
#142=VERTEX_POINT('',#404);
#143=VERTEX_POINT('',#408);
#144=VERTEX_POINT('',#409);
#145=VERTEX_POINT('',#411);
#146=VERTEX_POINT('',#413);
#147=EDGE_CURVE('',#131,#132,#171,.T.);
#148=EDGE_CURVE('',#132,#133,#172,.T.);
#149=EDGE_CURVE('',#134,#133,#173,.T.);
#150=EDGE_CURVE('',#134,#131,#174,.T.);
#151=EDGE_CURVE('',#135,#136,#175,.T.);
#152=EDGE_CURVE('',#135,#137,#176,.T.);
#153=EDGE_CURVE('',#137,#138,#177,.T.);
#154=EDGE_CURVE('',#136,#138,#178,.T.);
#155=EDGE_CURVE('',#138,#139,#43,.T.);
#156=EDGE_CURVE('',#140,#139,#179,.T.);
#157=EDGE_CURVE('',#136,#140,#44,.T.);
#158=EDGE_CURVE('',#139,#141,#180,.T.);
#159=EDGE_CURVE('',#141,#142,#181,.T.);
#160=EDGE_CURVE('',#140,#142,#182,.T.);
#161=EDGE_CURVE('',#143,#144,#183,.T.);
#162=EDGE_CURVE('',#143,#145,#184,.T.);
#163=EDGE_CURVE('',#145,#146,#185,.T.);
#164=EDGE_CURVE('',#144,#146,#186,.T.);
#165=EDGE_CURVE('',#146,#131,#45,.T.);
#166=EDGE_CURVE('',#144,#134,#46,.T.);
#167=EDGE_CURVE('',#133,#135,#37,.T.);
#168=EDGE_CURVE('',#142,#143,#38,.T.);
#169=EDGE_CURVE('',#137,#132,#39,.T.);
#170=EDGE_CURVE('',#145,#141,#40,.T.);
#171=LINE('',#377,#187);
#172=LINE('',#380,#188);
#173=LINE('',#382,#189);
#174=LINE('',#384,#190);
#175=LINE('',#386,#191);
#176=LINE('',#389,#192);
#177=LINE('',#391,#193);
#178=LINE('',#393,#194);
#179=LINE('',#397,#195);
#180=LINE('',#401,#196);
#181=LINE('',#403,#197);
#182=LINE('',#405,#198);
#183=LINE('',#407,#199);
#184=LINE('',#410,#200);
#185=LINE('',#412,#201);
#186=LINE('',#414,#202);
#187=VECTOR('',#257,1.);
#188=VECTOR('',#258,1.);
#189=VECTOR('',#259,1.);
#190=VECTOR('',#260,1.);
#191=VECTOR('',#263,1.);
#192=VECTOR('',#264,1.);
#193=VECTOR('',#265,1.);
#194=VECTOR('',#266,1.);
#195=VECTOR('',#271,1.);
#196=VECTOR('',#276,1.);
#197=VECTOR('',#277,1.);
#198=VECTOR('',#278,1.);
#199=VECTOR('',#281,1.);
#200=VECTOR('',#282,1.);
#201=VECTOR('',#283,1.);
#202=VECTOR('',#284,1.);
#203=CURVE_STYLE('',#207,POSITIVE_LENGTH_MEASURE(0.18),#206);
#204=CURVE_STYLE('',#208,POSITIVE_LENGTH_MEASURE(0.18),#228);
#205=CURVE_STYLE('',#209,POSITIVE_LENGTH_MEASURE(0.18),#228);
#206=DRAUGHTING_PRE_DEFINED_COLOUR('blue');
#207=DRAUGHTING_PRE_DEFINED_CURVE_FONT('continuous');
#208=DRAUGHTING_PRE_DEFINED_CURVE_FONT('continuous');
#209=DRAUGHTING_PRE_DEFINED_CURVE_FONT('continuous');
#210=B_SPLINE_CURVE_WITH_KNOTS('CUTTING EDGE LINE',3,(#312,#313,#314,#315,
#316,#317,#318,#319,#320,#321,#322,#323,#324,#325,#326,#327,#328,#329,#330,
#331,#332,#333,#334,#335,#336,#337,#338,#339,#340,#341,#342,#343,#344,#345,
#346,#347,#348,#349,#350,#351,#352,#353,#354,#355,#356,#357,#358,#359,#360,
#361,#362,#363,#364,#365,#366,#367,#368,#369,#370,#371,#372,#373,#374),
 .UNSPECIFIED.,.T.,.F.,(1,1,2,1,1,1,1,1,1,1,1,1,1,1,1,1,1,1,1,1,1,1,1,1,
1,1,1,1,1,1,1,1,1,1,1,1,1,1,1,1,1,1,1,1,1,1,1,1,1,1,1,1,1,1,1,1,1,1,1,1,
1,1,2,1,1),(-0.00301373309999997,-0.00200915539999991,0.,0.115672243,0.23062153448125,
0.230983010240625,0.231344486,0.232384883409375,0.23342528081875,0.2355060756375,
0.239667665275,0.2438292549125,0.24799084455,0.2521524341875,0.256314023825,
0.2604756134625,0.26255640828125,0.263596805690625,0.2646372031,0.264998678859531,
0.265360154619062,0.38030944615,0.438145567675,0.495620213440469,0.495800951320234,
0.4959816892,0.49648397805,0.4969862669,0.4979908446,0.4989954223,0.49949771115,
0.5,0.500253033031563,0.500506066063125,0.615672243,0.6735083645,0.730260058721875,
0.730802272360937,0.731344486,0.731604585352344,0.732384883409375,0.73342528081875,
0.7355060756375,0.739667665275,0.7438292549125,0.74799084455,0.7521524341875,
0.756314023825,0.7604756134625,0.76255640828125,0.763596805690625,0.7646372031,
0.764998678859531,0.765360154619063,0.88030944615,0.938145567675,0.995620213440469,
0.995800951320234,0.9959816892,0.99648397805,0.9969862669,0.9979908446,
1.,1.115672243,1.23062153448125),.UNSPECIFIED.);
#211=PRESENTATION_LAYER_ASSIGNMENT('1','Layer 1',(#310,#311,#210,#231,#232,
#33));
#212=STYLED_ITEM('',(#218),#310);
#213=STYLED_ITEM('',(#219),#311);
#214=STYLED_ITEM('',(#220),#210);
#215=STYLED_ITEM('',(#221),#231);
#216=STYLED_ITEM('',(#222),#232);
#217=STYLED_ITEM('',(#223),#33);
#218=PRESENTATION_STYLE_ASSIGNMENT((#224));
#219=PRESENTATION_STYLE_ASSIGNMENT((#225));
#220=PRESENTATION_STYLE_ASSIGNMENT((#203));
#221=PRESENTATION_STYLE_ASSIGNMENT((#204));
#222=PRESENTATION_STYLE_ASSIGNMENT((#205));
#223=PRESENTATION_STYLE_ASSIGNMENT((#28));
#224=POINT_STYLE('',#226,POSITIVE_LENGTH_MEASURE(3.),#228);
#225=POINT_STYLE('',#227,POSITIVE_LENGTH_MEASURE(3.),#228);
#226=PRE_DEFINED_POINT_MARKER_SYMBOL('plus');
#227=PRE_DEFINED_POINT_MARKER_SYMBOL('plus');
#228=COLOUR_RGB('Medium Maroon',0.6,0.4,0.4);
#229=COLOUR_RGB('Light Gray',0.8,0.8,0.8);
#230=AXIS2_PLACEMENT_3D('',#309,#251,#252);
#231=AXIS2_PLACEMENT_3D('MCS',#375,#253,#254);
#232=AXIS2_PLACEMENT_3D('PCS',#376,#255,#256);
#233=AXIS2_PLACEMENT_3D('',#385,#261,#262);
#234=AXIS2_PLACEMENT_3D('',#394,#267,#268);
#235=AXIS2_PLACEMENT_3D('',#395,#269,#270);
#236=AXIS2_PLACEMENT_3D('',#399,#272,#273);
#237=AXIS2_PLACEMENT_3D('',#400,#274,#275);
#238=AXIS2_PLACEMENT_3D('',#406,#279,#280);
#239=AXIS2_PLACEMENT_3D('',#415,#285,#286);
#240=AXIS2_PLACEMENT_3D('',#416,#287,#288);
#241=AXIS2_PLACEMENT_3D('',#417,#289,#290);
#242=AXIS2_PLACEMENT_3D('',#418,#291,#292);
#243=AXIS2_PLACEMENT_3D('',#419,#293,#294);
#244=AXIS2_PLACEMENT_3D('',#420,#295,#296);
#245=AXIS2_PLACEMENT_3D('',#421,#297,#298);
#246=AXIS2_PLACEMENT_3D('',#422,#299,#300);
#247=AXIS2_PLACEMENT_3D('',#423,#301,#302);
#248=AXIS2_PLACEMENT_3D('',#424,#303,#304);
#249=AXIS2_PLACEMENT_3D('',#425,#305,#306);
#250=AXIS2_PLACEMENT_3D('',#426,#307,#308);
#251=DIRECTION('',(0.,0.,1.));
#252=DIRECTION('',(1.,0.,0.));
#253=DIRECTION('',(0.,0.,1.));
#254=DIRECTION('',(0.,-1.,0.));
#255=DIRECTION('',(0.,0.,1.));
#256=DIRECTION('',(0.,-1.,0.));
#257=DIRECTION('',(0.573576436351046,-0.819152044288992,0.));
#258=DIRECTION('',(-0.121779472850605,-0.0383969203001167,-0.991814214711453));
#259=DIRECTION('',(0.573576436351046,-0.819152044288992,0.));
#260=DIRECTION('',(0.0998295217864836,0.0699013836907663,0.992546151641322));
#261=DIRECTION('',(-0.813046209168161,-0.569301084572374,0.121869343405147));
#262=DIRECTION('',(0.573576436351046,-0.819152044288992,0.));
#263=DIRECTION('',(-1.84701136782444E-16,-1.,0.));
#264=DIRECTION('',(0.121779472850605,0.0383969203001167,0.991814214711453));
#265=DIRECTION('',(-1.84701136782444E-16,-1.,0.));
#266=DIRECTION('',(0.121869343405147,2.66258955927946E-16,0.992546151641322));
#267=DIRECTION('',(-0.992546151641322,1.83324402517192E-16,0.121869343405147));
#268=DIRECTION('',(0.121869343405147,0.,0.992546151641322));
#269=DIRECTION('',(0.,0.,-1.));
#270=DIRECTION('',(0.,-0.999999999999999,0.));
#271=DIRECTION('',(-0.0998295217864836,-0.0699013836907663,0.992546151641322));
#272=DIRECTION('',(0.,0.,-1.));
#273=DIRECTION('',(-1.,0.,0.));
#274=DIRECTION('',(0.,0.,1.));
#275=DIRECTION('',(1.8248638779195E-16,-1.,0.));
#276=DIRECTION('',(-0.573576436351046,0.819152044288992,0.));
#277=DIRECTION('',(0.121779472850605,0.0383969203001167,-0.991814214711453));
#278=DIRECTION('',(-0.573576436351046,0.819152044288992,0.));
#279=DIRECTION('',(0.813046209168161,0.569301084572375,0.121869343405147));
#280=DIRECTION('',(-0.573576436351046,0.819152044288992,0.));
#281=DIRECTION('',(3.0783522797074E-16,1.,0.));
#282=DIRECTION('',(-0.121779472850605,-0.0383969203001167,0.991814214711453));
#283=DIRECTION('',(3.0783522797074E-16,1.,0.));
#284=DIRECTION('',(-0.121869343405147,0.,0.992546151641322));
#285=DIRECTION('',(0.992546151641322,-3.05540670861987E-16,0.121869343405147));
#286=DIRECTION('',(0.121869343405147,0.,-0.992546151641322));
#287=DIRECTION('',(0.,0.,-1.));
#288=DIRECTION('',(0.,-1.,0.));
#289=DIRECTION('',(0.,0.,-1.));
#290=DIRECTION('',(-1.,0.,0.));
#291=DIRECTION('',(0.,0.,1.));
#292=DIRECTION('',(1.8248638779195E-16,-1.,0.));
#293=DIRECTION('',(0.,0.,-1.));
#294=DIRECTION('',(0.953716950748227,0.300705799504273,0.));
#295=DIRECTION('',(0.,0.,-1.));
#296=DIRECTION('',(-0.953716950748227,-0.300705799504273,0.));
#297=DIRECTION('',(0.,0.,-1.));
#298=DIRECTION('',(-1.,0.,0.));
#299=DIRECTION('',(0.,0.,1.));
#300=DIRECTION('',(0.953716950748227,0.300705799504273,0.));
#301=DIRECTION('',(0.,0.,1.));
#302=DIRECTION('',(-0.953716950748227,-0.300705799504273,0.));
#303=DIRECTION('',(0.,0.,-1.));
#304=DIRECTION('',(-1.,0.,0.));
#305=DIRECTION('',(0.121779472850605,0.0383969203001167,0.991814214711453));
#306=DIRECTION('',(0.992546151641323,0.,-0.121869343405147));
#307=DIRECTION('',(-0.121779472850605,-0.0383969203001167,0.991814214711453));
#308=DIRECTION('',(0.992546151641323,0.,0.121869343405147));
#309=CARTESIAN_POINT('',(0.,0.,0.));
#310=CARTESIAN_POINT('',(0.,0.,0.));
#311=CARTESIAN_POINT('',(-4.76250000000001,15.1047202462548,0.));
#312=CARTESIAN_POINT('',(-4.7625,-1.41685221426687,0.));
#313=CARTESIAN_POINT('',(-4.7625,0.950719793672604,0.));
#314=CARTESIAN_POINT('',(-4.7625,5.59047677275054,0.));
#315=CARTESIAN_POINT('',(-4.7625,10.2375060981907,0.));
#316=CARTESIAN_POINT('',(-4.7625,12.5646569340918,0.));
#317=CARTESIAN_POINT('',(-4.76264499437993,12.6001329307008,0.));
#318=CARTESIAN_POINT('',(-4.76083071210622,12.6492667348098,0.));
#319=CARTESIAN_POINT('',(-4.75089798174717,12.7324679777302,0.));
#320=CARTESIAN_POINT('',(-4.71642391500329,12.8753401198345,0.));
#321=CARTESIAN_POINT('',(-4.61958652152247,13.0638703622658,0.));
#322=CARTESIAN_POINT('',(-4.43876461501375,13.242727483364,0.));
#323=CARTESIAN_POINT('',(-4.21127612119989,13.3564614573614,0.));
#324=CARTESIAN_POINT('',(-3.95969332902502,13.3937780796256,0.));
#325=CARTESIAN_POINT('',(-3.70898446464028,13.350982088062,0.));
#326=CARTESIAN_POINT('',(-3.52152341112409,13.252090801638,0.));
#327=CARTESIAN_POINT('',(-3.41133581469095,13.1548303066648,0.));
#328=CARTESIAN_POINT('',(-3.35547712587501,13.0923730185014,0.));
#329=CARTESIAN_POINT('',(-3.32580896056784,13.0531655919729,0.));
#330=CARTESIAN_POINT('',(-3.30557953730353,13.024022191473,0.));
#331=CARTESIAN_POINT('',(-1.97078065399598,11.1177318268758,0.));
#332=CARTESIAN_POINT('',(0.0272464244549964,8.26425343736923,0.));
#333=CARTESIAN_POINT('',(2.68433045153908,4.46954418034279,0.));
#334=CARTESIAN_POINT('',(4.01704371159146,2.5662323944402,0.));
#335=CARTESIAN_POINT('',(4.68444315324523,1.61308721214156,0.));
#336=CARTESIAN_POINT('',(4.6944678124282,1.59889235220355,0.));
#337=CARTESIAN_POINT('',(4.70745203053797,1.57887273948264,0.));
#338=CARTESIAN_POINT('',(4.72671194758566,1.5433004698095,0.));
#339=CARTESIAN_POINT('',(4.74561615849703,1.49628702725886,0.));
#340=CARTESIAN_POINT('',(4.75709653832216,1.44693285975768,0.));
#341=CARTESIAN_POINT('',(4.7617231535718,1.40674672775015,0.));
#342=CARTESIAN_POINT('',(4.76259783603936,1.38144571721048,0.));
#343=CARTESIAN_POINT('',(4.7625,1.36115911486796,0.));
#344=CARTESIAN_POINT('',(4.7625,-0.965991721033202,0.));
#345=CARTESIAN_POINT('',(4.7625,-4.45162733243141,0.));
#346=CARTESIAN_POINT('',(4.7625,-9.07393068024009,0.));
#347=CARTESIAN_POINT('',(4.7625,-11.390172996598,0.));
#348=CARTESIAN_POINT('',(4.7625,-12.5537484145485,0.));
#349=CARTESIAN_POINT('',(4.76255437289247,-12.5807982895032,0.));
#350=CARTESIAN_POINT('',(4.76229133901327,-12.612637889964,0.));
#351=CARTESIAN_POINT('',(4.76020991645877,-12.6544668124924,0.));
#352=CARTESIAN_POINT('',(4.75089798174713,-12.7324679777302,0.));
#353=CARTESIAN_POINT('',(4.71642391500301,-12.8753401198346,0.));
#354=CARTESIAN_POINT('',(4.61958652152085,-13.0638703622665,0.));
#355=CARTESIAN_POINT('',(4.43876461502019,-13.2427274833612,0.));
#356=CARTESIAN_POINT('',(4.21127612117657,-13.3564614573687,0.));
#357=CARTESIAN_POINT('',(3.9596933290319,-13.3937780796242,0.));
#358=CARTESIAN_POINT('',(3.70898446463856,-13.3509820880623,0.));
#359=CARTESIAN_POINT('',(3.5215234111238,-13.252090801638,0.));
#360=CARTESIAN_POINT('',(3.41133581469091,-13.1548303066648,0.));
#361=CARTESIAN_POINT('',(3.35547712587501,-13.0923730185013,0.));
#362=CARTESIAN_POINT('',(3.32580896056784,-13.0531655919729,0.));
#363=CARTESIAN_POINT('',(3.30557953730353,-13.024022191473,0.));
#364=CARTESIAN_POINT('',(1.97078065399598,-11.1177318268758,0.));
#365=CARTESIAN_POINT('',(-0.0272464244549968,-8.26425343736922,0.));
#366=CARTESIAN_POINT('',(-2.68433045153908,-4.46954418034278,0.));
#367=CARTESIAN_POINT('',(-4.01704371159146,-2.56623239444019,0.));
#368=CARTESIAN_POINT('',(-4.68444315324523,-1.61308721214155,0.));
#369=CARTESIAN_POINT('',(-4.6944678124282,-1.59889235220355,0.));
#370=CARTESIAN_POINT('',(-4.70745203053798,-1.57887273948263,0.));
#371=CARTESIAN_POINT('',(-4.72671194758566,-1.54330046980949,0.));
#372=CARTESIAN_POINT('',(-4.75317784286157,-1.4774816502386,0.));
#373=CARTESIAN_POINT('',(-4.7625,-1.41685221426687,0.));
#374=CARTESIAN_POINT('',(-4.7625,0.950719793672604,0.));
#375=CARTESIAN_POINT('',(0.,0.,0.));
#376=CARTESIAN_POINT('',(-4.76250000000001,15.1047202462548,0.));
#377=CARTESIAN_POINT('',(-3.31809327683454,13.0418936636411,0.));
#378=CARTESIAN_POINT('',(-3.31809327683454,13.0418936636411,0.));
#379=CARTESIAN_POINT('',(4.69070002301073,1.60415147605751,0.));
#380=CARTESIAN_POINT('',(4.62541008356768,1.58356563722513,-0.53174388508571));
#381=CARTESIAN_POINT('',(4.10624551311291,1.41987367693186,-4.76));
#382=CARTESIAN_POINT('',(-3.79685038341126,12.7066643286447,-4.76));
#383=CARTESIAN_POINT('',(-3.79685038341126,12.7066643286447,-4.76));
#384=CARTESIAN_POINT('',(-3.31809327683454,13.0418936636411,0.));
#385=CARTESIAN_POINT('',(-3.31809327683454,13.0418936636411,0.));
#386=CARTESIAN_POINT('',(4.17804549010217,1.50161048203616,-4.76));
#387=CARTESIAN_POINT('',(4.17804549010217,1.19215324310292,-4.76));
#388=CARTESIAN_POINT('',(4.17804549010217,-12.5864739731784,-4.76));
#389=CARTESIAN_POINT('',(4.76308533364193,1.37661559721695,0.0047671599558042));
#390=CARTESIAN_POINT('',(4.7625,1.37643104222856,0.));
#391=CARTESIAN_POINT('',(4.7625,1.50161048203616,0.));
#392=CARTESIAN_POINT('',(4.7625,-12.5864739731784,0.));
#393=CARTESIAN_POINT('',(4.76249999999999,-12.5864739731784,6.81959836430525E-16));
#394=CARTESIAN_POINT('',(4.7625,1.50161048203616,0.));
#395=CARTESIAN_POINT('',(3.96849999999999,-12.5864739731784,0.));
#396=CARTESIAN_POINT('',(3.31809327683454,-13.0418936636411,0.));
#397=CARTESIAN_POINT('',(3.31809327683454,-13.0418936636411,4.23332279099617E-17));
#398=CARTESIAN_POINT('',(3.79685038341126,-12.7066643286446,-4.76));
#399=CARTESIAN_POINT('',(3.96849999999999,-12.5864739731784,-4.76));
#400=CARTESIAN_POINT('',(3.96849999999999,-12.5864739731784,0.));
#401=CARTESIAN_POINT('',(3.31809327683454,-13.0418936636411,0.));
#402=CARTESIAN_POINT('',(-4.69070002301074,-1.60415147605751,0.));
#403=CARTESIAN_POINT('',(-4.62541008356768,-1.58356563722514,-0.53174388508571));
#404=CARTESIAN_POINT('',(-4.10624551311291,-1.41987367693186,-4.76));
#405=CARTESIAN_POINT('',(3.79685038341126,-12.7066643286446,-4.76));
#406=CARTESIAN_POINT('',(3.31809327683454,-13.0418936636411,0.));
#407=CARTESIAN_POINT('',(-4.17804549010218,-1.50161048203616,-4.76));
#408=CARTESIAN_POINT('',(-4.17804549010218,-1.19215324310291,-4.76));
#409=CARTESIAN_POINT('',(-4.17804549010217,12.5864739731784,-4.76));
#410=CARTESIAN_POINT('',(-4.76308533364193,-1.37661559721695,0.00476715995580419));
#411=CARTESIAN_POINT('',(-4.7625,-1.37643104222856,0.));
#412=CARTESIAN_POINT('',(-4.7625,-1.50161048203616,0.));
#413=CARTESIAN_POINT('',(-4.7625,12.5864739731784,0.));
#414=CARTESIAN_POINT('',(-4.7625,12.5864739731784,-1.18031510151437E-16));
#415=CARTESIAN_POINT('',(-4.7625,-1.50161048203616,0.));
#416=CARTESIAN_POINT('',(-3.9685,12.5864739731784,0.));
#417=CARTESIAN_POINT('',(-3.9685,12.5864739731784,-4.76));
#418=CARTESIAN_POINT('',(-3.9685,12.5864739731784,0.));
#419=CARTESIAN_POINT('',(3.77504155991863,1.19026603181018,-4.76));
#420=CARTESIAN_POINT('',(-3.77504155991864,-1.19026603181018,-4.76));
#421=CARTESIAN_POINT('',(3.96849999999999,-12.5864739731784,-4.76));
#422=CARTESIAN_POINT('',(4.35949606981646,1.37454383093582,0.));
#423=CARTESIAN_POINT('',(-4.35949606981646,-1.37454383093582,0.));
#424=CARTESIAN_POINT('',(3.96849999999999,-12.5864739731784,0.));
#425=CARTESIAN_POINT('',(4.3660668729854,1.37661559721695,0.0535148973178632));
#426=CARTESIAN_POINT('',(-4.3660668729854,-1.37661559721695,0.0535148973178632));
#427=MECHANICAL_DESIGN_GEOMETRIC_PRESENTATION_REPRESENTATION('',(#212,#213,
#214,#215,#216,#217),#428);
#428=(
GEOMETRIC_REPRESENTATION_CONTEXT(3)
GLOBAL_UNCERTAINTY_ASSIGNED_CONTEXT((#429))
GLOBAL_UNIT_ASSIGNED_CONTEXT((#435,#431,#430))
REPRESENTATION_CONTEXT('aaa339383_a','TOP_LEVEL_ASSEMBLY_PART')
);
#429=UNCERTAINTY_MEASURE_WITH_UNIT(LENGTH_MEASURE(2.E-5),#435,
'DISTANCE_ACCURACY_VALUE','Maximum Tolerance applied to model');
#430=(
NAMED_UNIT(*)
SI_UNIT($,.STERADIAN.)
SOLID_ANGLE_UNIT()
);
#431=(
CONVERSION_BASED_UNIT('DEGREE',#433)
NAMED_UNIT(#432)
PLANE_ANGLE_UNIT()
);
#432=DIMENSIONAL_EXPONENTS(0.,0.,0.,0.,0.,0.,0.);
#433=PLANE_ANGLE_MEASURE_WITH_UNIT(PLANE_ANGLE_MEASURE(0.0174532925),#434);
#434=(
NAMED_UNIT(*)
PLANE_ANGLE_UNIT()
SI_UNIT($,.RADIAN.)
);
#435=(
LENGTH_UNIT()
NAMED_UNIT(*)
SI_UNIT(.MILLI.,.METRE.)
);
ENDSEC;
END-ISO-10303-21;
