ISO-10303-21;
HEADER;
/* Generated by software containing ST-Developer
 * from STEP Tools, Inc. (www.steptools.com) 
 */
/* OPTION: using custom schema-name function */

FILE_DESCRIPTION(
/* description */ (''),
/* implementation_level */ '2;1');

FILE_NAME(
/* name */ 'aaa337442_a.stp',
/* time_stamp */ '2019-09-20T10:03:26+02:00',
/* author */ (''),
/* organization */ ('SMS'),
/* preprocessor_version */ 'ST-DEVELOPER v16.7',
/* originating_system */ 'SIEMENS PLM Software NX 12.0',
/* authorisation */ '');

FILE_SCHEMA (('AUTOMOTIVE_DESIGN { 1 0 10303 214 3 1 1 1 }'));
ENDSEC;

DATA;
#10=CONSTRUCTIVE_GEOMETRY_REPRESENTATION_RELATIONSHIP(
'supplemental geometry','',#26,#11);
#11=CONSTRUCTIVE_GEOMETRY_REPRESENTATION('supplemental geometry',(#301,
#302,#303),#570);
#12=GEOMETRICALLY_BOUNDED_WIREFRAME_SHAPE_REPRESENTATION(
'AAA337442_A-None',(#27),#570);
#13=SHAPE_REPRESENTATION_RELATIONSHIP('None',
'relationship between AAA337442_A-None and AAA337442_A-None',#26,#15);
#14=SHAPE_REPRESENTATION_RELATIONSHIP('None',
'relationship between AAA337442_A-None and AAA337442_A-None',#26,#12);
#15=ADVANCED_BREP_SHAPE_REPRESENTATION('AAA337442_A-None',(#33),#570);
#16=SHAPE_DEFINITION_REPRESENTATION(#17,#26);
#17=PRODUCT_DEFINITION_SHAPE('','',#18);
#18=PRODUCT_DEFINITION(' ','',#20,#19);
#19=PRODUCT_DEFINITION_CONTEXT('part definition',#25,'design');
#20=PRODUCT_DEFINITION_FORMATION_WITH_SPECIFIED_SOURCE(' ',' ',#22,
 .NOT_KNOWN.);
#21=PRODUCT_RELATED_PRODUCT_CATEGORY('part','',(#22));
#22=PRODUCT('AAA337442_A','AAA337442_A','MASTER_INSERT',(#23));
#23=PRODUCT_CONTEXT(' ',#25,'mechanical');
#24=APPLICATION_PROTOCOL_DEFINITION('international standard',
'automotive_design',2010,#25);
#25=APPLICATION_CONTEXT(
'core data for automotive mechanical design processes');
#26=SHAPE_REPRESENTATION('AAA337442_A-None',(#300),#570);
#27=GEOMETRIC_CURVE_SET('None',(#416,#417,#277));
#28=SURFACE_STYLE_USAGE(.BOTH.,#29);
#29=SURFACE_SIDE_STYLE('',(#30));
#30=SURFACE_STYLE_FILL_AREA(#31);
#31=FILL_AREA_STYLE('',(#32));
#32=FILL_AREA_STYLE_COLOUR('',#299);
#33=MANIFOLD_SOLID_BREP('CUT',#34);
#34=CLOSED_SHELL('',(#70,#71,#72,#73,#74,#75,#76,#77,#78,#79,#80,#81,#82,
#83,#84));
#35=CONICAL_SURFACE('',#326,2.878,60.);
#36=CONICAL_SURFACE('',#331,2.878,60.);
#37=FACE_BOUND('',#104,.T.);
#38=FACE_BOUND('',#105,.T.);
#39=FACE_BOUND('',#111,.T.);
#40=FACE_BOUND('',#112,.T.);
#41=FACE_BOUND('',#113,.T.);
#42=FACE_BOUND('',#114,.T.);
#43=FACE_BOUND('',#115,.T.);
#44=FACE_BOUND('',#116,.T.);
#45=FACE_BOUND('',#117,.T.);
#46=FACE_BOUND('',#118,.T.);
#47=FACE_BOUND('',#119,.T.);
#48=FACE_BOUND('',#120,.T.);
#49=FACE_BOUND('',#121,.T.);
#50=FACE_BOUND('',#122,.T.);
#51=CYLINDRICAL_SURFACE('',#307,2.4);
#52=CYLINDRICAL_SURFACE('',#311,2.578);
#53=CYLINDRICAL_SURFACE('',#314,2.4);
#54=CYLINDRICAL_SURFACE('',#318,2.4);
#55=CYLINDRICAL_SURFACE('',#322,2.4);
#56=CIRCLE('',#305,2.4);
#57=CIRCLE('',#306,2.4);
#58=CIRCLE('',#309,2.578);
#59=CIRCLE('',#310,2.578);
#60=CIRCLE('',#312,2.4);
#61=CIRCLE('',#313,2.4);
#62=CIRCLE('',#316,2.4);
#63=CIRCLE('',#317,2.4);
#64=CIRCLE('',#320,2.4);
#65=CIRCLE('',#321,2.4);
#66=CIRCLE('',#323,2.80838475772934);
#67=CIRCLE('',#325,3.65708965343809);
#68=CIRCLE('',#328,2.80838475772934);
#69=CIRCLE('',#330,3.65708965343809);
#70=ADVANCED_FACE('',(#93),#85,.F.);
#71=ADVANCED_FACE('',(#94),#51,.T.);
#72=ADVANCED_FACE('',(#95),#86,.F.);
#73=ADVANCED_FACE('',(#37,#38),#52,.F.);
#74=ADVANCED_FACE('',(#96),#53,.T.);
#75=ADVANCED_FACE('',(#97),#87,.F.);
#76=ADVANCED_FACE('',(#98),#54,.T.);
#77=ADVANCED_FACE('',(#99),#88,.F.);
#78=ADVANCED_FACE('',(#100),#55,.T.);
#79=ADVANCED_FACE('',(#39,#40),#89,.F.);
#80=ADVANCED_FACE('',(#41,#42),#35,.F.);
#81=ADVANCED_FACE('',(#43,#44),#90,.F.);
#82=ADVANCED_FACE('',(#45,#46),#91,.F.);
#83=ADVANCED_FACE('',(#47,#48),#36,.F.);
#84=ADVANCED_FACE('',(#49,#50),#92,.F.);
#85=PLANE('',#304);
#86=PLANE('',#308);
#87=PLANE('',#315);
#88=PLANE('',#319);
#89=PLANE('',#324);
#90=PLANE('',#327);
#91=PLANE('',#329);
#92=PLANE('',#332);
#93=FACE_OUTER_BOUND('',#101,.T.);
#94=FACE_OUTER_BOUND('',#102,.T.);
#95=FACE_OUTER_BOUND('',#103,.T.);
#96=FACE_OUTER_BOUND('',#106,.T.);
#97=FACE_OUTER_BOUND('',#107,.T.);
#98=FACE_OUTER_BOUND('',#108,.T.);
#99=FACE_OUTER_BOUND('',#109,.T.);
#100=FACE_OUTER_BOUND('',#110,.T.);
#101=EDGE_LOOP('',(#123,#124,#125,#126));
#102=EDGE_LOOP('',(#127,#128,#129,#130));
#103=EDGE_LOOP('',(#131,#132,#133,#134));
#104=EDGE_LOOP('',(#135));
#105=EDGE_LOOP('',(#136));
#106=EDGE_LOOP('',(#137,#138,#139,#140));
#107=EDGE_LOOP('',(#141,#142,#143,#144));
#108=EDGE_LOOP('',(#145,#146,#147,#148));
#109=EDGE_LOOP('',(#149,#150,#151,#152));
#110=EDGE_LOOP('',(#153,#154,#155,#156));
#111=EDGE_LOOP('',(#157));
#112=EDGE_LOOP('',(#158));
#113=EDGE_LOOP('',(#159));
#114=EDGE_LOOP('',(#160));
#115=EDGE_LOOP('',(#161));
#116=EDGE_LOOP('',(#162,#163,#164,#165,#166,#167,#168,#169));
#117=EDGE_LOOP('',(#170));
#118=EDGE_LOOP('',(#171));
#119=EDGE_LOOP('',(#172));
#120=EDGE_LOOP('',(#173));
#121=EDGE_LOOP('',(#174));
#122=EDGE_LOOP('',(#175,#176,#177,#178,#179,#180,#181,#182));
#123=ORIENTED_EDGE('',*,*,#205,.T.);
#124=ORIENTED_EDGE('',*,*,#206,.F.);
#125=ORIENTED_EDGE('',*,*,#207,.F.);
#126=ORIENTED_EDGE('',*,*,#208,.F.);
#127=ORIENTED_EDGE('',*,*,#207,.T.);
#128=ORIENTED_EDGE('',*,*,#209,.F.);
#129=ORIENTED_EDGE('',*,*,#210,.F.);
#130=ORIENTED_EDGE('',*,*,#211,.F.);
#131=ORIENTED_EDGE('',*,*,#210,.T.);
#132=ORIENTED_EDGE('',*,*,#212,.F.);
#133=ORIENTED_EDGE('',*,*,#213,.F.);
#134=ORIENTED_EDGE('',*,*,#214,.F.);
#135=ORIENTED_EDGE('',*,*,#215,.T.);
#136=ORIENTED_EDGE('',*,*,#216,.T.);
#137=ORIENTED_EDGE('',*,*,#213,.T.);
#138=ORIENTED_EDGE('',*,*,#217,.F.);
#139=ORIENTED_EDGE('',*,*,#218,.F.);
#140=ORIENTED_EDGE('',*,*,#219,.F.);
#141=ORIENTED_EDGE('',*,*,#218,.T.);
#142=ORIENTED_EDGE('',*,*,#220,.F.);
#143=ORIENTED_EDGE('',*,*,#221,.T.);
#144=ORIENTED_EDGE('',*,*,#222,.F.);
#145=ORIENTED_EDGE('',*,*,#221,.F.);
#146=ORIENTED_EDGE('',*,*,#223,.F.);
#147=ORIENTED_EDGE('',*,*,#224,.T.);
#148=ORIENTED_EDGE('',*,*,#225,.F.);
#149=ORIENTED_EDGE('',*,*,#224,.F.);
#150=ORIENTED_EDGE('',*,*,#226,.F.);
#151=ORIENTED_EDGE('',*,*,#227,.F.);
#152=ORIENTED_EDGE('',*,*,#228,.F.);
#153=ORIENTED_EDGE('',*,*,#227,.T.);
#154=ORIENTED_EDGE('',*,*,#229,.F.);
#155=ORIENTED_EDGE('',*,*,#205,.F.);
#156=ORIENTED_EDGE('',*,*,#230,.F.);
#157=ORIENTED_EDGE('',*,*,#215,.F.);
#158=ORIENTED_EDGE('',*,*,#231,.F.);
#159=ORIENTED_EDGE('',*,*,#232,.T.);
#160=ORIENTED_EDGE('',*,*,#231,.T.);
#161=ORIENTED_EDGE('',*,*,#232,.F.);
#162=ORIENTED_EDGE('',*,*,#211,.T.);
#163=ORIENTED_EDGE('',*,*,#214,.T.);
#164=ORIENTED_EDGE('',*,*,#219,.T.);
#165=ORIENTED_EDGE('',*,*,#222,.T.);
#166=ORIENTED_EDGE('',*,*,#225,.T.);
#167=ORIENTED_EDGE('',*,*,#228,.T.);
#168=ORIENTED_EDGE('',*,*,#230,.T.);
#169=ORIENTED_EDGE('',*,*,#208,.T.);
#170=ORIENTED_EDGE('',*,*,#216,.F.);
#171=ORIENTED_EDGE('',*,*,#233,.F.);
#172=ORIENTED_EDGE('',*,*,#234,.T.);
#173=ORIENTED_EDGE('',*,*,#233,.T.);
#174=ORIENTED_EDGE('',*,*,#234,.F.);
#175=ORIENTED_EDGE('',*,*,#209,.T.);
#176=ORIENTED_EDGE('',*,*,#206,.T.);
#177=ORIENTED_EDGE('',*,*,#229,.T.);
#178=ORIENTED_EDGE('',*,*,#226,.T.);
#179=ORIENTED_EDGE('',*,*,#223,.T.);
#180=ORIENTED_EDGE('',*,*,#220,.T.);
#181=ORIENTED_EDGE('',*,*,#217,.T.);
#182=ORIENTED_EDGE('',*,*,#212,.T.);
#183=VERTEX_POINT('',#503);
#184=VERTEX_POINT('',#504);
#185=VERTEX_POINT('',#506);
#186=VERTEX_POINT('',#508);
#187=VERTEX_POINT('',#512);
#188=VERTEX_POINT('',#514);
#189=VERTEX_POINT('',#518);
#190=VERTEX_POINT('',#520);
#191=VERTEX_POINT('',#524);
#192=VERTEX_POINT('',#526);
#193=VERTEX_POINT('',#529);
#194=VERTEX_POINT('',#531);
#195=VERTEX_POINT('',#535);
#196=VERTEX_POINT('',#537);
#197=VERTEX_POINT('',#541);
#198=VERTEX_POINT('',#543);
#199=VERTEX_POINT('',#547);
#200=VERTEX_POINT('',#549);
#201=VERTEX_POINT('',#556);
#202=VERTEX_POINT('',#559);
#203=VERTEX_POINT('',#563);
#204=VERTEX_POINT('',#566);
#205=EDGE_CURVE('',#183,#184,#235,.T.);
#206=EDGE_CURVE('',#185,#184,#236,.T.);
#207=EDGE_CURVE('',#186,#185,#237,.T.);
#208=EDGE_CURVE('',#183,#186,#238,.T.);
#209=EDGE_CURVE('',#187,#185,#56,.T.);
#210=EDGE_CURVE('',#188,#187,#239,.T.);
#211=EDGE_CURVE('',#186,#188,#57,.T.);
#212=EDGE_CURVE('',#189,#187,#240,.T.);
#213=EDGE_CURVE('',#190,#189,#241,.T.);
#214=EDGE_CURVE('',#188,#190,#242,.T.);
#215=EDGE_CURVE('',#191,#191,#58,.T.);
#216=EDGE_CURVE('',#192,#192,#59,.T.);
#217=EDGE_CURVE('',#193,#189,#60,.T.);
#218=EDGE_CURVE('',#194,#193,#243,.T.);
#219=EDGE_CURVE('',#190,#194,#61,.T.);
#220=EDGE_CURVE('',#195,#193,#244,.T.);
#221=EDGE_CURVE('',#195,#196,#245,.T.);
#222=EDGE_CURVE('',#194,#196,#246,.T.);
#223=EDGE_CURVE('',#197,#195,#62,.T.);
#224=EDGE_CURVE('',#197,#198,#247,.T.);
#225=EDGE_CURVE('',#196,#198,#63,.T.);
#226=EDGE_CURVE('',#199,#197,#248,.T.);
#227=EDGE_CURVE('',#200,#199,#249,.T.);
#228=EDGE_CURVE('',#198,#200,#250,.T.);
#229=EDGE_CURVE('',#184,#199,#64,.T.);
#230=EDGE_CURVE('',#200,#183,#65,.T.);
#231=EDGE_CURVE('',#201,#201,#66,.T.);
#232=EDGE_CURVE('',#202,#202,#67,.T.);
#233=EDGE_CURVE('',#203,#203,#68,.T.);
#234=EDGE_CURVE('',#204,#204,#69,.T.);
#235=LINE('',#502,#251);
#236=LINE('',#505,#252);
#237=LINE('',#507,#253);
#238=LINE('',#509,#254);
#239=LINE('',#513,#255);
#240=LINE('',#517,#256);
#241=LINE('',#519,#257);
#242=LINE('',#521,#258);
#243=LINE('',#530,#259);
#244=LINE('',#534,#260);
#245=LINE('',#536,#261);
#246=LINE('',#538,#262);
#247=LINE('',#542,#263);
#248=LINE('',#546,#264);
#249=LINE('',#548,#265);
#250=LINE('',#550,#266);
#251=VECTOR('',#341,1.);
#252=VECTOR('',#342,1.);
#253=VECTOR('',#343,1.);
#254=VECTOR('',#344,1.);
#255=VECTOR('',#349,1.);
#256=VECTOR('',#354,1.);
#257=VECTOR('',#355,1.);
#258=VECTOR('',#356,1.);
#259=VECTOR('',#367,1.);
#260=VECTOR('',#372,1.);
#261=VECTOR('',#373,1.);
#262=VECTOR('',#374,1.);
#263=VECTOR('',#379,1.);
#264=VECTOR('',#384,1.);
#265=VECTOR('',#385,1.);
#266=VECTOR('',#386,1.);
#267=INVISIBILITY((#282));
#268=CURVE_STYLE('',#273,POSITIVE_LENGTH_MEASURE(0.7),#272);
#269=CURVE_STYLE('',#274,POSITIVE_LENGTH_MEASURE(0.13),#298);
#270=CURVE_STYLE('',#275,POSITIVE_LENGTH_MEASURE(0.18),#297);
#271=CURVE_STYLE('',#276,POSITIVE_LENGTH_MEASURE(0.18),#297);
#272=DRAUGHTING_PRE_DEFINED_COLOUR('blue');
#273=DRAUGHTING_PRE_DEFINED_CURVE_FONT('continuous');
#274=DRAUGHTING_PRE_DEFINED_CURVE_FONT('continuous');
#275=DRAUGHTING_PRE_DEFINED_CURVE_FONT('continuous');
#276=DRAUGHTING_PRE_DEFINED_CURVE_FONT('continuous');
#277=B_SPLINE_CURVE_WITH_KNOTS('CUTTING EDGE LINE',3,(#418,#419,#420,#421,
#422,#423,#424,#425,#426,#427,#428,#429,#430,#431,#432,#433,#434,#435,#436,
#437,#438,#439,#440,#441,#442,#443,#444,#445,#446,#447,#448,#449,#450,#451,
#452,#453,#454,#455,#456,#457,#458,#459,#460,#461,#462,#463,#464,#465,#466,
#467,#468,#469,#470,#471,#472,#473,#474,#475,#476,#477,#478,#479,#480,#481,
#482,#483,#484,#485,#486,#487,#488,#489,#490,#491,#492,#493,#494,#495,#496,
#497,#498),.UNSPECIFIED.,.T.,.F.,(4,1,1,1,1,1,1,1,1,1,1,1,1,1,1,1,1,1,1,
1,1,1,1,1,1,1,1,1,1,1,1,1,1,1,1,1,1,1,1,1,1,1,1,1,1,1,1,1,1,1,1,1,1,1,1,
1,1,1,1,1,1,1,1,1,1,1,1,1,1,1,1,1,1,1,1,1,1,1,4),(0.,0.08461932435,0.166594294814062,
0.167916471757031,0.1692386487,0.169869596757031,0.171762440928125,0.17428623315625,
0.1793338176125,0.189428986525,0.1995241554375,0.20961932435,0.2197144932625,
0.229809662175,0.2399048310875,0.24495241554375,0.247476207771875,0.249369051942969,
0.25,0.251322176942969,0.252644353885937,0.33461932435,0.376928986525,0.416594294814063,
0.417916471757031,0.4192386487,0.419869596757031,0.421762440928125,0.42428623315625,
0.4293338176125,0.439428986525,0.4495241554375,0.45961932435,0.4697144932625,
0.479809662175,0.4899048310875,0.49495241554375,0.497476207771875,0.499369051942969,
0.5,0.501322176942969,0.502644353885938,0.58461932435,0.626928986525,0.666594294814063,
0.667916471757031,0.6692386487,0.669869596757031,0.671762440928125,0.67428623315625,
0.6793338176125,0.689428986525,0.6995241554375,0.70961932435,0.7197144932625,
0.729809662175,0.7399048310875,0.74495241554375,0.747476207771875,0.749369051942969,
0.75,0.751322176942969,0.752644353885938,0.83461932435,0.876928986525,0.916594294814063,
0.917916471757031,0.9192386487,0.919869596757031,0.921762440928125,0.92428623315625,
0.9293338176125,0.939428986525,0.9495241554375,0.95961932435,0.9697144932625,
0.979809662175,0.9899048310875,1.),.UNSPECIFIED.);
#278=PRESENTATION_LAYER_ASSIGNMENT('1','Layer 1',(#416,#417,#277,#301,#302,
#303,#33));
#279=STYLED_ITEM('',(#286),#416);
#280=STYLED_ITEM('',(#287),#417);
#281=STYLED_ITEM('',(#288),#277);
#282=STYLED_ITEM('',(#289),#301);
#283=STYLED_ITEM('',(#290),#302);
#284=STYLED_ITEM('',(#291),#303);
#285=STYLED_ITEM('',(#292),#33);
#286=PRESENTATION_STYLE_ASSIGNMENT((#293));
#287=PRESENTATION_STYLE_ASSIGNMENT((#294));
#288=PRESENTATION_STYLE_ASSIGNMENT((#268));
#289=PRESENTATION_STYLE_ASSIGNMENT((#269));
#290=PRESENTATION_STYLE_ASSIGNMENT((#270));
#291=PRESENTATION_STYLE_ASSIGNMENT((#271));
#292=PRESENTATION_STYLE_ASSIGNMENT((#28));
#293=POINT_STYLE('',#295,POSITIVE_LENGTH_MEASURE(3.),#297);
#294=POINT_STYLE('',#296,POSITIVE_LENGTH_MEASURE(3.),#297);
#295=PRE_DEFINED_POINT_MARKER_SYMBOL('plus');
#296=PRE_DEFINED_POINT_MARKER_SYMBOL('plus');
#297=COLOUR_RGB('Dark Red Pink',0.8,0.,0.2);
#298=COLOUR_RGB('Dark Cyan Teal',0.,0.8,0.6);
#299=COLOUR_RGB('Pale Gray',0.8,0.8,0.8);
#300=AXIS2_PLACEMENT_3D('',#415,#333,#334);
#301=AXIS2_PLACEMENT_3D('',#499,#335,#336);
#302=AXIS2_PLACEMENT_3D('MCS',#500,#337,#338);
#303=AXIS2_PLACEMENT_3D('PCS',#501,#339,#340);
#304=AXIS2_PLACEMENT_3D('',#510,#345,#346);
#305=AXIS2_PLACEMENT_3D('',#511,#347,#348);
#306=AXIS2_PLACEMENT_3D('',#515,#350,#351);
#307=AXIS2_PLACEMENT_3D('',#516,#352,#353);
#308=AXIS2_PLACEMENT_3D('',#522,#357,#358);
#309=AXIS2_PLACEMENT_3D('',#523,#359,#360);
#310=AXIS2_PLACEMENT_3D('',#525,#361,#362);
#311=AXIS2_PLACEMENT_3D('',#527,#363,#364);
#312=AXIS2_PLACEMENT_3D('',#528,#365,#366);
#313=AXIS2_PLACEMENT_3D('',#532,#368,#369);
#314=AXIS2_PLACEMENT_3D('',#533,#370,#371);
#315=AXIS2_PLACEMENT_3D('',#539,#375,#376);
#316=AXIS2_PLACEMENT_3D('',#540,#377,#378);
#317=AXIS2_PLACEMENT_3D('',#544,#380,#381);
#318=AXIS2_PLACEMENT_3D('',#545,#382,#383);
#319=AXIS2_PLACEMENT_3D('',#551,#387,#388);
#320=AXIS2_PLACEMENT_3D('',#552,#389,#390);
#321=AXIS2_PLACEMENT_3D('',#553,#391,#392);
#322=AXIS2_PLACEMENT_3D('',#554,#393,#394);
#323=AXIS2_PLACEMENT_3D('',#555,#395,#396);
#324=AXIS2_PLACEMENT_3D('',#557,#397,#398);
#325=AXIS2_PLACEMENT_3D('',#558,#399,#400);
#326=AXIS2_PLACEMENT_3D('',#560,#401,#402);
#327=AXIS2_PLACEMENT_3D('',#561,#403,#404);
#328=AXIS2_PLACEMENT_3D('',#562,#405,#406);
#329=AXIS2_PLACEMENT_3D('',#564,#407,#408);
#330=AXIS2_PLACEMENT_3D('',#565,#409,#410);
#331=AXIS2_PLACEMENT_3D('',#567,#411,#412);
#332=AXIS2_PLACEMENT_3D('',#568,#413,#414);
#333=DIRECTION('',(0.,0.,1.));
#334=DIRECTION('',(1.,0.,0.));
#335=DIRECTION('',(0.,0.,1.));
#336=DIRECTION('',(1.,0.,0.));
#337=DIRECTION('',(0.,0.,1.));
#338=DIRECTION('',(0.,-1.,0.));
#339=DIRECTION('',(0.,0.,1.));
#340=DIRECTION('',(0.,-1.,0.));
#341=DIRECTION('',(0.,0.,1.));
#342=DIRECTION('',(-1.,0.,0.));
#343=DIRECTION('',(0.,0.,1.));
#344=DIRECTION('',(1.,0.,0.));
#345=DIRECTION('',(0.,-1.,0.));
#346=DIRECTION('',(0.,0.,-1.));
#347=DIRECTION('',(0.,0.,1.));
#348=DIRECTION('',(1.,0.,0.));
#349=DIRECTION('',(0.,0.,1.));
#350=DIRECTION('',(0.,0.,-1.));
#351=DIRECTION('',(1.,0.,0.));
#352=DIRECTION('',(0.,0.,1.));
#353=DIRECTION('',(0.,-1.,0.));
#354=DIRECTION('',(-2.22044604925031E-16,1.,0.));
#355=DIRECTION('',(0.,0.,1.));
#356=DIRECTION('',(2.22044604925031E-16,-1.,0.));
#357=DIRECTION('',(-1.,-2.22044604925031E-16,0.));
#358=DIRECTION('',(0.,0.,-1.));
#359=DIRECTION('',(0.,0.,-1.));
#360=DIRECTION('',(1.,0.,0.));
#361=DIRECTION('',(0.,0.,1.));
#362=DIRECTION('',(1.,0.,0.));
#363=DIRECTION('',(0.,0.,1.));
#364=DIRECTION('',(0.,-1.,0.));
#365=DIRECTION('',(0.,0.,1.));
#366=DIRECTION('',(1.,0.,0.));
#367=DIRECTION('',(0.,0.,1.));
#368=DIRECTION('',(0.,0.,-1.));
#369=DIRECTION('',(1.,0.,0.));
#370=DIRECTION('',(0.,0.,1.));
#371=DIRECTION('',(-1.,0.,0.));
#372=DIRECTION('',(1.,2.22044604925031E-16,0.));
#373=DIRECTION('',(0.,0.,-1.));
#374=DIRECTION('',(-1.,-2.22044604925031E-16,0.));
#375=DIRECTION('',(-2.22044604925031E-16,1.,0.));
#376=DIRECTION('',(0.,0.,-1.));
#377=DIRECTION('',(0.,0.,1.));
#378=DIRECTION('',(1.,0.,0.));
#379=DIRECTION('',(0.,0.,-1.));
#380=DIRECTION('',(0.,0.,-1.));
#381=DIRECTION('',(1.,0.,0.));
#382=DIRECTION('',(0.,0.,1.));
#383=DIRECTION('',(0.,1.,0.));
#384=DIRECTION('',(2.22044604925031E-16,-1.,0.));
#385=DIRECTION('',(0.,0.,1.));
#386=DIRECTION('',(-2.22044604925031E-16,1.,0.));
#387=DIRECTION('',(1.,2.22044604925031E-16,0.));
#388=DIRECTION('',(0.,0.,-1.));
#389=DIRECTION('',(0.,0.,1.));
#390=DIRECTION('',(1.,0.,0.));
#391=DIRECTION('',(0.,0.,-1.));
#392=DIRECTION('',(1.,0.,0.));
#393=DIRECTION('',(0.,0.,1.));
#394=DIRECTION('',(1.,0.,0.));
#395=DIRECTION('',(0.,0.,1.));
#396=DIRECTION('',(1.,0.,0.));
#397=DIRECTION('',(0.,0.,1.));
#398=DIRECTION('',(1.,0.,0.));
#399=DIRECTION('',(0.,0.,-1.));
#400=DIRECTION('',(1.,0.,0.));
#401=DIRECTION('',(0.,0.,-1.));
#402=DIRECTION('',(-1.,0.,8.9989348356425E-18));
#403=DIRECTION('',(0.,0.,1.));
#404=DIRECTION('',(1.,0.,0.));
#405=DIRECTION('',(0.,0.,-1.));
#406=DIRECTION('',(-1.,0.,0.));
#407=DIRECTION('',(0.,0.,-1.));
#408=DIRECTION('',(1.,0.,0.));
#409=DIRECTION('',(0.,0.,1.));
#410=DIRECTION('',(1.,0.,0.));
#411=DIRECTION('',(0.,0.,1.));
#412=DIRECTION('',(-1.,0.,-1.49982247260708E-18));
#413=DIRECTION('',(0.,0.,-1.));
#414=DIRECTION('',(1.,0.,0.));
#415=CARTESIAN_POINT('',(0.,0.,0.));
#416=CARTESIAN_POINT('',(3.8683599522529E-15,-3.86835995225293E-15,0.));
#417=CARTESIAN_POINT('',(-6.35,6.35,0.));
#418=CARTESIAN_POINT('',(-3.94999999984191,6.35,0.));
#419=CARTESIAN_POINT('',(-2.63333333333333,6.35,0.));
#420=CARTESIAN_POINT('',(-0.0411458333333337,6.35,0.));
#421=CARTESIAN_POINT('',(2.57161458333333,6.35,0.));
#422=CARTESIAN_POINT('',(3.88828125,6.35,0.));
#423=CARTESIAN_POINT('',(3.93924456849414,6.35006332046721,0.));
#424=CARTESIAN_POINT('',(3.99908735428488,6.34975826578452,0.));
#425=CARTESIAN_POINT('',(4.07760329976915,6.34734324797418,0.));
#426=CARTESIAN_POINT('',(4.2245106399578,6.33650007344479,0.));
#427=CARTESIAN_POINT('',(4.49675590427968,6.29614905182636,0.));
#428=CARTESIAN_POINT('',(4.87436072906254,6.18160420886687,0.));
#429=CARTESIAN_POINT('',(5.29196357002752,5.95839041246589,0.));
#430=CARTESIAN_POINT('',(5.65799591657943,5.65799591669451,0.));
#431=CARTESIAN_POINT('',(5.95839041229702,5.29196357028636,0.));
#432=CARTESIAN_POINT('',(6.1816042088135,4.87436072922898,0.));
#433=CARTESIAN_POINT('',(6.29614905183481,4.49675590426424,0.));
#434=CARTESIAN_POINT('',(6.3365000734504,4.22451063994454,0.));
#435=CARTESIAN_POINT('',(6.34734324797575,4.07760329976529,0.));
#436=CARTESIAN_POINT('',(6.34975826578468,3.99908735428447,0.));
#437=CARTESIAN_POINT('',(6.35006332046716,3.93924456849424,0.));
#438=CARTESIAN_POINT('',(6.35,3.88828125,0.));
#439=CARTESIAN_POINT('',(6.35,2.57161458333334,0.));
#440=CARTESIAN_POINT('',(6.35,0.617187500000001,0.));
#441=CARTESIAN_POINT('',(6.35,-1.93385416666667,0.));
#442=CARTESIAN_POINT('',(6.35,-3.22994791666667,0.));
#443=CARTESIAN_POINT('',(6.35,-3.88828125,0.));
#444=CARTESIAN_POINT('',(6.35006332046721,-3.93924456849414,0.));
#445=CARTESIAN_POINT('',(6.34975826578452,-3.99908735428488,0.));
#446=CARTESIAN_POINT('',(6.34734324797418,-4.07760329976915,0.));
#447=CARTESIAN_POINT('',(6.33650007344479,-4.2245106399578,0.));
#448=CARTESIAN_POINT('',(6.29614905182636,-4.49675590427968,0.));
#449=CARTESIAN_POINT('',(6.18160420886687,-4.87436072906254,0.));
#450=CARTESIAN_POINT('',(5.95839041246588,-5.29196357002753,0.));
#451=CARTESIAN_POINT('',(5.65799591669451,-5.65799591657943,0.));
#452=CARTESIAN_POINT('',(5.29196357028636,-5.95839041229702,0.));
#453=CARTESIAN_POINT('',(4.87436072922898,-6.1816042088135,0.));
#454=CARTESIAN_POINT('',(4.49675590426423,-6.29614905183481,0.));
#455=CARTESIAN_POINT('',(4.22451063994454,-6.3365000734504,0.));
#456=CARTESIAN_POINT('',(4.07760329976528,-6.34734324797575,0.));
#457=CARTESIAN_POINT('',(3.99908735428447,-6.34975826578468,0.));
#458=CARTESIAN_POINT('',(3.93924456849424,-6.35006332046716,0.));
#459=CARTESIAN_POINT('',(3.88828125,-6.35,0.));
#460=CARTESIAN_POINT('',(2.57161458333333,-6.35,0.));
#461=CARTESIAN_POINT('',(0.617187500000002,-6.35,0.));
#462=CARTESIAN_POINT('',(-1.93385416666666,-6.35,0.));
#463=CARTESIAN_POINT('',(-3.22994791666666,-6.35,0.));
#464=CARTESIAN_POINT('',(-3.88828125,-6.35,0.));
#465=CARTESIAN_POINT('',(-3.93924456849414,-6.35006332046721,0.));
#466=CARTESIAN_POINT('',(-3.99908735428488,-6.34975826578452,0.));
#467=CARTESIAN_POINT('',(-4.07760329976915,-6.34734324797418,0.));
#468=CARTESIAN_POINT('',(-4.2245106399578,-6.33650007344479,0.));
#469=CARTESIAN_POINT('',(-4.49675590427968,-6.29614905182636,0.));
#470=CARTESIAN_POINT('',(-4.87436072906254,-6.18160420886687,0.));
#471=CARTESIAN_POINT('',(-5.29196357002752,-5.95839041246589,0.));
#472=CARTESIAN_POINT('',(-5.65799591657943,-5.65799591669451,0.));
#473=CARTESIAN_POINT('',(-5.95839041229702,-5.29196357028636,0.));
#474=CARTESIAN_POINT('',(-6.1816042088135,-4.87436072922898,0.));
#475=CARTESIAN_POINT('',(-6.29614905183481,-4.49675590426423,0.));
#476=CARTESIAN_POINT('',(-6.3365000734504,-4.22451063994454,0.));
#477=CARTESIAN_POINT('',(-6.34734324797575,-4.07760329976529,0.));
#478=CARTESIAN_POINT('',(-6.34975826578468,-3.99908735428447,0.));
#479=CARTESIAN_POINT('',(-6.35006332046716,-3.93924456849424,0.));
#480=CARTESIAN_POINT('',(-6.35,-3.88828125,0.));
#481=CARTESIAN_POINT('',(-6.35,-2.57161458333333,0.));
#482=CARTESIAN_POINT('',(-6.35,-0.6171875,0.));
#483=CARTESIAN_POINT('',(-6.35,1.93385416666667,0.));
#484=CARTESIAN_POINT('',(-6.35,3.22994791666667,0.));
#485=CARTESIAN_POINT('',(-6.35,3.88828125,0.));
#486=CARTESIAN_POINT('',(-6.35006332046721,3.93924456849414,0.));
#487=CARTESIAN_POINT('',(-6.34975826578452,3.99908735428488,0.));
#488=CARTESIAN_POINT('',(-6.34734324797418,4.07760329976915,0.));
#489=CARTESIAN_POINT('',(-6.33650007344479,4.2245106399578,0.));
#490=CARTESIAN_POINT('',(-6.29614905182636,4.49675590427968,0.));
#491=CARTESIAN_POINT('',(-6.18160420886687,4.87436072906254,0.));
#492=CARTESIAN_POINT('',(-5.95839041246589,5.29196357002752,0.));
#493=CARTESIAN_POINT('',(-5.65799591669451,5.65799591657943,0.));
#494=CARTESIAN_POINT('',(-5.29196357028636,5.95839041229702,0.));
#495=CARTESIAN_POINT('',(-4.87436072922898,6.1816042088135,0.));
#496=CARTESIAN_POINT('',(-4.42123493927129,6.31905802043907,0.));
#497=CARTESIAN_POINT('',(-4.10707963267949,6.35,0.));
#498=CARTESIAN_POINT('',(-3.94999999984191,6.35,0.));
#499=CARTESIAN_POINT('',(0.,0.,0.));
#500=CARTESIAN_POINT('',(3.8683599522529E-15,-3.86835995225293E-15,0.));
#501=CARTESIAN_POINT('',(-6.35,6.35,0.));
#502=CARTESIAN_POINT('',(-3.95,6.35,-3.335));
#503=CARTESIAN_POINT('',(-3.95,6.35,-4.76));
#504=CARTESIAN_POINT('',(-3.95,6.35,0.));
#505=CARTESIAN_POINT('',(0.,6.35,0.));
#506=CARTESIAN_POINT('',(3.95,6.35,0.));
#507=CARTESIAN_POINT('',(3.95,6.35,-3.335));
#508=CARTESIAN_POINT('',(3.95,6.35,-4.76));
#509=CARTESIAN_POINT('',(0.,6.35,-4.76));
#510=CARTESIAN_POINT('',(-7.72198,6.35,0.));
#511=CARTESIAN_POINT('',(3.95,3.95,0.));
#512=CARTESIAN_POINT('',(6.35,3.95,0.));
#513=CARTESIAN_POINT('',(6.35,3.95,-3.335));
#514=CARTESIAN_POINT('',(6.35,3.95,-4.76));
#515=CARTESIAN_POINT('',(3.95,3.95,-4.76));
#516=CARTESIAN_POINT('',(3.95,3.95,-7.25358566407643));
#517=CARTESIAN_POINT('',(6.35,1.40998324127395E-15,0.));
#518=CARTESIAN_POINT('',(6.35,-3.95,0.));
#519=CARTESIAN_POINT('',(6.35,-3.95,-3.335));
#520=CARTESIAN_POINT('',(6.35,-3.95,-4.76));
#521=CARTESIAN_POINT('',(6.35,1.40998324127395E-15,-4.76));
#522=CARTESIAN_POINT('',(6.35,-7.72198,0.));
#523=CARTESIAN_POINT('',(3.8683599522529E-15,-3.86835995225293E-15,-4.27));
#524=CARTESIAN_POINT('',(2.578,-3.86835995225293E-15,-4.27));
#525=CARTESIAN_POINT('',(3.8683599522529E-15,-3.86835995225293E-15,-0.49));
#526=CARTESIAN_POINT('',(2.578,-3.86835995225293E-15,-0.49));
#527=CARTESIAN_POINT('',(0.,0.,0.19));
#528=CARTESIAN_POINT('',(3.95,-3.95,0.));
#529=CARTESIAN_POINT('',(3.95,-6.35,0.));
#530=CARTESIAN_POINT('',(3.95,-6.35,-3.335));
#531=CARTESIAN_POINT('',(3.95,-6.35,-4.76));
#532=CARTESIAN_POINT('',(3.95,-3.95,-4.76));
#533=CARTESIAN_POINT('',(3.95,-3.95,-7.25358566407643));
#534=CARTESIAN_POINT('',(1.40998324127395E-15,-6.35,0.));
#535=CARTESIAN_POINT('',(-3.95,-6.35,0.));
#536=CARTESIAN_POINT('',(-3.95,-6.35,-3.335));
#537=CARTESIAN_POINT('',(-3.95,-6.35,-4.76));
#538=CARTESIAN_POINT('',(1.40998324127395E-15,-6.35,-4.76));
#539=CARTESIAN_POINT('',(-7.72198,-6.35,0.));
#540=CARTESIAN_POINT('',(-3.95,-3.95,0.));
#541=CARTESIAN_POINT('',(-6.35,-3.95,0.));
#542=CARTESIAN_POINT('',(-6.35,-3.95,-3.335));
#543=CARTESIAN_POINT('',(-6.35,-3.95,-4.76));
#544=CARTESIAN_POINT('',(-3.95,-3.95,-4.76));
#545=CARTESIAN_POINT('',(-3.95,-3.95,-7.25358566407643));
#546=CARTESIAN_POINT('',(-6.35,-1.40998324127395E-15,0.));
#547=CARTESIAN_POINT('',(-6.35,3.95,0.));
#548=CARTESIAN_POINT('',(-6.35,3.95,-3.335));
#549=CARTESIAN_POINT('',(-6.35,3.95,-4.76));
#550=CARTESIAN_POINT('',(-6.35,-1.40998324127395E-15,-4.76));
#551=CARTESIAN_POINT('',(-6.35,7.72198,0.));
#552=CARTESIAN_POINT('',(-3.95,3.95,0.));
#553=CARTESIAN_POINT('',(-3.95,3.95,-4.76));
#554=CARTESIAN_POINT('',(-3.95,3.95,-7.25358566407643));
#555=CARTESIAN_POINT('',(3.8683599522529E-15,-3.86835995225293E-15,-4.27));
#556=CARTESIAN_POINT('',(2.80838475772934,-3.86835995225293E-15,-4.27));
#557=CARTESIAN_POINT('',(3.8683599522529E-15,-3.86835995225293E-15,-4.27));
#558=CARTESIAN_POINT('',(3.8683599522529E-15,-3.86835995225293E-15,-4.76));
#559=CARTESIAN_POINT('',(3.65708965343809,-3.86835995225293E-15,-4.76));
#560=CARTESIAN_POINT('',(3.8683599522529E-15,-3.86835995225293E-15,-4.31019237886467));
#561=CARTESIAN_POINT('',(0.,0.,-4.76));
#562=CARTESIAN_POINT('',(3.8683599522529E-15,-3.86835995225293E-15,-0.49));
#563=CARTESIAN_POINT('',(-2.80838475772933,-3.86835995225293E-15,-0.49));
#564=CARTESIAN_POINT('',(3.8683599522529E-15,-3.86835995225293E-15,-0.49));
#565=CARTESIAN_POINT('',(3.8683599522529E-15,-3.86835995225293E-15,0.));
#566=CARTESIAN_POINT('',(3.65708965343809,-3.86835995225293E-15,0.));
#567=CARTESIAN_POINT('',(3.8683599522529E-15,-3.86835995225293E-15,-0.449807621135332));
#568=CARTESIAN_POINT('',(0.,0.,0.));
#569=MECHANICAL_DESIGN_GEOMETRIC_PRESENTATION_REPRESENTATION('',(#279,#280,
#281,#282,#283,#284,#285),#570);
#570=(
GEOMETRIC_REPRESENTATION_CONTEXT(3)
GLOBAL_UNCERTAINTY_ASSIGNED_CONTEXT((#571))
GLOBAL_UNIT_ASSIGNED_CONTEXT((#577,#573,#572))
REPRESENTATION_CONTEXT('aaa337442_a','TOP_LEVEL_ASSEMBLY_PART')
);
#571=UNCERTAINTY_MEASURE_WITH_UNIT(LENGTH_MEASURE(2.E-5),#577,
'DISTANCE_ACCURACY_VALUE','Maximum Tolerance applied to model');
#572=(
NAMED_UNIT(*)
SI_UNIT($,.STERADIAN.)
SOLID_ANGLE_UNIT()
);
#573=(
CONVERSION_BASED_UNIT('DEGREE',#575)
NAMED_UNIT(#574)
PLANE_ANGLE_UNIT()
);
#574=DIMENSIONAL_EXPONENTS(0.,0.,0.,0.,0.,0.,0.);
#575=PLANE_ANGLE_MEASURE_WITH_UNIT(PLANE_ANGLE_MEASURE(0.0174532925),#576);
#576=(
NAMED_UNIT(*)
PLANE_ANGLE_UNIT()
SI_UNIT($,.RADIAN.)
);
#577=(
LENGTH_UNIT()
NAMED_UNIT(*)
SI_UNIT(.MILLI.,.METRE.)
);
ENDSEC;
END-ISO-10303-21;
