ISO-10303-21;
HEADER;
/* Generated by software containing ST-Developer
 * from STEP Tools, Inc. (www.steptools.com) 
 */
/* OPTION: using custom schema-name function */

FILE_DESCRIPTION(
/* description */ (''),
/* implementation_level */ '2;1');

FILE_NAME(
/* name */ 'aaa338024_a.stp',
/* time_stamp */ '2019-09-19T14:36:38+02:00',
/* author */ (''),
/* organization */ ('SMS'),
/* preprocessor_version */ 'ST-DEVELOPER v16.7',
/* originating_system */ 'SIEMENS PLM Software NX 12.0',
/* authorisation */ '');

FILE_SCHEMA (('AUTOMOTIVE_DESIGN { 1 0 10303 214 3 1 1 1 }'));
ENDSEC;

DATA;
#10=CONSTRUCTIVE_GEOMETRY_REPRESENTATION_RELATIONSHIP(
'supplemental geometry','',#26,#11);
#11=CONSTRUCTIVE_GEOMETRY_REPRESENTATION('supplemental geometry',(#251,
#252),#480);
#12=GEOMETRICALLY_BOUNDED_WIREFRAME_SHAPE_REPRESENTATION(
'AAA338024_A-None',(#27),#480);
#13=SHAPE_REPRESENTATION_RELATIONSHIP('None',
'relationship between AAA338024_A-None and AAA338024_A-None',#26,#15);
#14=SHAPE_REPRESENTATION_RELATIONSHIP('None',
'relationship between AAA338024_A-None and AAA338024_A-None',#26,#12);
#15=ADVANCED_BREP_SHAPE_REPRESENTATION('AAA338024_A-None',(#33),#480);
#16=SHAPE_DEFINITION_REPRESENTATION(#17,#26);
#17=PRODUCT_DEFINITION_SHAPE('','',#18);
#18=PRODUCT_DEFINITION(' ','',#20,#19);
#19=PRODUCT_DEFINITION_CONTEXT('part definition',#25,'design');
#20=PRODUCT_DEFINITION_FORMATION_WITH_SPECIFIED_SOURCE(' ',' ',#22,
 .NOT_KNOWN.);
#21=PRODUCT_RELATED_PRODUCT_CATEGORY('part','',(#22));
#22=PRODUCT('AAA338024_A','AAA338024_A','MASTER_INSERT',(#23));
#23=PRODUCT_CONTEXT(' ',#25,'mechanical');
#24=APPLICATION_PROTOCOL_DEFINITION('international standard',
'automotive_design',2010,#25);
#25=APPLICATION_CONTEXT(
'core data for automotive mechanical design processes');
#26=SHAPE_REPRESENTATION('AAA338024_A-None',(#250),#480);
#27=GEOMETRIC_CURVE_SET('None',(#339,#340,#230));
#28=SURFACE_STYLE_USAGE(.BOTH.,#29);
#29=SURFACE_SIDE_STYLE('',(#30));
#30=SURFACE_STYLE_FILL_AREA(#31);
#31=FILL_AREA_STYLE('',(#32));
#32=FILL_AREA_STYLE_COLOUR('',#249);
#33=MANIFOLD_SOLID_BREP('CUT',#34);
#34=CLOSED_SHELL('',(#48,#49,#50,#51,#52,#53,#54,#55,#56,#57,#58));
#35=CYLINDRICAL_SURFACE('',#268,4.);
#36=CYLINDRICAL_SURFACE('',#269,4.);
#37=CYLINDRICAL_SURFACE('',#271,4.);
#38=CYLINDRICAL_SURFACE('',#272,4.);
#39=CYLINDRICAL_SURFACE('',#273,3.175);
#40=FACE_OUTER_BOUND('',#107,.T.);
#41=FACE_OUTER_BOUND('',#108,.T.);
#42=FACE_OUTER_BOUND('',#109,.T.);
#43=FACE_OUTER_BOUND('',#110,.T.);
#44=FACE_OUTER_BOUND('',#111,.T.);
#45=FACE_OUTER_BOUND('',#112,.T.);
#46=FACE_OUTER_BOUND('',#113,.T.);
#47=FACE_OUTER_BOUND('',#114,.T.);
#48=ADVANCED_FACE('',(#97,#98),#59,.T.);
#49=ADVANCED_FACE('',(#99,#100),#60,.T.);
#50=ADVANCED_FACE('',(#40),#61,.T.);
#51=ADVANCED_FACE('',(#41),#62,.T.);
#52=ADVANCED_FACE('',(#42),#63,.F.);
#53=ADVANCED_FACE('',(#43),#35,.T.);
#54=ADVANCED_FACE('',(#44),#36,.T.);
#55=ADVANCED_FACE('',(#45),#64,.F.);
#56=ADVANCED_FACE('',(#46),#37,.T.);
#57=ADVANCED_FACE('',(#47),#38,.T.);
#58=ADVANCED_FACE('',(#101,#102),#39,.F.);
#59=PLANE('',#254);
#60=PLANE('',#256);
#61=PLANE('',#261);
#62=PLANE('',#266);
#63=PLANE('',#267);
#64=PLANE('',#270);
#65=LINE('',#426,#81);
#66=LINE('',#429,#82);
#67=LINE('',#431,#83);
#68=LINE('',#433,#84);
#69=LINE('',#437,#85);
#70=LINE('',#440,#86);
#71=LINE('',#442,#87);
#72=LINE('',#444,#88);
#73=LINE('',#446,#89);
#74=LINE('',#452,#90);
#75=LINE('',#459,#91);
#76=LINE('',#464,#92);
#77=LINE('',#468,#93);
#78=LINE('',#469,#94);
#79=LINE('',#473,#95);
#80=LINE('',#474,#96);
#81=VECTOR('',#282,1.);
#82=VECTOR('',#283,1.);
#83=VECTOR('',#284,1.);
#84=VECTOR('',#285,1.);
#85=VECTOR('',#290,1.);
#86=VECTOR('',#291,1.);
#87=VECTOR('',#292,1.);
#88=VECTOR('',#293,1.);
#89=VECTOR('',#296,1.);
#90=VECTOR('',#301,1.);
#91=VECTOR('',#310,1.);
#92=VECTOR('',#315,1.);
#93=VECTOR('',#320,1.);
#94=VECTOR('',#321,1.);
#95=VECTOR('',#328,1.);
#96=VECTOR('',#329,1.);
#97=FACE_BOUND('',#103,.T.);
#98=FACE_BOUND('',#104,.T.);
#99=FACE_BOUND('',#105,.T.);
#100=FACE_BOUND('',#106,.T.);
#101=FACE_BOUND('',#115,.T.);
#102=FACE_BOUND('',#116,.T.);
#103=EDGE_LOOP('',(#117));
#104=EDGE_LOOP('',(#118,#119,#120,#121));
#105=EDGE_LOOP('',(#122));
#106=EDGE_LOOP('',(#123,#124,#125,#126));
#107=EDGE_LOOP('',(#127,#128,#129,#130,#131,#132,#133,#134));
#108=EDGE_LOOP('',(#135,#136,#137,#138,#139,#140,#141,#142));
#109=EDGE_LOOP('',(#143,#144,#145,#146));
#110=EDGE_LOOP('',(#147,#148,#149,#150));
#111=EDGE_LOOP('',(#151,#152,#153,#154));
#112=EDGE_LOOP('',(#155,#156,#157,#158));
#113=EDGE_LOOP('',(#159,#160,#161,#162));
#114=EDGE_LOOP('',(#163,#164,#165,#166));
#115=EDGE_LOOP('',(#167));
#116=EDGE_LOOP('',(#168));
#117=ORIENTED_EDGE('',*,*,#187,.F.);
#118=ORIENTED_EDGE('',*,*,#188,.T.);
#119=ORIENTED_EDGE('',*,*,#189,.T.);
#120=ORIENTED_EDGE('',*,*,#190,.T.);
#121=ORIENTED_EDGE('',*,*,#191,.T.);
#122=ORIENTED_EDGE('',*,*,#192,.F.);
#123=ORIENTED_EDGE('',*,*,#193,.T.);
#124=ORIENTED_EDGE('',*,*,#194,.T.);
#125=ORIENTED_EDGE('',*,*,#195,.F.);
#126=ORIENTED_EDGE('',*,*,#196,.T.);
#127=ORIENTED_EDGE('',*,*,#197,.F.);
#128=ORIENTED_EDGE('',*,*,#198,.T.);
#129=ORIENTED_EDGE('',*,*,#193,.F.);
#130=ORIENTED_EDGE('',*,*,#199,.T.);
#131=ORIENTED_EDGE('',*,*,#200,.F.);
#132=ORIENTED_EDGE('',*,*,#201,.T.);
#133=ORIENTED_EDGE('',*,*,#190,.F.);
#134=ORIENTED_EDGE('',*,*,#202,.T.);
#135=ORIENTED_EDGE('',*,*,#195,.T.);
#136=ORIENTED_EDGE('',*,*,#203,.T.);
#137=ORIENTED_EDGE('',*,*,#204,.F.);
#138=ORIENTED_EDGE('',*,*,#205,.T.);
#139=ORIENTED_EDGE('',*,*,#188,.F.);
#140=ORIENTED_EDGE('',*,*,#206,.T.);
#141=ORIENTED_EDGE('',*,*,#207,.F.);
#142=ORIENTED_EDGE('',*,*,#208,.T.);
#143=ORIENTED_EDGE('',*,*,#204,.T.);
#144=ORIENTED_EDGE('',*,*,#209,.T.);
#145=ORIENTED_EDGE('',*,*,#197,.T.);
#146=ORIENTED_EDGE('',*,*,#210,.T.);
#147=ORIENTED_EDGE('',*,*,#203,.F.);
#148=ORIENTED_EDGE('',*,*,#194,.F.);
#149=ORIENTED_EDGE('',*,*,#198,.F.);
#150=ORIENTED_EDGE('',*,*,#209,.F.);
#151=ORIENTED_EDGE('',*,*,#202,.F.);
#152=ORIENTED_EDGE('',*,*,#189,.F.);
#153=ORIENTED_EDGE('',*,*,#205,.F.);
#154=ORIENTED_EDGE('',*,*,#210,.F.);
#155=ORIENTED_EDGE('',*,*,#207,.T.);
#156=ORIENTED_EDGE('',*,*,#211,.T.);
#157=ORIENTED_EDGE('',*,*,#200,.T.);
#158=ORIENTED_EDGE('',*,*,#212,.T.);
#159=ORIENTED_EDGE('',*,*,#208,.F.);
#160=ORIENTED_EDGE('',*,*,#212,.F.);
#161=ORIENTED_EDGE('',*,*,#199,.F.);
#162=ORIENTED_EDGE('',*,*,#196,.F.);
#163=ORIENTED_EDGE('',*,*,#201,.F.);
#164=ORIENTED_EDGE('',*,*,#211,.F.);
#165=ORIENTED_EDGE('',*,*,#206,.F.);
#166=ORIENTED_EDGE('',*,*,#191,.F.);
#167=ORIENTED_EDGE('',*,*,#187,.T.);
#168=ORIENTED_EDGE('',*,*,#192,.T.);
#169=VERTEX_POINT('',#425);
#170=VERTEX_POINT('',#427);
#171=VERTEX_POINT('',#428);
#172=VERTEX_POINT('',#430);
#173=VERTEX_POINT('',#432);
#174=VERTEX_POINT('',#436);
#175=VERTEX_POINT('',#438);
#176=VERTEX_POINT('',#439);
#177=VERTEX_POINT('',#441);
#178=VERTEX_POINT('',#443);
#179=VERTEX_POINT('',#447);
#180=VERTEX_POINT('',#448);
#181=VERTEX_POINT('',#451);
#182=VERTEX_POINT('',#453);
#183=VERTEX_POINT('',#458);
#184=VERTEX_POINT('',#460);
#185=VERTEX_POINT('',#463);
#186=VERTEX_POINT('',#465);
#187=EDGE_CURVE('',#169,#169,#213,.T.);
#188=EDGE_CURVE('',#170,#171,#65,.T.);
#189=EDGE_CURVE('',#171,#172,#66,.T.);
#190=EDGE_CURVE('',#172,#173,#67,.T.);
#191=EDGE_CURVE('',#173,#170,#68,.T.);
#192=EDGE_CURVE('',#174,#174,#214,.T.);
#193=EDGE_CURVE('',#175,#176,#69,.T.);
#194=EDGE_CURVE('',#176,#177,#70,.T.);
#195=EDGE_CURVE('',#178,#177,#71,.T.);
#196=EDGE_CURVE('',#178,#175,#72,.T.);
#197=EDGE_CURVE('',#179,#180,#73,.T.);
#198=EDGE_CURVE('',#179,#176,#215,.T.);
#199=EDGE_CURVE('',#175,#181,#216,.T.);
#200=EDGE_CURVE('',#182,#181,#74,.T.);
#201=EDGE_CURVE('',#182,#173,#217,.T.);
#202=EDGE_CURVE('',#172,#180,#218,.T.);
#203=EDGE_CURVE('',#177,#183,#219,.T.);
#204=EDGE_CURVE('',#184,#183,#75,.T.);
#205=EDGE_CURVE('',#184,#171,#220,.T.);
#206=EDGE_CURVE('',#170,#185,#221,.T.);
#207=EDGE_CURVE('',#186,#185,#76,.T.);
#208=EDGE_CURVE('',#186,#178,#222,.T.);
#209=EDGE_CURVE('',#183,#179,#77,.T.);
#210=EDGE_CURVE('',#180,#184,#78,.T.);
#211=EDGE_CURVE('',#185,#182,#79,.T.);
#212=EDGE_CURVE('',#181,#186,#80,.T.);
#213=CIRCLE('',#253,3.175);
#214=CIRCLE('',#255,3.175);
#215=CIRCLE('',#257,4.);
#216=CIRCLE('',#258,4.);
#217=CIRCLE('',#259,4.);
#218=CIRCLE('',#260,4.);
#219=CIRCLE('',#262,4.);
#220=CIRCLE('',#263,4.);
#221=CIRCLE('',#264,4.);
#222=CIRCLE('',#265,4.);
#223=CURVE_STYLE('',#227,POSITIVE_LENGTH_MEASURE(0.7),#226);
#224=CURVE_STYLE('',#228,POSITIVE_LENGTH_MEASURE(0.18),#248);
#225=CURVE_STYLE('',#229,POSITIVE_LENGTH_MEASURE(0.18),#248);
#226=DRAUGHTING_PRE_DEFINED_COLOUR('blue');
#227=DRAUGHTING_PRE_DEFINED_CURVE_FONT('continuous');
#228=DRAUGHTING_PRE_DEFINED_CURVE_FONT('continuous');
#229=DRAUGHTING_PRE_DEFINED_CURVE_FONT('continuous');
#230=B_SPLINE_CURVE_WITH_KNOTS('CUTTING EDGE LINE',3,(#341,#342,#343,#344,
#345,#346,#347,#348,#349,#350,#351,#352,#353,#354,#355,#356,#357,#358,#359,
#360,#361,#362,#363,#364,#365,#366,#367,#368,#369,#370,#371,#372,#373,#374,
#375,#376,#377,#378,#379,#380,#381,#382,#383,#384,#385,#386,#387,#388,#389,
#390,#391,#392,#393,#394,#395,#396,#397,#398,#399,#400,#401,#402,#403,#404,
#405,#406,#407,#408,#409,#410,#411,#412,#413,#414,#415,#416,#417,#418,#419,
#420,#421),.UNSPECIFIED.,.T.,.F.,(1,1,2,1,1,1,1,1,1,1,1,1,1,1,1,1,1,1,1,
1,1,1,1,1,1,1,1,1,1,1,1,1,1,1,1,1,1,1,1,1,1,1,1,1,1,1,1,1,1,1,1,1,1,1,1,
1,1,1,1,1,1,1,1,1,1,1,1,1,1,1,1,1,1,1,1,1,1,1,1,1,2,1,1),(-0.211638343715625,
-0.10784119425,0.,0.0153300047,0.0306600094,0.0459900141,0.0613200188,0.0766500234999999,
0.0919800282,0.1073100329,0.11497503525,0.118807536425,0.12168191230625,
0.1226400376,0.12446992211875,0.1262998066375,0.1323994217,0.1421588058,
0.1580178049625,0.15984768948125,0.161677574,0.162635699292969,0.165510075171875,
0.16934257634375,0.1770075786875,0.192337583375,0.2076675880625,0.22299759275,
0.2383275974375,0.253657602125,0.2689876068125,0.27665260915625,0.280485110328125,
0.283359486207031,0.2843176115,0.286002630160156,0.287687648820313,0.338238208625,
0.39215880575,0.495955955215625,0.497977977607812,0.5,0.50095812529375,
0.503832501175,0.50766500235,0.5153300047,0.5306600094,0.5459900141,0.5613200188,
0.5766500235,0.5919800282,0.6073100329,0.61497503525,0.618807536425,0.62168191230625,
0.6226400376,0.62446992211875,0.6262998066375,0.6323994217,0.6421588058,
0.6580178049625,0.65984768948125,0.661677574,0.662635699292969,0.665510075171875,
0.66934257634375,0.6770075786875,0.692337583375,0.7076675880625,0.72299759275,
0.7383275974375,0.753657602125,0.7689876068125,0.77665260915625,0.780485110328125,
0.783359486207031,0.7843176115,0.786339633892188,0.788361656284375,0.89215880575,
1.,1.0153300047,1.0306600094),.UNSPECIFIED.);
#231=PRESENTATION_LAYER_ASSIGNMENT('1','Layer 1',(#339,#340,#230,#251,#252,
#33));
#232=STYLED_ITEM('',(#238),#339);
#233=STYLED_ITEM('',(#239),#340);
#234=STYLED_ITEM('',(#240),#230);
#235=STYLED_ITEM('',(#241),#251);
#236=STYLED_ITEM('',(#242),#252);
#237=STYLED_ITEM('',(#243),#33);
#238=PRESENTATION_STYLE_ASSIGNMENT((#244));
#239=PRESENTATION_STYLE_ASSIGNMENT((#245));
#240=PRESENTATION_STYLE_ASSIGNMENT((#223));
#241=PRESENTATION_STYLE_ASSIGNMENT((#224));
#242=PRESENTATION_STYLE_ASSIGNMENT((#225));
#243=PRESENTATION_STYLE_ASSIGNMENT((#28));
#244=POINT_STYLE('',#246,POSITIVE_LENGTH_MEASURE(3.),#248);
#245=POINT_STYLE('',#247,POSITIVE_LENGTH_MEASURE(3.),#248);
#246=PRE_DEFINED_POINT_MARKER_SYMBOL('plus');
#247=PRE_DEFINED_POINT_MARKER_SYMBOL('plus');
#248=COLOUR_RGB('Dark Red Pink',0.8,0.,0.2);
#249=COLOUR_RGB('Pale Gray',0.8,0.8,0.8);
#250=AXIS2_PLACEMENT_3D('',#338,#274,#275);
#251=AXIS2_PLACEMENT_3D('MCS',#422,#276,#277);
#252=AXIS2_PLACEMENT_3D('PCS',#423,#278,#279);
#253=AXIS2_PLACEMENT_3D('',#424,#280,#281);
#254=AXIS2_PLACEMENT_3D('',#434,#286,#287);
#255=AXIS2_PLACEMENT_3D('',#435,#288,#289);
#256=AXIS2_PLACEMENT_3D('',#445,#294,#295);
#257=AXIS2_PLACEMENT_3D('',#449,#297,#298);
#258=AXIS2_PLACEMENT_3D('',#450,#299,#300);
#259=AXIS2_PLACEMENT_3D('',#454,#302,#303);
#260=AXIS2_PLACEMENT_3D('',#455,#304,#305);
#261=AXIS2_PLACEMENT_3D('',#456,#306,#307);
#262=AXIS2_PLACEMENT_3D('',#457,#308,#309);
#263=AXIS2_PLACEMENT_3D('',#461,#311,#312);
#264=AXIS2_PLACEMENT_3D('',#462,#313,#314);
#265=AXIS2_PLACEMENT_3D('',#466,#316,#317);
#266=AXIS2_PLACEMENT_3D('',#467,#318,#319);
#267=AXIS2_PLACEMENT_3D('',#470,#322,#323);
#268=AXIS2_PLACEMENT_3D('',#471,#324,#325);
#269=AXIS2_PLACEMENT_3D('',#472,#326,#327);
#270=AXIS2_PLACEMENT_3D('',#475,#330,#331);
#271=AXIS2_PLACEMENT_3D('',#476,#332,#333);
#272=AXIS2_PLACEMENT_3D('',#477,#334,#335);
#273=AXIS2_PLACEMENT_3D('',#478,#336,#337);
#274=DIRECTION('',(0.,0.,1.));
#275=DIRECTION('',(1.,0.,0.));
#276=DIRECTION('',(0.,0.,1.));
#277=DIRECTION('',(0.,-1.,0.));
#278=DIRECTION('',(0.,0.,1.));
#279=DIRECTION('',(0.,-1.,0.));
#280=DIRECTION('',(-1.,0.,0.));
#281=DIRECTION('',(0.,0.,1.));
#282=DIRECTION('',(0.,-1.,0.));
#283=DIRECTION('',(0.,0.,1.));
#284=DIRECTION('',(0.,1.,0.));
#285=DIRECTION('',(0.,0.,-1.));
#286=DIRECTION('',(-1.,0.,0.));
#287=DIRECTION('',(0.,0.,1.));
#288=DIRECTION('',(1.,0.,0.));
#289=DIRECTION('',(0.,0.,-1.));
#290=DIRECTION('',(0.,-1.,0.));
#291=DIRECTION('',(0.,0.,-1.));
#292=DIRECTION('',(0.,-1.,0.));
#293=DIRECTION('',(0.,0.,1.));
#294=DIRECTION('',(1.,0.,0.));
#295=DIRECTION('',(0.,0.,1.));
#296=DIRECTION('',(-1.,0.,0.));
#297=DIRECTION('',(0.,0.,1.));
#298=DIRECTION('',(1.,0.,0.));
#299=DIRECTION('',(0.,0.,1.));
#300=DIRECTION('',(1.,0.,0.));
#301=DIRECTION('',(1.,0.,0.));
#302=DIRECTION('',(0.,0.,1.));
#303=DIRECTION('',(1.,0.,0.));
#304=DIRECTION('',(0.,0.,1.));
#305=DIRECTION('',(1.,0.,0.));
#306=DIRECTION('',(0.,0.,1.));
#307=DIRECTION('',(1.,0.,0.));
#308=DIRECTION('',(0.,0.,-1.));
#309=DIRECTION('',(-1.,0.,0.));
#310=DIRECTION('',(1.,0.,0.));
#311=DIRECTION('',(0.,0.,-1.));
#312=DIRECTION('',(-1.,0.,0.));
#313=DIRECTION('',(0.,0.,-1.));
#314=DIRECTION('',(-1.,0.,0.));
#315=DIRECTION('',(-1.,0.,0.));
#316=DIRECTION('',(0.,0.,-1.));
#317=DIRECTION('',(-1.,0.,0.));
#318=DIRECTION('',(0.,0.,-1.));
#319=DIRECTION('',(-1.,0.,0.));
#320=DIRECTION('',(0.,0.,1.));
#321=DIRECTION('',(0.,0.,-1.));
#322=DIRECTION('',(0.,1.,0.));
#323=DIRECTION('',(0.,0.,1.));
#324=DIRECTION('',(0.,0.,-1.));
#325=DIRECTION('',(-1.,0.,0.));
#326=DIRECTION('',(0.,0.,1.));
#327=DIRECTION('',(1.,0.,0.));
#328=DIRECTION('',(0.,0.,1.));
#329=DIRECTION('',(0.,0.,-1.));
#330=DIRECTION('',(0.,-1.,0.));
#331=DIRECTION('',(0.,0.,1.));
#332=DIRECTION('',(0.,0.,-1.));
#333=DIRECTION('',(-1.,0.,0.));
#334=DIRECTION('',(0.,0.,1.));
#335=DIRECTION('',(1.,0.,0.));
#336=DIRECTION('',(-1.,0.,0.));
#337=DIRECTION('',(0.,0.,1.));
#338=CARTESIAN_POINT('',(0.,0.,0.));
#339=CARTESIAN_POINT('',(0.,0.,0.));
#340=CARTESIAN_POINT('',(-5.,9.525,0.));
#341=CARTESIAN_POINT('',(-5.,-3.68333333333334,0.));
#342=CARTESIAN_POINT('',(-5.,-5.78679938779915,0.));
#343=CARTESIAN_POINT('',(-4.94843003406512,-6.31039156545212,0.));
#344=CARTESIAN_POINT('',(-4.7193403480225,-7.06560121538163,0.));
#345=CARTESIAN_POINT('',(-4.34731735382837,-7.76160595047726,0.));
#346=CARTESIAN_POINT('',(-3.84665986096572,-8.37165986115752,0.));
#347=CARTESIAN_POINT('',(-3.23660595004588,-8.87231735410981,0.));
#348=CARTESIAN_POINT('',(-2.54060121510423,-9.24434034811145,0.));
#349=CARTESIAN_POINT('',(-1.91125984046613,-9.4352484197106,0.));
#350=CARTESIAN_POINT('',(-1.45751773326301,-9.50250012240798,0.));
#351=CARTESIAN_POINT('',(-1.21267216628192,-9.52057207995697,0.));
#352=CARTESIAN_POINT('',(-1.08181225714146,-9.52459710964086,0.));
#353=CARTESIAN_POINT('',(-0.985112474049211,-9.52509618298825,0.));
#354=CARTESIAN_POINT('',(-0.906249999999999,-9.525,0.));
#355=CARTESIAN_POINT('',(-0.739583333333332,-9.525,0.));
#356=CARTESIAN_POINT('',(-0.437499999999999,-9.525,0.));
#357=CARTESIAN_POINT('',(0.104166666666667,-9.525,0.));
#358=CARTESIAN_POINT('',(0.572916666666667,-9.525,0.));
#359=CARTESIAN_POINT('',(0.90625,-9.525,0.));
#360=CARTESIAN_POINT('',(0.985112474029961,-9.52509618298826,0.));
#361=CARTESIAN_POINT('',(1.08181225714079,-9.52459710964113,0.));
#362=CARTESIAN_POINT('',(1.21267216627547,-9.52057207995959,0.));
#363=CARTESIAN_POINT('',(1.4575177332409,-9.50250012241733,0.));
#364=CARTESIAN_POINT('',(1.91125984044039,-9.43524841972468,0.));
#365=CARTESIAN_POINT('',(2.54060121538163,-9.24434034802251,0.));
#366=CARTESIAN_POINT('',(3.23660595047727,-8.87231735382837,0.));
#367=CARTESIAN_POINT('',(3.84665986115751,-8.37165986096573,0.));
#368=CARTESIAN_POINT('',(4.34731735410981,-7.76160595004587,0.));
#369=CARTESIAN_POINT('',(4.71934034811145,-7.06560121510424,0.));
#370=CARTESIAN_POINT('',(4.9102484197106,-6.43625984046613,0.));
#371=CARTESIAN_POINT('',(4.97750012240798,-5.98251773326301,0.));
#372=CARTESIAN_POINT('',(4.99557207995697,-5.73767216628192,0.));
#373=CARTESIAN_POINT('',(4.99959710964086,-5.60681225714146,0.));
#374=CARTESIAN_POINT('',(5.0000885685017,-5.51258643140114,0.));
#375=CARTESIAN_POINT('',(5.,-5.438671875,0.));
#376=CARTESIAN_POINT('',(5.,-4.51783854166667,0.));
#377=CARTESIAN_POINT('',(5.,-2.70494791666667,0.));
#378=CARTESIAN_POINT('',(5.,0.851770833333335,0.));
#379=CARTESIAN_POINT('',(5.,3.57973958333333,0.));
#380=CARTESIAN_POINT('',(5.,5.42140625,0.));
#381=CARTESIAN_POINT('',(5.00010628220189,5.50683122535488,0.));
#382=CARTESIAN_POINT('',(4.99959710964113,5.60681225714079,0.));
#383=CARTESIAN_POINT('',(4.99557207995959,5.73767216627548,0.));
#384=CARTESIAN_POINT('',(4.97750012241733,5.9825177332409,0.));
#385=CARTESIAN_POINT('',(4.91024841972468,6.43625984044039,0.));
#386=CARTESIAN_POINT('',(4.71934034802251,7.06560121538163,0.));
#387=CARTESIAN_POINT('',(4.34731735382837,7.76160595047727,0.));
#388=CARTESIAN_POINT('',(3.84665986096572,8.37165986115751,0.));
#389=CARTESIAN_POINT('',(3.23660595004588,8.87231735410981,0.));
#390=CARTESIAN_POINT('',(2.54060121510423,9.24434034811145,0.));
#391=CARTESIAN_POINT('',(1.91125984046613,9.4352484197106,0.));
#392=CARTESIAN_POINT('',(1.45751773326301,9.50250012240798,0.));
#393=CARTESIAN_POINT('',(1.21267216628192,9.52057207995697,0.));
#394=CARTESIAN_POINT('',(1.08181225714146,9.52459710964086,0.));
#395=CARTESIAN_POINT('',(0.985112474049211,9.52509618298825,0.));
#396=CARTESIAN_POINT('',(0.90625,9.525,0.));
#397=CARTESIAN_POINT('',(0.739583333333333,9.525,0.));
#398=CARTESIAN_POINT('',(0.4375,9.525,0.));
#399=CARTESIAN_POINT('',(-0.104166666666667,9.525,0.));
#400=CARTESIAN_POINT('',(-0.572916666666667,9.525,0.));
#401=CARTESIAN_POINT('',(-0.90625,9.525,0.));
#402=CARTESIAN_POINT('',(-0.985112474029961,9.52509618298826,0.));
#403=CARTESIAN_POINT('',(-1.08181225714079,9.52459710964113,0.));
#404=CARTESIAN_POINT('',(-1.21267216627547,9.52057207995959,0.));
#405=CARTESIAN_POINT('',(-1.45751773324089,9.50250012241733,0.));
#406=CARTESIAN_POINT('',(-1.91125984044039,9.43524841972469,0.));
#407=CARTESIAN_POINT('',(-2.54060121538164,9.2443403480225,0.));
#408=CARTESIAN_POINT('',(-3.23660595047726,8.87231735382837,0.));
#409=CARTESIAN_POINT('',(-3.84665986115752,8.37165986096572,0.));
#410=CARTESIAN_POINT('',(-4.34731735410981,7.76160595004588,0.));
#411=CARTESIAN_POINT('',(-4.71934034811145,7.06560121510423,0.));
#412=CARTESIAN_POINT('',(-4.9102484197106,6.43625984046613,0.));
#413=CARTESIAN_POINT('',(-4.97750012240798,5.982517733263,0.));
#414=CARTESIAN_POINT('',(-4.99557207995697,5.73767216628192,0.));
#415=CARTESIAN_POINT('',(-4.99959710964086,5.60681225714146,0.));
#416=CARTESIAN_POINT('',(-5.00010628220204,5.50683122533395,0.));
#417=CARTESIAN_POINT('',(-5.,5.42140625,0.));
#418=CARTESIAN_POINT('',(-5.,3.57973958333333,0.));
#419=CARTESIAN_POINT('',(-5.,-0.0690625000000034,0.));
#420=CARTESIAN_POINT('',(-5.,-3.68333333333334,0.));
#421=CARTESIAN_POINT('',(-5.,-5.78679938779915,0.));
#422=CARTESIAN_POINT('',(0.,0.,0.));
#423=CARTESIAN_POINT('',(-5.,9.525,0.));
#424=CARTESIAN_POINT('',(-5.,0.,-9.525));
#425=CARTESIAN_POINT('',(-5.,0.,-6.35));
#426=CARTESIAN_POINT('',(-5.,22.2,-19.05));
#427=CARTESIAN_POINT('',(-5.,5.525,-19.05));
#428=CARTESIAN_POINT('',(-5.,-5.525,-19.05));
#429=CARTESIAN_POINT('',(-5.,-5.525,0.));
#430=CARTESIAN_POINT('',(-5.,-5.525,0.));
#431=CARTESIAN_POINT('',(-5.,22.2,0.));
#432=CARTESIAN_POINT('',(-5.,5.525,0.));
#433=CARTESIAN_POINT('',(-5.,5.525,0.));
#434=CARTESIAN_POINT('',(-5.,22.2,-22.715));
#435=CARTESIAN_POINT('',(5.,0.,-9.525));
#436=CARTESIAN_POINT('',(5.,0.,-12.7));
#437=CARTESIAN_POINT('',(5.,22.2,0.));
#438=CARTESIAN_POINT('',(5.,5.525,0.));
#439=CARTESIAN_POINT('',(5.,-5.525,0.));
#440=CARTESIAN_POINT('',(5.,-5.525,-19.05));
#441=CARTESIAN_POINT('',(5.,-5.525,-19.05));
#442=CARTESIAN_POINT('',(5.,22.2,-19.05));
#443=CARTESIAN_POINT('',(5.,5.525,-19.05));
#444=CARTESIAN_POINT('',(5.,5.525,-19.05));
#445=CARTESIAN_POINT('',(5.,22.2,-22.715));
#446=CARTESIAN_POINT('',(0.,-9.525,0.));
#447=CARTESIAN_POINT('',(1.,-9.525,0.));
#448=CARTESIAN_POINT('',(-1.,-9.525,0.));
#449=CARTESIAN_POINT('',(1.,-5.525,0.));
#450=CARTESIAN_POINT('',(1.,5.525,0.));
#451=CARTESIAN_POINT('',(1.,9.525,0.));
#452=CARTESIAN_POINT('',(0.,9.525,0.));
#453=CARTESIAN_POINT('',(-1.,9.525,0.));
#454=CARTESIAN_POINT('',(-1.,5.525,0.));
#455=CARTESIAN_POINT('',(-1.,-5.525,0.));
#456=CARTESIAN_POINT('',(0.,0.,0.));
#457=CARTESIAN_POINT('',(1.,-5.525,-19.05));
#458=CARTESIAN_POINT('',(1.,-9.525,-19.05));
#459=CARTESIAN_POINT('',(0.,-9.525,-19.05));
#460=CARTESIAN_POINT('',(-1.,-9.525,-19.05));
#461=CARTESIAN_POINT('',(-1.,-5.525,-19.05));
#462=CARTESIAN_POINT('',(-1.,5.525,-19.05));
#463=CARTESIAN_POINT('',(-1.,9.525,-19.05));
#464=CARTESIAN_POINT('',(0.,9.525,-19.05));
#465=CARTESIAN_POINT('',(1.,9.525,-19.05));
#466=CARTESIAN_POINT('',(1.,5.525,-19.05));
#467=CARTESIAN_POINT('',(0.,-12.7910439361475,-19.05));
#468=CARTESIAN_POINT('',(1.,-9.525,0.));
#469=CARTESIAN_POINT('',(-1.,-9.525,-19.05));
#470=CARTESIAN_POINT('',(0.,-9.525,0.));
#471=CARTESIAN_POINT('',(1.,-5.525,0.));
#472=CARTESIAN_POINT('',(-1.,-5.525,0.));
#473=CARTESIAN_POINT('',(-1.,9.525,-19.05));
#474=CARTESIAN_POINT('',(1.,9.525,0.));
#475=CARTESIAN_POINT('',(0.,9.525,0.));
#476=CARTESIAN_POINT('',(1.,5.525,0.));
#477=CARTESIAN_POINT('',(-1.,5.525,0.));
#478=CARTESIAN_POINT('',(15.,0.,-9.525));
#479=MECHANICAL_DESIGN_GEOMETRIC_PRESENTATION_REPRESENTATION('',(#232,#233,
#234,#235,#236,#237),#480);
#480=(
GEOMETRIC_REPRESENTATION_CONTEXT(3)
GLOBAL_UNCERTAINTY_ASSIGNED_CONTEXT((#481))
GLOBAL_UNIT_ASSIGNED_CONTEXT((#487,#483,#482))
REPRESENTATION_CONTEXT('aaa338024_a','TOP_LEVEL_ASSEMBLY_PART')
);
#481=UNCERTAINTY_MEASURE_WITH_UNIT(LENGTH_MEASURE(2.E-5),#487,
'DISTANCE_ACCURACY_VALUE','Maximum Tolerance applied to model');
#482=(
NAMED_UNIT(*)
SI_UNIT($,.STERADIAN.)
SOLID_ANGLE_UNIT()
);
#483=(
CONVERSION_BASED_UNIT('DEGREE',#485)
NAMED_UNIT(#484)
PLANE_ANGLE_UNIT()
);
#484=DIMENSIONAL_EXPONENTS(0.,0.,0.,0.,0.,0.,0.);
#485=PLANE_ANGLE_MEASURE_WITH_UNIT(PLANE_ANGLE_MEASURE(0.0174532925),#486);
#486=(
NAMED_UNIT(*)
PLANE_ANGLE_UNIT()
SI_UNIT($,.RADIAN.)
);
#487=(
LENGTH_UNIT()
NAMED_UNIT(*)
SI_UNIT(.MILLI.,.METRE.)
);
ENDSEC;
END-ISO-10303-21;
