ISO-10303-21;
HEADER;
/* Generated by software containing ST-Developer
 * from STEP Tools, Inc. (www.steptools.com) 
 */
/* OPTION: using custom schema-name function */

FILE_DESCRIPTION(
/* description */ (''),
/* implementation_level */ '2;1');

FILE_NAME(
/* name */ 'aaa337937_a.stp',
/* time_stamp */ '2019-09-19T14:27:36+02:00',
/* author */ (''),
/* organization */ ('SMS'),
/* preprocessor_version */ 'ST-DEVELOPER v16.7',
/* originating_system */ 'SIEMENS PLM Software NX 12.0',
/* authorisation */ '');

FILE_SCHEMA (('AUTOMOTIVE_DESIGN { 1 0 10303 214 3 1 1 1 }'));
ENDSEC;

DATA;
#10=CONSTRUCTIVE_GEOMETRY_REPRESENTATION_RELATIONSHIP(
'supplemental geometry','',#26,#11);
#11=CONSTRUCTIVE_GEOMETRY_REPRESENTATION('supplemental geometry',(#278,
#279),#554);
#12=GEOMETRICALLY_BOUNDED_WIREFRAME_SHAPE_REPRESENTATION(
'AAA337937_A-None',(#27),#554);
#13=SHAPE_REPRESENTATION_RELATIONSHIP('None',
'relationship between AAA337937_A-None and AAA337937_A-None',#26,#15);
#14=SHAPE_REPRESENTATION_RELATIONSHIP('None',
'relationship between AAA337937_A-None and AAA337937_A-None',#26,#12);
#15=ADVANCED_BREP_SHAPE_REPRESENTATION('AAA337937_A-None',(#33),#554);
#16=SHAPE_DEFINITION_REPRESENTATION(#17,#26);
#17=PRODUCT_DEFINITION_SHAPE('','',#18);
#18=PRODUCT_DEFINITION(' ','',#20,#19);
#19=PRODUCT_DEFINITION_CONTEXT('part definition',#25,'design');
#20=PRODUCT_DEFINITION_FORMATION_WITH_SPECIFIED_SOURCE(' ',' ',#22,
 .NOT_KNOWN.);
#21=PRODUCT_RELATED_PRODUCT_CATEGORY('part','',(#22));
#22=PRODUCT('AAA337937_A','AAA337937_A','MASTER_INSERT',(#23));
#23=PRODUCT_CONTEXT(' ',#25,'mechanical');
#24=APPLICATION_PROTOCOL_DEFINITION('international standard',
'automotive_design',2010,#25);
#25=APPLICATION_CONTEXT(
'core data for automotive mechanical design processes');
#26=SHAPE_REPRESENTATION('AAA337937_A-None',(#277),#554);
#27=GEOMETRIC_CURVE_SET('None',(#378,#379,#257));
#28=SURFACE_STYLE_USAGE(.BOTH.,#29);
#29=SURFACE_SIDE_STYLE('',(#30));
#30=SURFACE_STYLE_FILL_AREA(#31);
#31=FILL_AREA_STYLE('',(#32));
#32=FILL_AREA_STYLE_COLOUR('',#276);
#33=MANIFOLD_SOLID_BREP('CUT',#34);
#34=CLOSED_SHELL('',(#65,#66,#67,#68,#69,#70,#71,#72,#73,#74,#75,#76,#77,
#78));
#35=CONICAL_SURFACE('',#298,3.175,2.);
#36=CONICAL_SURFACE('',#301,4.17778529610859,30.0000000000001);
#37=(
BOUNDED_SURFACE()
B_SPLINE_SURFACE(3,3,((#513,#514,#515,#516,#517,#518,#519),(#520,#521,#522,
#523,#524,#525,#526),(#527,#528,#529,#530,#531,#532,#533),(#534,#535,#536,
#537,#538,#539,#540)),.UNSPECIFIED.,.F.,.T.,.F.)
B_SPLINE_SURFACE_WITH_KNOTS((4,4),(1,3,3,3,1),(0.,1.),(-0.5,0.,0.5,1.,1.5),
 .UNSPECIFIED.)
GEOMETRIC_REPRESENTATION_ITEM()
RATIONAL_B_SPLINE_SURFACE(((1.,0.333333333333333,0.333333333333333,1.,0.333333333333333,
0.333333333333333,1.),(0.991513366766081,0.330504455588694,0.330504455588694,
0.991513366766081,0.330504455588694,0.330504455588694,0.991513366766081),
(0.991513366766081,0.330504455588694,0.330504455588694,0.991513366766081,
0.330504455588694,0.330504455588694,0.991513366766081),(1.,0.333333333333333,
0.333333333333333,1.,0.333333333333333,0.333333333333333,1.)))
REPRESENTATION_ITEM('')
SURFACE()
);
#38=VERTEX_LOOP('',#186);
#39=FACE_BOUND('',#101,.T.);
#40=FACE_BOUND('',#102,.T.);
#41=FACE_BOUND('',#38,.T.);
#42=FACE_BOUND('',#103,.T.);
#43=FACE_BOUND('',#104,.T.);
#44=FACE_BOUND('',#105,.T.);
#45=FACE_BOUND('',#106,.T.);
#46=FACE_BOUND('',#107,.T.);
#47=FACE_BOUND('',#108,.T.);
#48=FACE_BOUND('',#109,.T.);
#49=CYLINDRICAL_SURFACE('',#283,3.2);
#50=CYLINDRICAL_SURFACE('',#288,3.2);
#51=CYLINDRICAL_SURFACE('',#302,3.2);
#52=CYLINDRICAL_SURFACE('',#304,3.2);
#53=CIRCLE('',#281,3.2);
#54=CIRCLE('',#282,3.19999999999999);
#55=CIRCLE('',#286,3.2);
#56=CIRCLE('',#287,3.2);
#57=CIRCLE('',#289,3.2);
#58=CIRCLE('',#290,3.2);
#59=CIRCLE('',#292,4.12005026918963);
#60=CIRCLE('',#293,3.19999999999999);
#61=CIRCLE('',#294,3.2);
#62=CIRCLE('',#296,3.16193440934877);
#63=CIRCLE('',#297,3.35416958914626);
#64=CIRCLE('',#299,3.77364010767585);
#65=ADVANCED_FACE('',(#86),#79,.T.);
#66=ADVANCED_FACE('',(#87),#49,.T.);
#67=ADVANCED_FACE('',(#88),#80,.T.);
#68=ADVANCED_FACE('',(#89),#81,.T.);
#69=ADVANCED_FACE('',(#90),#50,.T.);
#70=ADVANCED_FACE('',(#91),#82,.T.);
#71=ADVANCED_FACE('',(#39,#40),#83,.T.);
#72=ADVANCED_FACE('',(#41,#42),#37,.T.);
#73=ADVANCED_FACE('',(#43,#44),#35,.F.);
#74=ADVANCED_FACE('',(#45,#46),#84,.F.);
#75=ADVANCED_FACE('',(#47,#48),#36,.F.);
#76=ADVANCED_FACE('',(#92),#51,.T.);
#77=ADVANCED_FACE('',(#93),#85,.T.);
#78=ADVANCED_FACE('',(#94),#52,.T.);
#79=PLANE('',#280);
#80=PLANE('',#284);
#81=PLANE('',#285);
#82=PLANE('',#291);
#83=PLANE('',#295);
#84=PLANE('',#300);
#85=PLANE('',#303);
#86=FACE_OUTER_BOUND('',#95,.T.);
#87=FACE_OUTER_BOUND('',#96,.T.);
#88=FACE_OUTER_BOUND('',#97,.T.);
#89=FACE_OUTER_BOUND('',#98,.T.);
#90=FACE_OUTER_BOUND('',#99,.T.);
#91=FACE_OUTER_BOUND('',#100,.T.);
#92=FACE_OUTER_BOUND('',#110,.T.);
#93=FACE_OUTER_BOUND('',#111,.T.);
#94=FACE_OUTER_BOUND('',#112,.T.);
#95=EDGE_LOOP('',(#113,#114,#115,#116));
#96=EDGE_LOOP('',(#117,#118,#119,#120));
#97=EDGE_LOOP('',(#121,#122,#123,#124));
#98=EDGE_LOOP('',(#125,#126,#127,#128));
#99=EDGE_LOOP('',(#129,#130,#131,#132));
#100=EDGE_LOOP('',(#133,#134,#135,#136,#137,#138,#139,#140));
#101=EDGE_LOOP('',(#141));
#102=EDGE_LOOP('',(#142,#143,#144,#145,#146,#147,#148,#149));
#103=EDGE_LOOP('',(#150));
#104=EDGE_LOOP('',(#151));
#105=EDGE_LOOP('',(#152));
#106=EDGE_LOOP('',(#153));
#107=EDGE_LOOP('',(#154));
#108=EDGE_LOOP('',(#155));
#109=EDGE_LOOP('',(#156));
#110=EDGE_LOOP('',(#157,#158,#159,#160));
#111=EDGE_LOOP('',(#161,#162,#163,#164));
#112=EDGE_LOOP('',(#165,#166,#167,#168));
#113=ORIENTED_EDGE('',*,*,#190,.T.);
#114=ORIENTED_EDGE('',*,*,#191,.F.);
#115=ORIENTED_EDGE('',*,*,#192,.T.);
#116=ORIENTED_EDGE('',*,*,#193,.F.);
#117=ORIENTED_EDGE('',*,*,#193,.T.);
#118=ORIENTED_EDGE('',*,*,#194,.T.);
#119=ORIENTED_EDGE('',*,*,#195,.F.);
#120=ORIENTED_EDGE('',*,*,#196,.T.);
#121=ORIENTED_EDGE('',*,*,#195,.T.);
#122=ORIENTED_EDGE('',*,*,#197,.T.);
#123=ORIENTED_EDGE('',*,*,#198,.F.);
#124=ORIENTED_EDGE('',*,*,#199,.T.);
#125=ORIENTED_EDGE('',*,*,#200,.T.);
#126=ORIENTED_EDGE('',*,*,#201,.F.);
#127=ORIENTED_EDGE('',*,*,#202,.F.);
#128=ORIENTED_EDGE('',*,*,#203,.T.);
#129=ORIENTED_EDGE('',*,*,#198,.T.);
#130=ORIENTED_EDGE('',*,*,#204,.T.);
#131=ORIENTED_EDGE('',*,*,#203,.F.);
#132=ORIENTED_EDGE('',*,*,#205,.T.);
#133=ORIENTED_EDGE('',*,*,#192,.F.);
#134=ORIENTED_EDGE('',*,*,#206,.F.);
#135=ORIENTED_EDGE('',*,*,#207,.F.);
#136=ORIENTED_EDGE('',*,*,#208,.F.);
#137=ORIENTED_EDGE('',*,*,#200,.F.);
#138=ORIENTED_EDGE('',*,*,#204,.F.);
#139=ORIENTED_EDGE('',*,*,#197,.F.);
#140=ORIENTED_EDGE('',*,*,#194,.F.);
#141=ORIENTED_EDGE('',*,*,#209,.T.);
#142=ORIENTED_EDGE('',*,*,#210,.F.);
#143=ORIENTED_EDGE('',*,*,#190,.F.);
#144=ORIENTED_EDGE('',*,*,#196,.F.);
#145=ORIENTED_EDGE('',*,*,#199,.F.);
#146=ORIENTED_EDGE('',*,*,#205,.F.);
#147=ORIENTED_EDGE('',*,*,#202,.T.);
#148=ORIENTED_EDGE('',*,*,#211,.F.);
#149=ORIENTED_EDGE('',*,*,#212,.F.);
#150=ORIENTED_EDGE('',*,*,#213,.F.);
#151=ORIENTED_EDGE('',*,*,#214,.F.);
#152=ORIENTED_EDGE('',*,*,#213,.T.);
#153=ORIENTED_EDGE('',*,*,#215,.T.);
#154=ORIENTED_EDGE('',*,*,#214,.T.);
#155=ORIENTED_EDGE('',*,*,#209,.F.);
#156=ORIENTED_EDGE('',*,*,#215,.F.);
#157=ORIENTED_EDGE('',*,*,#191,.T.);
#158=ORIENTED_EDGE('',*,*,#210,.T.);
#159=ORIENTED_EDGE('',*,*,#216,.F.);
#160=ORIENTED_EDGE('',*,*,#206,.T.);
#161=ORIENTED_EDGE('',*,*,#216,.T.);
#162=ORIENTED_EDGE('',*,*,#212,.T.);
#163=ORIENTED_EDGE('',*,*,#217,.F.);
#164=ORIENTED_EDGE('',*,*,#207,.T.);
#165=ORIENTED_EDGE('',*,*,#217,.T.);
#166=ORIENTED_EDGE('',*,*,#211,.T.);
#167=ORIENTED_EDGE('',*,*,#201,.T.);
#168=ORIENTED_EDGE('',*,*,#208,.T.);
#169=VERTEX_POINT('',#464);
#170=VERTEX_POINT('',#465);
#171=VERTEX_POINT('',#467);
#172=VERTEX_POINT('',#469);
#173=VERTEX_POINT('',#473);
#174=VERTEX_POINT('',#475);
#175=VERTEX_POINT('',#479);
#176=VERTEX_POINT('',#481);
#177=VERTEX_POINT('',#485);
#178=VERTEX_POINT('',#486);
#179=VERTEX_POINT('',#488);
#180=VERTEX_POINT('',#490);
#181=VERTEX_POINT('',#497);
#182=VERTEX_POINT('',#499);
#183=VERTEX_POINT('',#503);
#184=VERTEX_POINT('',#505);
#185=VERTEX_POINT('',#507);
#186=VERTEX_POINT('',#510);
#187=VERTEX_POINT('',#512);
#188=VERTEX_POINT('',#542);
#189=VERTEX_POINT('',#545);
#190=EDGE_CURVE('',#169,#170,#218,.T.);
#191=EDGE_CURVE('',#171,#170,#219,.T.);
#192=EDGE_CURVE('',#171,#172,#220,.T.);
#193=EDGE_CURVE('',#169,#172,#221,.T.);
#194=EDGE_CURVE('',#172,#173,#53,.T.);
#195=EDGE_CURVE('',#174,#173,#222,.T.);
#196=EDGE_CURVE('',#174,#169,#54,.T.);
#197=EDGE_CURVE('',#173,#175,#223,.T.);
#198=EDGE_CURVE('',#176,#175,#224,.T.);
#199=EDGE_CURVE('',#176,#174,#225,.T.);
#200=EDGE_CURVE('',#177,#178,#226,.T.);
#201=EDGE_CURVE('',#179,#178,#227,.T.);
#202=EDGE_CURVE('',#180,#179,#228,.T.);
#203=EDGE_CURVE('',#180,#177,#229,.T.);
#204=EDGE_CURVE('',#175,#177,#55,.T.);
#205=EDGE_CURVE('',#180,#176,#56,.T.);
#206=EDGE_CURVE('',#181,#171,#57,.T.);
#207=EDGE_CURVE('',#182,#181,#230,.T.);
#208=EDGE_CURVE('',#178,#182,#58,.T.);
#209=EDGE_CURVE('',#183,#183,#59,.T.);
#210=EDGE_CURVE('',#170,#184,#60,.T.);
#211=EDGE_CURVE('',#185,#179,#61,.T.);
#212=EDGE_CURVE('',#184,#185,#231,.T.);
#213=EDGE_CURVE('',#187,#187,#62,.T.);
#214=EDGE_CURVE('',#188,#188,#63,.T.);
#215=EDGE_CURVE('',#189,#189,#64,.T.);
#216=EDGE_CURVE('',#181,#184,#232,.T.);
#217=EDGE_CURVE('',#182,#185,#233,.T.);
#218=LINE('',#463,#234);
#219=LINE('',#466,#235);
#220=LINE('',#468,#236);
#221=LINE('',#470,#237);
#222=LINE('',#474,#238);
#223=LINE('',#478,#239);
#224=LINE('',#480,#240);
#225=LINE('',#482,#241);
#226=LINE('',#484,#242);
#227=LINE('',#487,#243);
#228=LINE('',#489,#244);
#229=LINE('',#491,#245);
#230=LINE('',#498,#246);
#231=LINE('',#508,#247);
#232=LINE('',#548,#248);
#233=LINE('',#550,#249);
#234=VECTOR('',#311,1.);
#235=VECTOR('',#312,1.);
#236=VECTOR('',#313,1.);
#237=VECTOR('',#314,1.);
#238=VECTOR('',#319,1.);
#239=VECTOR('',#324,1.);
#240=VECTOR('',#325,1.);
#241=VECTOR('',#326,1.);
#242=VECTOR('',#329,1.);
#243=VECTOR('',#330,1.);
#244=VECTOR('',#331,1.);
#245=VECTOR('',#332,1.);
#246=VECTOR('',#343,1.);
#247=VECTOR('',#354,1.);
#248=VECTOR('',#369,1.);
#249=VECTOR('',#372,1.);
#250=CURVE_STYLE('',#254,POSITIVE_LENGTH_MEASURE(0.7),#253);
#251=CURVE_STYLE('',#255,POSITIVE_LENGTH_MEASURE(0.18),#275);
#252=CURVE_STYLE('',#256,POSITIVE_LENGTH_MEASURE(0.18),#275);
#253=DRAUGHTING_PRE_DEFINED_COLOUR('blue');
#254=DRAUGHTING_PRE_DEFINED_CURVE_FONT('continuous');
#255=DRAUGHTING_PRE_DEFINED_CURVE_FONT('continuous');
#256=DRAUGHTING_PRE_DEFINED_CURVE_FONT('continuous');
#257=B_SPLINE_CURVE_WITH_KNOTS('CUTTING EDGE LINE',3,(#380,#381,#382,#383,
#384,#385,#386,#387,#388,#389,#390,#391,#392,#393,#394,#395,#396,#397,#398,
#399,#400,#401,#402,#403,#404,#405,#406,#407,#408,#409,#410,#411,#412,#413,
#414,#415,#416,#417,#418,#419,#420,#421,#422,#423,#424,#425,#426,#427,#428,
#429,#430,#431,#432,#433,#434,#435,#436,#437,#438,#439,#440,#441,#442,#443,
#444,#445,#446,#447,#448,#449,#450,#451,#452,#453,#454,#455,#456,#457,#458,
#459,#460),.UNSPECIFIED.,.T.,.F.,(1,1,2,1,1,1,1,1,1,1,1,1,1,1,1,1,1,1,1,
1,1,1,1,1,1,1,1,1,1,1,1,1,1,1,1,1,1,1,1,1,1,1,1,1,1,1,1,1,1,1,1,1,1,1,1,
1,1,1,1,1,1,1,1,1,1,1,1,1,1,1,1,1,1,1,1,1,1,1,1,1,2,1,1),(-0.1281217259525,
-0.0646671172,0.,0.00427700506249995,0.00855401012500001,0.0128310151875,
0.01710802025,0.0213850253125,0.0256620303749999,0.0299390354375,0.0320775379687499,
0.033146789234375,0.0339487276835937,0.0342160404999999,0.0346882806323437,
0.0351605207646875,0.109774461675,0.18533288285,0.335505244935312,0.335977485067656,
0.3364497252,0.336717038015625,0.3375189764625,0.338588227725,0.34072673025,
0.3450037353,0.34928074035,0.3535577454,0.35783475045,0.3621117555,0.36638876055,
0.368527263075,0.3695965143375,0.370398452784375,0.3706657656,0.371170977453125,
0.37167618930625,0.4029993242,0.4353328828,0.4987874915525,0.49939374577625,
0.5,0.500334141020508,0.501069251265625,0.50213850253125,0.5042770050625,
0.508554010125,0.5128310151875,0.51710802025,0.5213850253125,0.525662030375,
0.5299390354375,0.53207753796875,0.533146789234375,0.533948727683594,0.5342160405,
0.534688280632344,0.535160520764687,0.609774461675,0.68533288285,0.835505244935313,
0.835977485067656,0.8364497252,0.836717038015625,0.8375189764625,0.838588227725,
0.84072673025,0.8450037353,0.84928074035,0.8535577454,0.85783475045,0.8621117555,
0.86638876055,0.868527263075,0.8695965143375,0.870331624580469,0.8706657656,
0.87127201982375,0.8718782740475,0.9353328828,1.,1.0042770050625,1.008554010125),
 .UNSPECIFIED.);
#258=PRESENTATION_LAYER_ASSIGNMENT('1','Layer 1',(#378,#379,#257,#278,#279,
#33));
#259=STYLED_ITEM('',(#265),#378);
#260=STYLED_ITEM('',(#266),#379);
#261=STYLED_ITEM('',(#267),#257);
#262=STYLED_ITEM('',(#268),#278);
#263=STYLED_ITEM('',(#269),#279);
#264=STYLED_ITEM('',(#270),#33);
#265=PRESENTATION_STYLE_ASSIGNMENT((#271));
#266=PRESENTATION_STYLE_ASSIGNMENT((#272));
#267=PRESENTATION_STYLE_ASSIGNMENT((#250));
#268=PRESENTATION_STYLE_ASSIGNMENT((#251));
#269=PRESENTATION_STYLE_ASSIGNMENT((#252));
#270=PRESENTATION_STYLE_ASSIGNMENT((#28));
#271=POINT_STYLE('',#273,POSITIVE_LENGTH_MEASURE(3.),#275);
#272=POINT_STYLE('',#274,POSITIVE_LENGTH_MEASURE(3.),#275);
#273=PRE_DEFINED_POINT_MARKER_SYMBOL('plus');
#274=PRE_DEFINED_POINT_MARKER_SYMBOL('plus');
#275=COLOUR_RGB('Dark Red Pink',0.8,0.,0.2);
#276=COLOUR_RGB('Pale Gray',0.8,0.8,0.8);
#277=AXIS2_PLACEMENT_3D('',#377,#305,#306);
#278=AXIS2_PLACEMENT_3D('MCS',#461,#307,#308);
#279=AXIS2_PLACEMENT_3D('PCS',#462,#309,#310);
#280=AXIS2_PLACEMENT_3D('',#471,#315,#316);
#281=AXIS2_PLACEMENT_3D('',#472,#317,#318);
#282=AXIS2_PLACEMENT_3D('',#476,#320,#321);
#283=AXIS2_PLACEMENT_3D('',#477,#322,#323);
#284=AXIS2_PLACEMENT_3D('',#483,#327,#328);
#285=AXIS2_PLACEMENT_3D('',#492,#333,#334);
#286=AXIS2_PLACEMENT_3D('',#493,#335,#336);
#287=AXIS2_PLACEMENT_3D('',#494,#337,#338);
#288=AXIS2_PLACEMENT_3D('',#495,#339,#340);
#289=AXIS2_PLACEMENT_3D('',#496,#341,#342);
#290=AXIS2_PLACEMENT_3D('',#500,#344,#345);
#291=AXIS2_PLACEMENT_3D('',#501,#346,#347);
#292=AXIS2_PLACEMENT_3D('',#502,#348,#349);
#293=AXIS2_PLACEMENT_3D('',#504,#350,#351);
#294=AXIS2_PLACEMENT_3D('',#506,#352,#353);
#295=AXIS2_PLACEMENT_3D('',#509,#355,#356);
#296=AXIS2_PLACEMENT_3D('',#511,#357,#358);
#297=AXIS2_PLACEMENT_3D('',#541,#359,#360);
#298=AXIS2_PLACEMENT_3D('',#543,#361,#362);
#299=AXIS2_PLACEMENT_3D('',#544,#363,#364);
#300=AXIS2_PLACEMENT_3D('',#546,#365,#366);
#301=AXIS2_PLACEMENT_3D('',#547,#367,#368);
#302=AXIS2_PLACEMENT_3D('',#549,#370,#371);
#303=AXIS2_PLACEMENT_3D('',#551,#373,#374);
#304=AXIS2_PLACEMENT_3D('',#552,#375,#376);
#305=DIRECTION('',(0.,0.,1.));
#306=DIRECTION('',(1.,0.,0.));
#307=DIRECTION('',(0.,0.,1.));
#308=DIRECTION('',(0.,-1.,0.));
#309=DIRECTION('',(0.,0.,1.));
#310=DIRECTION('',(0.,-1.,0.));
#311=DIRECTION('',(0.,-1.,0.));
#312=DIRECTION('',(0.,0.,-1.));
#313=DIRECTION('',(0.,1.,0.));
#314=DIRECTION('',(0.,0.,1.));
#315=DIRECTION('',(-1.,0.,0.));
#316=DIRECTION('',(0.,0.,1.));
#317=DIRECTION('',(0.,0.,-1.));
#318=DIRECTION('',(1.,0.,0.));
#319=DIRECTION('',(0.,0.,1.));
#320=DIRECTION('',(0.,0.,1.));
#321=DIRECTION('',(1.,0.,0.));
#322=DIRECTION('',(0.,0.,1.));
#323=DIRECTION('',(1.,0.,0.));
#324=DIRECTION('',(1.,3.65204942310907E-16,0.));
#325=DIRECTION('',(0.,0.,1.));
#326=DIRECTION('',(-1.,0.,0.));
#327=DIRECTION('',(-3.65204942310907E-16,1.,0.));
#328=DIRECTION('',(-1.,-3.64291929955129E-16,0.));
#329=DIRECTION('',(0.,-1.,0.));
#330=DIRECTION('',(0.,0.,1.));
#331=DIRECTION('',(0.,-1.,0.));
#332=DIRECTION('',(0.,0.,1.));
#333=DIRECTION('',(1.,0.,0.));
#334=DIRECTION('',(0.,0.,1.));
#335=DIRECTION('',(0.,0.,-1.));
#336=DIRECTION('',(1.,0.,0.));
#337=DIRECTION('',(0.,0.,1.));
#338=DIRECTION('',(1.,0.,0.));
#339=DIRECTION('',(0.,0.,1.));
#340=DIRECTION('',(-1.,0.,0.));
#341=DIRECTION('',(0.,0.,-1.));
#342=DIRECTION('',(1.,0.,0.));
#343=DIRECTION('',(-1.,3.65204942310907E-16,0.));
#344=DIRECTION('',(0.,0.,-1.));
#345=DIRECTION('',(1.,0.,0.));
#346=DIRECTION('',(0.,0.,1.));
#347=DIRECTION('',(1.,0.,0.));
#348=DIRECTION('',(0.,0.,1.));
#349=DIRECTION('',(-1.,0.,0.));
#350=DIRECTION('',(0.,0.,1.));
#351=DIRECTION('',(1.,0.,0.));
#352=DIRECTION('',(0.,0.,1.));
#353=DIRECTION('',(1.,0.,0.));
#354=DIRECTION('',(1.,0.,0.));
#355=DIRECTION('',(0.,0.,-1.));
#356=DIRECTION('',(-1.,0.,0.));
#357=DIRECTION('',(0.,0.,1.));
#358=DIRECTION('',(-1.,0.,0.));
#359=DIRECTION('',(0.,0.,1.));
#360=DIRECTION('',(1.,0.,0.));
#361=DIRECTION('',(0.,0.,-1.));
#362=DIRECTION('',(-0.923728021347068,-0.383049008063238,4.09822704517709E-16));
#363=DIRECTION('',(0.,0.,-1.));
#364=DIRECTION('',(1.,0.,0.));
#365=DIRECTION('',(0.,0.,1.));
#366=DIRECTION('',(1.,0.,0.));
#367=DIRECTION('',(0.,0.,-1.));
#368=DIRECTION('',(-1.,0.,3.28134783671265E-17));
#369=DIRECTION('',(0.,0.,-1.));
#370=DIRECTION('',(0.,0.,1.));
#371=DIRECTION('',(1.,0.,0.));
#372=DIRECTION('',(0.,0.,-1.));
#373=DIRECTION('',(-3.65204942310907E-16,-1.,0.));
#374=DIRECTION('',(-1.,3.64291929955129E-16,0.));
#375=DIRECTION('',(0.,0.,1.));
#376=DIRECTION('',(-1.,0.,0.));
#377=CARTESIAN_POINT('',(0.,0.,0.));
#378=CARTESIAN_POINT('',(0.,0.,0.));
#379=CARTESIAN_POINT('',(-12.7,25.4,0.));
#380=CARTESIAN_POINT('',(-6.33333333333333,25.4,0.));
#381=CARTESIAN_POINT('',(-9.70943951023932,25.4,0.));
#382=CARTESIAN_POINT('',(-10.1283132523617,25.3587440272521,0.));
#383=CARTESIAN_POINT('',(-10.7324809723053,25.175472278418,0.));
#384=CARTESIAN_POINT('',(-11.2892847603818,24.8778538830627,0.));
#385=CARTESIAN_POINT('',(-11.777327888926,24.4773278887726,0.));
#386=CARTESIAN_POINT('',(-12.1778538832879,23.9892847600367,0.));
#387=CARTESIAN_POINT('',(-12.4754722784892,23.4324809720834,0.));
#388=CARTESIAN_POINT('',(-12.6281987357685,22.9290078723729,0.));
#389=CARTESIAN_POINT('',(-12.6820000979264,22.5660141866104,0.));
#390=CARTESIAN_POINT('',(-12.6964576639656,22.3701377330255,0.));
#391=CARTESIAN_POINT('',(-12.6996776877127,22.2654498057132,0.));
#392=CARTESIAN_POINT('',(-12.7000711754113,22.1899649785029,0.));
#393=CARTESIAN_POINT('',(-12.7,22.130625,0.));
#394=CARTESIAN_POINT('',(-12.7,18.430625,0.));
#395=CARTESIAN_POINT('',(-12.7,11.05375,0.));
#396=CARTESIAN_POINT('',(-12.7,-3.65375,0.));
#397=CARTESIAN_POINT('',(-12.7,-14.730625,0.));
#398=CARTESIAN_POINT('',(-12.7,-22.130625,0.));
#399=CARTESIAN_POINT('',(-12.7000711754115,-22.1899649784501,0.));
#400=CARTESIAN_POINT('',(-12.6996776877129,-22.2654498057126,0.));
#401=CARTESIAN_POINT('',(-12.6964576639677,-22.3701377330204,0.));
#402=CARTESIAN_POINT('',(-12.6820000979339,-22.5660141865927,0.));
#403=CARTESIAN_POINT('',(-12.6281987357797,-22.9290078723523,0.));
#404=CARTESIAN_POINT('',(-12.475472278418,-23.4324809723053,0.));
#405=CARTESIAN_POINT('',(-12.1778538830627,-23.9892847603818,0.));
#406=CARTESIAN_POINT('',(-11.7773278887726,-24.477327888926,0.));
#407=CARTESIAN_POINT('',(-11.2892847600367,-24.8778538832879,0.));
#408=CARTESIAN_POINT('',(-10.7324809720834,-25.1754722784891,0.));
#409=CARTESIAN_POINT('',(-10.2290078723729,-25.3281987357685,0.));
#410=CARTESIAN_POINT('',(-9.86601418661041,-25.3820000979264,0.));
#411=CARTESIAN_POINT('',(-9.67013773302554,-25.3964576639656,0.));
#412=CARTESIAN_POINT('',(-9.56544980571317,-25.3996776877127,0.));
#413=CARTESIAN_POINT('',(-9.48835039575676,-25.4000761448659,0.));
#414=CARTESIAN_POINT('',(-9.42578125,-25.4,0.));
#415=CARTESIAN_POINT('',(-7.84244791666667,-25.4,0.));
#416=CARTESIAN_POINT('',(-4.70052083333333,-25.4,0.));
#417=CARTESIAN_POINT('',(1.52395833333333,-25.4,0.));
#418=CARTESIAN_POINT('',(6.24427083333333,-25.4,0.));
#419=CARTESIAN_POINT('',(9.4109375,-25.4,0.));
#420=CARTESIAN_POINT('',(9.48667497636696,-25.4001142172984,0.));
#421=CARTESIAN_POINT('',(9.56872228775083,-25.3995971096411,0.));
#422=CARTESIAN_POINT('',(9.67340234057992,-25.3962167045338,0.));
#423=CARTESIAN_POINT('',(9.86601418659272,-25.3820000979339,0.));
#424=CARTESIAN_POINT('',(10.2290078723523,-25.3281987357797,0.));
#425=CARTESIAN_POINT('',(10.7324809723053,-25.175472278418,0.));
#426=CARTESIAN_POINT('',(11.2892847603818,-24.8778538830627,0.));
#427=CARTESIAN_POINT('',(11.777327888926,-24.4773278887726,0.));
#428=CARTESIAN_POINT('',(12.1778538832878,-23.9892847600367,0.));
#429=CARTESIAN_POINT('',(12.4754722784892,-23.4324809720834,0.));
#430=CARTESIAN_POINT('',(12.6281987357685,-22.9290078723729,0.));
#431=CARTESIAN_POINT('',(12.6820000979264,-22.5660141866104,0.));
#432=CARTESIAN_POINT('',(12.6964576639656,-22.3701377330255,0.));
#433=CARTESIAN_POINT('',(12.6996776877127,-22.2654498057132,0.));
#434=CARTESIAN_POINT('',(12.7000711754113,-22.1899649785029,0.));
#435=CARTESIAN_POINT('',(12.7,-22.130625,0.));
#436=CARTESIAN_POINT('',(12.7,-18.430625,0.));
#437=CARTESIAN_POINT('',(12.7,-11.05375,0.));
#438=CARTESIAN_POINT('',(12.7,3.65375,0.));
#439=CARTESIAN_POINT('',(12.7,14.730625,0.));
#440=CARTESIAN_POINT('',(12.7,22.130625,0.));
#441=CARTESIAN_POINT('',(12.7000711754115,22.1899649784501,0.));
#442=CARTESIAN_POINT('',(12.6996776877129,22.2654498057126,0.));
#443=CARTESIAN_POINT('',(12.6964576639677,22.3701377330204,0.));
#444=CARTESIAN_POINT('',(12.6820000979339,22.5660141865927,0.));
#445=CARTESIAN_POINT('',(12.6281987357797,22.9290078723523,0.));
#446=CARTESIAN_POINT('',(12.475472278418,23.4324809723053,0.));
#447=CARTESIAN_POINT('',(12.1778538830627,23.9892847603818,0.));
#448=CARTESIAN_POINT('',(11.7773278887726,24.477327888926,0.));
#449=CARTESIAN_POINT('',(11.2892847600367,24.8778538832879,0.));
#450=CARTESIAN_POINT('',(10.7324809720834,25.1754722784892,0.));
#451=CARTESIAN_POINT('',(10.2290078723729,25.3281987357685,0.));
#452=CARTESIAN_POINT('',(9.86601418661041,25.3820000979264,0.));
#453=CARTESIAN_POINT('',(9.67340234058528,25.3962167045316,0.));
#454=CARTESIAN_POINT('',(9.5687222877515,25.3995971096409,0.));
#455=CARTESIAN_POINT('',(9.48667497629948,25.4001142172988,0.));
#456=CARTESIAN_POINT('',(9.4109375,25.4,0.));
#457=CARTESIAN_POINT('',(6.24427083333333,25.4,0.));
#458=CARTESIAN_POINT('',(-0.059375000000002,25.4,0.));
#459=CARTESIAN_POINT('',(-6.33333333333333,25.4,0.));
#460=CARTESIAN_POINT('',(-9.70943951023932,25.4,0.));
#461=CARTESIAN_POINT('',(0.,0.,0.));
#462=CARTESIAN_POINT('',(-12.7,25.4,0.));
#463=CARTESIAN_POINT('',(-12.7,22.2,-14.2));
#464=CARTESIAN_POINT('',(-12.7,22.2,-14.2));
#465=CARTESIAN_POINT('',(-12.7,-22.2,-14.2));
#466=CARTESIAN_POINT('',(-12.7,-22.2,-17.38));
#467=CARTESIAN_POINT('',(-12.7,-22.2,0.));
#468=CARTESIAN_POINT('',(-12.7,22.2,0.));
#469=CARTESIAN_POINT('',(-12.7,22.2,0.));
#470=CARTESIAN_POINT('',(-12.7,22.2,-17.38));
#471=CARTESIAN_POINT('',(-12.7,22.2,-17.38));
#472=CARTESIAN_POINT('',(-9.5,22.2,0.));
#473=CARTESIAN_POINT('',(-9.5,25.4,0.));
#474=CARTESIAN_POINT('',(-9.5,25.4,-17.38));
#475=CARTESIAN_POINT('',(-9.5,25.4,-14.2));
#476=CARTESIAN_POINT('',(-9.5,22.2,-14.2));
#477=CARTESIAN_POINT('',(-9.5,22.2,-17.38));
#478=CARTESIAN_POINT('',(0.,25.4,0.));
#479=CARTESIAN_POINT('',(9.5,25.4,0.));
#480=CARTESIAN_POINT('',(9.5,25.4,-17.38));
#481=CARTESIAN_POINT('',(9.5,25.4,-14.2));
#482=CARTESIAN_POINT('',(9.5,25.4,-14.2));
#483=CARTESIAN_POINT('',(0.,25.4,-17.38));
#484=CARTESIAN_POINT('',(12.7,22.2,0.));
#485=CARTESIAN_POINT('',(12.7,22.2,0.));
#486=CARTESIAN_POINT('',(12.7,-22.2,0.));
#487=CARTESIAN_POINT('',(12.7,-22.2,-17.38));
#488=CARTESIAN_POINT('',(12.7,-22.2,-14.2));
#489=CARTESIAN_POINT('',(12.7,22.2,-14.2));
#490=CARTESIAN_POINT('',(12.7,22.2,-14.2));
#491=CARTESIAN_POINT('',(12.7,22.2,-17.38));
#492=CARTESIAN_POINT('',(12.7,22.2,-17.38));
#493=CARTESIAN_POINT('',(9.5,22.2,0.));
#494=CARTESIAN_POINT('',(9.5,22.2,-14.2));
#495=CARTESIAN_POINT('',(9.5,22.2,-17.38));
#496=CARTESIAN_POINT('',(-9.5,-22.2,0.));
#497=CARTESIAN_POINT('',(-9.5,-25.4,0.));
#498=CARTESIAN_POINT('',(0.,-25.4,0.));
#499=CARTESIAN_POINT('',(9.5,-25.4,0.));
#500=CARTESIAN_POINT('',(9.5,-22.2,0.));
#501=CARTESIAN_POINT('',(0.,0.,0.));
#502=CARTESIAN_POINT('',(0.,0.,-14.2));
#503=CARTESIAN_POINT('',(-4.12005026918963,0.,-14.2));
#504=CARTESIAN_POINT('',(-9.5,-22.2,-14.2));
#505=CARTESIAN_POINT('',(-9.5,-25.4,-14.2));
#506=CARTESIAN_POINT('',(9.5,-22.2,-14.2));
#507=CARTESIAN_POINT('',(9.5,-25.4,-14.2));
#508=CARTESIAN_POINT('',(9.5,-25.4,-14.2));
#509=CARTESIAN_POINT('',(0.,0.,-14.2));
#510=CARTESIAN_POINT('',(0.,0.,-7.74680881802771));
#511=CARTESIAN_POINT('',(0.,0.,-8.09510470143225));
#512=CARTESIAN_POINT('',(-3.16193440934877,0.,-8.09510470143225));
#513=CARTESIAN_POINT('',(2.92076741557693,1.21117583906206,-8.09510470143236));
#514=CARTESIAN_POINT('',(0.498415737452814,7.05271067021591,-8.09510470143236));
#515=CARTESIAN_POINT('',(-5.34311909370104,4.6303589920918,-8.09510470143236));
#516=CARTESIAN_POINT('',(-2.92076741557693,-1.21117583906206,-8.09510470143236));
#517=CARTESIAN_POINT('',(-0.498415737452814,-7.05271067021591,-8.09510470143236));
#518=CARTESIAN_POINT('',(5.34311909370104,-4.6303589920918,-8.09510470143236));
#519=CARTESIAN_POINT('',(2.92076741557693,1.21117583906206,-8.09510470143236));
#520=CARTESIAN_POINT('',(1.9685482898092,0.816312217785025,-7.81042971553411));
#521=CARTESIAN_POINT('',(0.335923854239153,4.75340879740343,-7.81042971553411));
#522=CARTESIAN_POINT('',(-3.60117272537925,3.12078436183338,-7.81042971553411));
#523=CARTESIAN_POINT('',(-1.9685482898092,-0.816312217785025,-7.81042971553411));
#524=CARTESIAN_POINT('',(-0.335923854239153,-4.75340879740343,-7.81042971553411));
#525=CARTESIAN_POINT('',(3.60117272537925,-3.12078436183338,-7.81042971553411));
#526=CARTESIAN_POINT('',(1.9685482898092,0.816312217785025,-7.81042971553411));
#527=CARTESIAN_POINT('',(0.986625936406043,0.409131343356533,-7.69333736792389));
#528=CARTESIAN_POINT('',(0.168363249692978,2.38238321616862,-7.69333736792389));
#529=CARTESIAN_POINT('',(-1.80488862311911,1.56412052945555,-7.69333736792389));
#530=CARTESIAN_POINT('',(-0.986625936406043,-0.409131343356533,-7.69333736792389));
#531=CARTESIAN_POINT('',(-0.168363249692978,-2.38238321616862,-7.69333736792389));
#532=CARTESIAN_POINT('',(1.80488862311911,-1.56412052945555,-7.69333736792389));
#533=CARTESIAN_POINT('',(0.986625936406043,0.409131343356533,-7.69333736792389));
#534=CARTESIAN_POINT('',(2.16840434497101E-16,8.13151629364128E-17,-7.74680881802771));
#535=CARTESIAN_POINT('',(5.42101086242752E-17,5.14996031930615E-16,-7.74680881802771));
#536=CARTESIAN_POINT('',(-3.79470760369927E-16,3.52365706057789E-16,-7.74680881802771));
#537=CARTESIAN_POINT('',(-2.16840434497101E-16,-8.13151629364128E-17,-7.74680881802771));
#538=CARTESIAN_POINT('',(-5.42101086242752E-17,-5.14996031930615E-16,-7.74680881802771));
#539=CARTESIAN_POINT('',(3.79470760369927E-16,-3.52365706057789E-16,-7.74680881802771));
#540=CARTESIAN_POINT('',(2.16840434497101E-16,8.13151629364128E-17,-7.74680881802771));
#541=CARTESIAN_POINT('',(0.,0.,-13.6));
#542=CARTESIAN_POINT('',(3.35416958914626,0.,-13.6));
#543=CARTESIAN_POINT('',(0.,0.,-8.46925426461166));
#544=CARTESIAN_POINT('',(0.,0.,-13.6));
#545=CARTESIAN_POINT('',(3.77364010767585,0.,-13.6));
#546=CARTESIAN_POINT('',(-3.77364010767585,0.,-13.6));
#547=CARTESIAN_POINT('',(0.,0.,-14.3));
#548=CARTESIAN_POINT('',(-9.5,-25.4,-17.38));
#549=CARTESIAN_POINT('',(-9.5,-22.2,-17.38));
#550=CARTESIAN_POINT('',(9.5,-25.4,-17.38));
#551=CARTESIAN_POINT('',(0.,-25.4,-17.38));
#552=CARTESIAN_POINT('',(9.5,-22.2,-17.38));
#553=MECHANICAL_DESIGN_GEOMETRIC_PRESENTATION_REPRESENTATION('',(#259,#260,
#261,#262,#263,#264),#554);
#554=(
GEOMETRIC_REPRESENTATION_CONTEXT(3)
GLOBAL_UNCERTAINTY_ASSIGNED_CONTEXT((#555))
GLOBAL_UNIT_ASSIGNED_CONTEXT((#561,#557,#556))
REPRESENTATION_CONTEXT('aaa337937_a','TOP_LEVEL_ASSEMBLY_PART')
);
#555=UNCERTAINTY_MEASURE_WITH_UNIT(LENGTH_MEASURE(0.0254),#561,
'DISTANCE_ACCURACY_VALUE','Maximum Tolerance applied to model');
#556=(
NAMED_UNIT(*)
SI_UNIT($,.STERADIAN.)
SOLID_ANGLE_UNIT()
);
#557=(
CONVERSION_BASED_UNIT('DEGREE',#559)
NAMED_UNIT(#558)
PLANE_ANGLE_UNIT()
);
#558=DIMENSIONAL_EXPONENTS(0.,0.,0.,0.,0.,0.,0.);
#559=PLANE_ANGLE_MEASURE_WITH_UNIT(PLANE_ANGLE_MEASURE(0.0174532925),#560);
#560=(
NAMED_UNIT(*)
PLANE_ANGLE_UNIT()
SI_UNIT($,.RADIAN.)
);
#561=(
LENGTH_UNIT()
NAMED_UNIT(*)
SI_UNIT(.MILLI.,.METRE.)
);
ENDSEC;
END-ISO-10303-21;
